Oops, an error
Loading. Please wait.

Vermin Tab

ver1
ver1

Whole song

Interactive

More versions @911Tabs.com
421 views 1 this week
no commentswrite comment
1 2 3 4 5
please rate
Autoscroll
+/-
esc
set tempo
stop
Contributor
Hey! There's an official Ultimate Guitar app which is ideal
for learning songs when you're away from computer. Get the app
WARNING: You are trying to view
                                    content from Ultimate-Guitar.com
                                    in an unauthorized application,
                                    which is prohibited.

                                    Please use an official Ultimate
                                    Guitar Tabs application for iPhone,
                                    iPad or Android to access legitimate
                                    chords, guitar, bass, and drum tabs
                                    from Ultimate-Guitar.com database.

                                    Type "ultimate guitar tabs" in Apple
                                    App Store's or Android Market's
                                    search to find the application.
------------------|--------------------|-------------------|
------------------|--------------------|-------------------|
------------------|--------------------|-------------------|
------------------|--------------------|--2----------------|
------------------|--------------2--2--|--2----------------|
------------------|--------------0--0--|--0----------------|


                                                                               
------------------|------------------|--------------------|-------------------|
------------------|------------------|--------------------|-------------------|
------------------|------------------|--------------------|-------------------|
------------------|------------------|--------------------|--2----------------|
------------------|------------------|--------------2--2--|--2----------------|
------------------|------------------|--------------0--0--|--0----------------|


                                                                               
------------------|------------------|--------------------|-------------------|
------------------|------------------|--------------------|-------------------|
------------------|------------------|--------------------|-------------------|
------------------|------------------|--------------------|--2----------------|
------------------|------------------|--------------2--2--|--2----------------|
------------------|------------------|--------------0--0--|--0----------------|


                                                                               
------------------|------------------|--------------------|-------------------|
------------------|------------------|--------------------|-------------------|
------------------|------------------|--------------------|-------------------|
------------------|------------------|--------------------|--2----------------|
------------------|------------------|--------------2--2--|--2----------------|
------------------|------------------|--------------0--0--|--0----------------|


                                                           
------------------|------------------|--------------------|
------------------|------------------|--------------------|
------------------|------------------|--------------------|
------------------|------------------|--------------------|
------------------|------------------|--------------2--2--|
------------------|------------------|--------------0--0--|


                                                                     
----------------------|----------------------|----------------------|
----------------------|----------------------|----------------------|
-----------------3/---|--6---------9---------|----------------------|
----------------------|----------------------|----------------------|
--2----2----2----1/---|--4----2----7----2----|--2----2----2----2----|
--0----0----0---------|-------0---------0----|--0----0----0----0----|


                                                                      
-----------------------|----------------------|----------------------|
-----------------------|----------------------|----------------------|
-----------------------|-----------------3/---|--6---------9---------|
-----------------------|----------------------|----------------------|
--2----2----2----2--2--|--2----2----2----1/---|--4----2----7----2----|
--0----0----0----0--0--|--0----0----0---------|-------0---------0----|


                                                                       
-----------------------|-----------------------|----------------------|
-----------------------|-----------------------|----------------------|
-------12----9---------|-----------------------|-----------------3/---|
-----------------------|-----------------------|----------------------|
--2----10----7----2----|--2----2----2----2--2--|--2----2----2----1/---|
--0---------------0----|--0----0----0----0--0--|--0----0----0---------|


                                                                      
----------------------|----------------------|-----------------------|
----------------------|----------------------|-----------------------|
--6-------------------|----------------------|-----------------------|
------------5---------|----------------------|-----------------------|
--4----2---------2----|--2----2----2----2----|--2----2----2----2--2--|
-------0----3----0----|--0----0----0----0----|--0----0----0----0--0--|


                                                                       
----------------------|-----------------------|-----------------------|
----------------------|-----------------------|-----------------------|
-----------------6/---|--9---------12---------|-----------------------|
----------------------|-----------------------|-------13----10--------|
--2----2----2----4/---|--7----2----10----2----|--2----11----8---------|
--0----0----0---------|-------0----------0----|--0----11----8---------|


                                                                 
----------------------|-------------------|---------------------|
----------------------|-------------------|---------------------|
----------------------|-------------------|---------------------|
------12----9------9/-|--2----------------|----------3/-6--6----|
------10----7------7/-|--2----------------|----------1/-4--4----|
------10----7------7/-|--0----------------|---------------------|


                                                                                
--------------------------|-------------------------|--------------------------|
--------------------------|-------------------------|--------------------------|
--------------------------|-------------------------|--------------------------|
--------------------------|--------------3/-6--6----|--------------------------|
--2--2--2--2--2--2--2--2--|--2--2--2--2--1/-4--4----|--2--2--2--2--2--2--2--2--|
--0--0--0--0--0--0--0--0--|--0--0--0--0-------------|--0--0--0--0--0--0--0--0--|


                                                        
----------------------------|--------------------------|
----------------------------|--------------------------|
----------------------------|--------------------------|
----------------------------|--------------------------|
--2--2--2-2-2--2--2--2-2-2--|--2--2--2--2--2--2--2--2--|
--0--0--0-0-0--0--0--0-0-0--|--0--0--0--0--0--0--0--0--|


                                                                                
-------------------------|--------------------------|--------------------------|
-------------------------|--------------------------|--------------------------|
-------------------------|--------------------------|--------------------------|
--------------3/-6--6----|--------------------------|--------------------------|
--2--2--2--2--1/-4--4----|--2--2--2--2--2--2--2--2--|--2--2--2-2-2--2--2--2----|
--0--0--0--0-------------|--0--0--0--0--0--0--0--0--|--0--0--0-0-0--0--0--0----|


                                                      
--------------------------|--------------------------|
--------------------------|--------------------------|
--------------------------|--------------------------|
-----------------6--------|-----------------9--------|
--5--5--5--5--5--4--5--5--|--5--5--5--5--5--7--5--5--|
--3--3--3--3--3-----3--3--|--3--3--3--3--3-----3--3--|


                                                      
--------------------------|--------------------------|
--------------------------|--------------------------|
-----------------8/-7-----|--------------------------|
-----------------6/-5-----|--------------------5-----|
--5--5--5--5--5--------5--|--5--5--5--5--5--4-----4--|
--3--3--3--3--3--------3--|--3--3--3--3--3-----------|


                                                      
--------------------------|--------------------------|
--------------------------|--------------------------|
--------------------------|--------------------------|
-----------------6--------|-----------------9--------|
--------5--5--5--4--5--5--|--5--5--5--5--5--7--5--5--|
--6--5--3--3--3-----3--3--|--3--3--3--3--3-----3--3--|


                                                      
--------------------------|--------------------------|
--------------------------|--------------------------|
-----------------8/-7-----|-----7--7--7--7--7--7--7--|
-----------------6/-5-----|-----5--5--5--5--5--5--5--|
--5--5--5--5--5--------5--|--5-----------------------|
--3--3--3--3--3--------3--|--3-----------------------|


                                                                                
--------------------------|-------------------------|--------------------------|
--------------------------|-------------------------|--------------------------|
--------------------------|-------------------------|--------------------------|
--------------------------|--------------3/-6--6----|--------------------------|
--2--2--2--2--2--2--2--2--|--2--2--2--2--1/-4--4----|--2--2--2--2--2--2--2--2--|
--0--0--0--0--0--0--0--0--|--0--0--0--0-------------|--0--0--0--0--0--0--0--0--|


                                                        
----------------------------|--------------------------|
----------------------------|--------------------------|
----------------------------|--------------------------|
----------------------------|--------------------------|
--2--2--2-2-2--2--2--2-2-2--|--2--2--2--2--2--2--2--2--|
--0--0--0-0-0--0--0--0-0-0--|--0--0--0--0--0--0--0--0--|


                                                                                
-------------------------|--------------------------|--------------------------|
-------------------------|--------------------------|--------------------------|
-------------------------|--------------------------|--------------------------|
--------------3/-6--6----|--------------------------|--------------------------|
--2--2--2--2--1/-4--4----|--2--2--2--2--2--2--2--2--|--2--2--2-2-2--2--2--2----|
--0--0--0--0-------------|--0--0--0--0--0--0--0--0--|--0--0--0-0-0--0--0--0----|


                                                      
--------------------------|--------------------------|
--------------------------|--------------------------|
--------------------------|--------------------------|
-----------------6--------|-----------------9--------|
--5--5--5--5--5--4--5--5--|--5--5--5--5--5--7--5--5--|
--3--3--3--3--3-----3--3--|--3--3--3--3--3-----3--3--|


                                                      
--------------------------|--------------------------|
--------------------------|--------------------------|
-----------------8/-7-----|--------------------------|
-----------------6/-5-----|--------------------5-----|
--5--5--5--5--5--------5--|--5--5--5--5--5--4-----4--|
--3--3--3--3--3--------3--|--3--3--3--3--3-----------|


                                                      
--------------------------|--------------------------|
--------------------------|--------------------------|
--------------------------|--------------------------|
-----------------6--------|-----------------9--------|
--------5--5--5--4--5--5--|--5--5--5--5--5--7--5--5--|
--6--5--3--3--3-----3--3--|--3--3--3--3--3-----3--3--|


                                                      
--------------------------|--------------------------|
--------------------------|--------------------------|
-----------------8/-7-----|-----7--7--7--7--7--7--7--|
-----------------6/-5-----|-----5--5--5--5--5--5--5--|
--5--5--5--5--5--------5--|--5-----------------------|
--3--3--3--3--3--------3--|--3-----------------------|


                                                                                
--------------------------|-------------------------|--------------------------|
--------------------------|-------------------------|--------------------------|
--------------------------|-------------------------|--------------------------|
--------------------------|--------------3/-6--6----|--------------------------|
--2--2--2--2--2--2--2--2--|--2--2--2--2--1/-4--4----|--2--2--2--2--2--2--2--2--|
--0--0--0--0--0--0--0--0--|--0--0--0--0-------------|--0--0--0--0--0--0--0--0--|


                                                        
----------------------------|--------------------------|
----------------------------|--------------------------|
----------------------------|--------------------------|
----------------------------|--------------------------|
--2--2--2-2-2--2--2--2-2-2--|--2--2--2--2--2--2--2--2--|
--0--0--0-0-0--0--0--0-0-0--|--0--0--0--0--0--0--0--0--|


                                                     
-------------------------|--------------------------|
-------------------------|--------------------------|
-------------------------|--------------------------|
--------------3/-6--6----|--------------------------|
--2--2--2--2--1/-4--4----|--2--2--2--2--2--2--2--2--|
--0--0--0--0-------------|--0--0--0--0--0--0--0--0--|


                                                                                
---------------------------|-------------------------|-------------------------|
---------------------------|-------------------------|-------------------------|
---------------------------|-------------------------|-------------------------|
---------------------------|-------------------------|-------------------------|
--2--2--2-2-2--2-----------|-------------------------|-------------------------|
--0--0--0-0-0--0--3--2--0--|--2--0--2--2r---0--2--0--|--2--2r---0--2--0--2--3r-|


                                                                                
------------------------|-------------------------|----------------------------|
------------------------|-------------------------|----------------------------|
------------------------|-------------------------|----------------------------|
------------------------|-------------------------|-----------13/-10-----------|
------------------------|-------------------------|--2--2--2--11/-8------------|
----0--3--0--3--3r---0--|--3--3r---0--0--5--3--2--|--0--0--0----------0--0--0--|


                                                         
---------------------------|----------------------------|
---------------------------|----------------------------|
---------------------------|----------------------------|
-----------12/-9-----------|-----------13/-10-----------|
-----------10/-7-----------|-----------11/-8------------|
--0--0--0---------0--0--0--|--0--0--0----------0--0--0--|


                                                                                
---------------------------|-------------------------|-------------------------|
---------------------------|-------------------------|-------------------------|
---------------------------|-------------------------|-------------------------|
-----------12/-9-----------|-------------------------|-------------------------|
-----------10/-7-----------|-------------------------|-------------------------|
--0--0--0---------0--0--2--|--2--0--2--2r---0--2--0--|--2--2r---0--2--0--2--3r-|


                                                                                
------------------------|-------------------------|----------------------------|
------------------------|-------------------------|----------------------------|
------------------------|-------------------------|----------------------------|
------------------------|-------------------------|-----------13/-10-----------|
------------------------|-------------------------|--2--2--2--11/-8------------|
----0--3--0--3--3r---0--|--3--3r---0--0--5--3--2--|--0--0--0----------0--0--0--|


                                                         
---------------------------|----------------------------|
---------------------------|----------------------------|
---------------------------|----------------------------|
-----------12/-9-----------|-----------13/-10-----------|
-----------10/-7-----------|-----------11/-8------------|
--0--0--0---------0--0--0--|--0--0--0----------0--0--0--|


                                                         
---------------------------|----------------------------|
---------------------------|----------------------------|
---------------------------|----------------------------|
-----------12/-9-----------|-----------13/-10-----------|
-----------10/-7-----------|--2--2--2--11/-8---2--2--2--|
--0--0--0---------0--0--0--|--0--0--0----------0--0--0--|


                                                         
---------------------------|----------------------------|
---------------------------|----------------------------|
---------------------------|----------------------------|
-----------12/-9-----------|-----------13/-10-----------|
--2--2--2--10/-7--2--2--2--|--2--2--2--11/-8---2--2--2--|
--0--0--0---------0--0--0--|--0--0--0----------0--0--0--|


                                                         
---------------------------|----------------------------|
---------------------------|----------------------------|
---------------------------|----------------------------|
-----------12/-9-----------|-----------13/-10-----------|
--2--2--2--10/-7--2--2--2--|--2--2--2--11/-8---2--2--2--|
--0--0--0---------0--0--0--|--0--0--0----------0--0--0--|


                                                         
---------------------------|----------------------------|
---------------------------|----------------------------|
---------------------------|----------------------------|
-----------12/-9-----------|-----------13/-10-----------|
--2--2--2--10/-7--2--2--2--|--2--2--2--11/-8---2--2--2--|
--0--0--0---------0--0--0--|--0--0--0----------0--0--0--|


                                                                   
---------------------------|-------------------|------------------|
---------------------------|-------------------|------------------|
---------------------------|-------------------|------------------|
-----------12/-9-----------|--2----------------|------------------|
--2--2--2--10/-7--2--2--2--|--2----------------|------------------|
--0--0--0---------0--0--0--|--0----------------|------------------|


                                                                   
------------------|---------------------|-------------------------|
------------------|---------------------|-------------------------|
------------------|---------------------|-------------------------|
------------------|----------3/-6--6----|----------------3--------|
------------------|----------1/-4--4----|--2----2--2--2--1--2--2--|
------------------|---------------------|--0----0--0--0-----0--0--|


                                                       
--------------------------|---------------------------|
--------------------------|---------------------------|
--------------------------|---------------------------|
-----------------6--------|-----------------10/-9-----|
--2--2--2--2--2--4--2--2--|--2--2--2--2--2--8/--7--2--|
--0--0--0--0--0-----0--0--|--0--0--0--0--0---------0--|


                                                      
--------------------------|--------------------------|
--------------------------|--------------------------|
--------------------------|--------------------------|
--------------------------|-----------------3--------|
--2--2--2--2--2-----------|--4--3-----------1--2--2--|
--0--0--0--0--0--6--4--3--|--------4--3--0-----0--0--|


                                                       
--------------------------|---------------------------|
--------------------------|---------------------------|
--------------------------|---------------------------|
-----------------6--------|-----------------10/-9-----|
--2--2--2--2--2--4--2--2--|--2--2--2--2--2--8/--7--2--|
--0--0--0--0--0-----0--0--|--0--0--0--0--0---------0--|


                                                                                
-------------------------|--------------------------|--------------------------|
-------------------------|--------------------------|--------------------------|
-------------------------|--------------------------|--------------------------|
-------------------------|-----------------3--------|-----------------6--------|
--2--2--2--2--2--6----5--|--8--7--2--2--2--1--2--2--|--2--2--2--2--2--4--2--2--|
--0--0--0--0--0--4----3--|--6--5--0--0--0-----0--0--|--0--0--0--0--0-----0--0--|


                                                       
---------------------------|--------------------------|
---------------------------|--------------------------|
---------------------------|--------------------------|
-----------------10/-9-----|--------------------------|
--2--2--2--2--2--8/--7--2--|--2--2--2--2--2-----------|
--0--0--0--0--0---------0--|--0--0--0--0--0--6--4--3--|


                                                      
--------------------------|--------------------------|
--------------------------|--------------------------|
--------------------------|--------------------------|
-----------------3--------|-----------------6--------|
--4--3-----------1--2--2--|--2--2--2--2--2--4--2--2--|
--------4--3--0-----0--0--|--0--0--0--0--0-----0--0--|


                                                       
---------------------------|--------------------------|
---------------------------|--------------------------|
---------------------------|--------------------------|
-----------------10/-9-----|-----9--9--9--9--9--9--9--|
--2--2--2--2--2--8/--7--2--|--2--7--7--7--6--7--7--7--|
--0--0--0--0--0---------0--|--0-----------------------|


                                                                                
-------------------------|--------------------------|--------------------------|
-------------------------|--------------------------|--------------------------|
-------------------------|--------------------------|--------------------------|
-------------------------|--------------------------|--------------------------|
----------------4--------|--7--------7-----------7--|--6--------6--5--------5--|
--3----3--3--3-----3--3--|-----3--3-----3--3--3-----|-----3--3--------3--3-----|


                                                      
--------------------------|--------------------------|
--------------------------|--------------------------|
--------------------------|--------------------------|
--------------------------|--------------------------|
--4--------4--------------|-----------------4--------|
-----3--3-----5--4--3--4--|--5--4--3--3--3-----3--3--|


                                                      
--------------------------|--------------------------|
--------------------------|--------------------------|
--------------------------|--------------------------|
--------------------------|--------------------------|
--7--------7-----------7--|--6--------6--5-----------|
-----3--3-----3--3--3-----|-----3--3--------3--3--3--|


                                                                                
--------------------------|-------------------------|--------------------------|
--------------------------|-------------------------|--------------------------|
--------------------------|-------------------------|--------------------------|
--------5/-7--5-----------|-------------------------|--------------------------|
-----4-----------6--------|----------------4--------|--7--------7-----------7--|
--3-----------------7h-5--|--3----3--3--3-----3--3--|-----3--3-----3--3--3-----|


                                                      
--------------------------|--------------------------|
--------------------------|--------------------------|
--------------------------|--------------------------|
--------------------------|--------------------------|
--6--------6--5--------5--|--4--------4--------------|
-----3--3--------3--3-----|-----3--3-----5--4--3--4--|


                                                      
--------------------------|--------------------------|
--------------------------|--------------------------|
--------------------------|--------------------------|
--------------------------|--------------------------|
-----------------4--------|--7--------7-----------7--|
--5--4--3--3--3-----3--3--|-----3--3-----3--3--3-----|


                                                                                
--------------------------|--------------------------|-------------------------|
--------------------------|--------------------------|-------------------------|
--------------------------|--------------------------|-------------------------|
--------------------------|--------5/-7--5-----------|----------------3--------|
--6--------6--5-----------|-----4-----------6--------|--2----2--2--2--1--2--2--|
-----3--3--------3--3--3--|--3-----------------7h-5--|--0----0--0--0-----0--0--|


                                                       
--------------------------|---------------------------|
--------------------------|---------------------------|
--------------------------|---------------------------|
-----------------6--------|-----------------10/-9-----|
--2--2--2--2--2--4--2--2--|--2--2--2--2--2--8/--7--2--|
--0--0--0--0--0-----0--0--|--0--0--0--0--0---------0--|


                                                                                
-------------------------|--------------------------|--------------------------|
-------------------------|--------------------------|--------------------------|
-------------------------|--------------------------|--------------------------|
-------------------------|-----------------3--------|-----------------6--------|
--2--2--2--2--2--6----5--|--8--7--2--2--2--1--2--2--|--2--2--2--2--2--4--2--2--|
--0--0--0--0--0--4----3--|--6--5--0--0--0-----0--0--|--0--0--0--0--0-----0--0--|


                                                                              
---------------------------|--------------------------|----------------------|
---------------------------|--------------------------|----------------------|
---------------------------|--------------------------|--9/-------------3/---|
-----------------10/-9-----|-----9--9--9--9--9--9--9--|----------------------|
--2--2--2--2--2--8/--7--2--|--2--7--7--7--7--7--7--7--|--7/---2----2----1/---|
--0--0--0--0--0---------0--|--0-----------------------|-------0----0---------|


                                                                      
----------------------|----------------------|-----------------------|
----------------------|----------------------|-----------------------|
--6---------9---------|----------------------|-----------------------|
----------------------|----------------------|-----------------------|
--4----2----7----2----|--2----2----2----2----|--2----2----2----2--2--|
-------0---------0----|--0----0----0----0----|--0----0----0----0--0--|


                                                                      
----------------------|----------------------|-----------------------|
----------------------|----------------------|-----------------------|
-----------------3/---|--6---------9---------|-------12----9---------|
----------------------|----------------------|-----------------------|
--2----2----2----1/---|--4----2----7----2----|--2----10----7----2----|
--0----0----0---------|-------0---------0----|--0---------------0----|


                                                                      
-----------------------|----------------------|----------------------|
-----------------------|----------------------|----------------------|
-----------------------|-----------------3/---|--6---------9---------|
-----------------------|----------------------|----------------------|
--2----2----2----2--2--|--2----2----2----1/---|--4----2----7----2----|
--0----0----0----0--0--|--0----0----0---------|-------0---------0----|


                                                                      
----------------------|-----------------------|----------------------|
----------------------|-----------------------|----------------------|
----------------------|-----------------------|-----------------6/---|
----------------------|-----------------------|----------------------|
--2----2----2----2----|--2----2----2----2--2--|--2----2----2----4/---|
--0----0----0----0----|--0----0----0----0--0--|--0----0----0---------|


                                                                        
-----------------------|-----------------------|-----------------------|
-----------------------|-----------------------|-----------------------|
--9---------12---------|-----------------------|-----------------------|
-----------------------|-------13----10--------|------12----9--9--9/---|
--7----2----10----2----|--2----11----8---------|------10----7--7--7/---|
-------0----------0----|--0----11----8---------|------10----7--7--7/---|


                                                      
--------------------------|--------------------------|
--------------------------|--------------------------|
--------------------------|--------------------------|
-----------------6--------|-----------------9--------|
--5--5--5--5--5--4--5--5--|--5--5--5--5--5--7--5--5--|
--3--3--3--3--3-----3--3--|--3--3--3--3--3-----3--3--|


                                                      
--------------------------|--------------------------|
--------------------------|--------------------------|
-----------------8/-7-----|--------------------------|
-----------------6/-5-----|--------------------5-----|
--5--5--5--5--5--------5--|--5--5--5--5--5--4-----4--|
--3--3--3--3--3--------3--|--3--3--3--3--3-----------|


                                                      
--------------------------|--------------------------|
--------------------------|--------------------------|
--------------------------|--------------------------|
-----------------6--------|-----------------9--------|
--------5--5--5--4--5--5--|--5--5--5--5--5--7--5--5--|
--6--5--3--3--3-----3--3--|--3--3--3--3--3-----3--3--|


                                                      
--------------------------|--------------------------|
--------------------------|--------------------------|
-----------------8/-7-----|-----7--7--7--7--7--7--7--|
-----------------6/-5-----|-----5--5--5--5--5--5--5--|
--5--5--5--5--5--------5--|--5-----------------------|
--3--3--3--3--3--------3--|--3-----------------------|


                                                                                
--------------------------|-------------------------|--------------------------|
--------------------------|-------------------------|--------------------------|
--------------------------|-------------------------|--------------------------|
--------------------------|--------------3/-6--6----|--------------------------|
--2--2--2--2--2--2--2--2--|--2--2--2--2--1/-4--4----|--2--2--2--2--2--2--2--2--|
--0--0--0--0--0--0--0--0--|--0--0--0--0-------------|--0--0--0--0--0--0--0--0--|


                                                        
----------------------------|--------------------------|
----------------------------|--------------------------|
----------------------------|--------------------------|
----------------------------|--------------------------|
--2--2--2-2-2--2--2--2-2-2--|--2--2--2--2--2--2--2--2--|
--0--0--0-0-0--0--0--0-0-0--|--0--0--0--0--0--0--0--0--|


                                                                                
-------------------------|--------------------------|--------------------------|
-------------------------|--------------------------|--------------------------|
-------------------------|--------------------------|--------------------------|
--------------3/-6--6----|--------------------------|--------------------------|
--2--2--2--2--1/-4--4----|--2--2--2--2--2--2--2--2--|--2--2--2-2-2--2--2--2----|
--0--0--0--0-------------|--0--0--0--0--0--0--0--0--|--0--0--0-0-0--0--0--0----|


                                                      
--------------------------|--------------------------|
--------------------------|--------------------------|
--------------------------|--------------------------|
-----------------6--------|-----------------9--------|
--5--5--5--5--5--4--5--5--|--5--5--5--5--5--7--5--5--|
--3--3--3--3--3-----3--3--|--3--3--3--3--3-----3--3--|


                                                      
--------------------------|--------------------------|
--------------------------|--------------------------|
-----------------8/-7-----|--------------------------|
-----------------6/-5-----|--------------------5-----|
--5--5--5--5--5--------5--|--5--5--5--5--5--4-----4--|
--3--3--3--3--3--------3--|--3--3--3--3--3-----------|


                                                      
--------------------------|--------------------------|
--------------------------|--------------------------|
--------------------------|--------------------------|
-----------------6--------|-----------------9--------|
--------5--5--5--4--5--5--|--5--5--5--5--5--7--5--5--|
--6--5--3--3--3-----3--3--|--3--3--3--3--3-----3--3--|


                                                      
--------------------------|--------------------------|
--------------------------|--------------------------|
-----------------8/-7-----|-----7--7--7--7--7--7--7--|
-----------------6/-5-----|-----5--5--5--5--5--5--5--|
--5--5--5--5--5--------5--|--5-----------------------|
--3--3--3--3--3--------3--|--3-----------------------|


                                                                                
--------------------------|-------------------------|--------------------------|
--------------------------|-------------------------|--------------------------|
--------------------------|-------------------------|--------------------------|
--------------------------|--------------3/-6--6----|--------------------------|
--2--2--2--2--2--2--2--2--|--2--2--2--2--1/-4--4----|--2--2--2--2--2--2--2--2--|
--0--0--0--0--0--0--0--0--|--0--0--0--0-------------|--0--0--0--0--0--0--0--0--|


                                                        
----------------------------|--------------------------|
----------------------------|--------------------------|
----------------------------|--------------------------|
----------------------------|--------------------------|
--2--2--2-2-2--2--2--2-2-2--|--2--2--2--2--2--2--2--2--|
--0--0--0-0-0--0--0--0-0-0--|--0--0--0--0--0--0--0--0--|


                                                     
-------------------------|--------------------------|
-------------------------|--------------------------|
-------------------------|--------------------------|
--------------3/-6--6----|--------------------------|
--2--2--2--2--1/-4--4----|--2--2--2--2--2--2--2--2--|
--0--0--0--0-------------|--0--0--0--0--0--0--0--0--|


                                                                                
---------------------------|-------------------------|-------------------------|
---------------------------|-------------------------|-------------------------|
---------------------------|-------------------------|-------------------------|
---------------------------|-------------------------|-------------------------|
--2--2--2-2-2--2-----------|-------------------------|-------------------------|
--0--0--0-0-0--0--3--2--0--|--2--0--2--2r---0--2--0--|--2--2r---0--2--0--2--3r-|


                                                                                
------------------------|-------------------------|----------------------------|
------------------------|-------------------------|----------------------------|
------------------------|-------------------------|----------------------------|
------------------------|-------------------------|-----------13/-10-----------|
------------------------|-------------------------|--2--2--2--11/-8------------|
----0--3--0--3--3r---0--|--3--3r---0--0--5--3--2--|--0--0--0----------0--0--0--|


                                                         
---------------------------|----------------------------|
---------------------------|----------------------------|
---------------------------|----------------------------|
-----------12/-9-----------|-----------13/-10-----------|
-----------10/-7-----------|-----------11/-8------------|
--0--0--0---------0--0--0--|--0--0--0----------0--0--0--|


                                                                                
---------------------------|-------------------------|-------------------------|
---------------------------|-------------------------|-------------------------|
---------------------------|-------------------------|-------------------------|
-----------12/-9-----------|-------------------------|-------------------------|
-----------10/-7-----------|-------------------------|-------------------------|
--0--0--0---------0--0--2--|--2--0--2--2r---0--2--0--|--2--2r---0--2--0--2--3r-|


                                                                                
------------------------|-------------------------|----------------------------|
------------------------|-------------------------|----------------------------|
------------------------|-------------------------|----------------------------|
------------------------|-------------------------|-----------13/-10-----------|
------------------------|-------------------------|--2--2--2--11/-8------------|
----0--3--0--3--3r---0--|--3--3r---0--0--5--3--2--|--0--0--0----------0--0--0--|


                                                         
---------------------------|----------------------------|
---------------------------|----------------------------|
---------------------------|----------------------------|
-----------12/-9-----------|-----------13/-10-----------|
-----------10/-7-----------|-----------11/-8------------|
--0--0--0---------0--0--0--|--0--0--0----------0--0--0--|


                                                         
---------------------------|----------------------------|
---------------------------|----------------------------|
---------------------------|----------------------------|
-----------12/-9-----------|-----------13/-10-----------|
-----------10/-7-----------|--2--2--2--11/-8---2--2--2--|
--0--0--0---------0--0--0--|--0--0--0--11/-8---0--0--0--|


                                                         
---------------------------|----------------------------|
---------------------------|----------------------------|
---------------------------|----------------------------|
-----------12/-9-----------|-----------13/-10-----------|
--2--2--2--10/-7--2--2--2--|--2--2--2--11/-8---2--2--2--|
--0--0--0--10/-7--0--0--0--|--0--0--0--11/-8---0--0--0--|


                                                         
---------------------------|----------------------------|
---------------------------|----------------------------|
---------------------------|----------------------------|
-----------12/-9-----------|-----------13/-10-----------|
--2--2--2--10/-7--2--2--2--|--2--2--2--11/-8---2--2--2--|
--0--0--0--10/-7--0--0--0--|--0--0--0--11/-8---0--0--0--|


                                                         
---------------------------|----------------------------|
---------------------------|----------------------------|
---------------------------|----------------------------|
-----------12/-9-----------|-----------13/-10-----------|
--2--2--2--10/-7--2--2--2--|--2--2--2--11/-8---2--2--2--|
--0--0--0--10/-7--0--0--0--|--0--0--0--11/-8---0--0--0--|


                                                         
---------------------------|----------------------------|
---------------------------|----------------------------|
---------------------------|----------------------------|
-----------12/-9-----------|-----------13/-10-----------|
--2--2--2--10/-7--2--2--2--|--2--2--2--11/-8---2--2--2--|
--0--0--0--10/-7--0--0--0--|--0--0--0--11/-8---0--0--0--|


                                                         
---------------------------|----------------------------|
---------------------------|----------------------------|
---------------------------|----------------------------|
-----------12/-9-----------|-----------13/-10-----------|
--2--2--2--10/-7--2--2--2--|--2--2--2--11/-8---2--2--2--|
--0--0--0--10/-7--0--0--0--|--0--0--0--11/-8---0--0--0--|


                                                         
---------------------------|----------------------------|
---------------------------|----------------------------|
---------------------------|----------------------------|
-----------12/-9-----------|-----------13/-10-----------|
--2--2--2--10/-7--2--2--2--|--2--2--2--11/-8---2--2--2--|
--0--0--0--10/-7--0--0--0--|--0--0--0--11/-8---0--0--0--|


                                                         
---------------------------|----------------------------|
---------------------------|----------------------------|
---------------------------|----------------------------|
-----------12/-9-----------|-----------13/-10-----------|
--2--2--2--10/-7--2--2--2--|--2--2--2--11/-8---2--2--2--|
--0--0--0--10/-7--0--0--0--|--0--0--0--11/-8---0--0--0--|


                                                                          
---------------------------|-----------------------|---------------------|
---------------------------|-----------------------|---------------------|
---------------------------|-----------------------|---------------------|
-----------12/-9-----------|--2----13----10--------|------12----9/-------|
--2--2--2--10/-7--2--2--2--|--2----11----8---------|------10----7/-------|
--0--0--0--10/-7--0--0--0--|--0----11----8---------|------10----7/-------|


                     
--0----------------||
--0----------------||
--x----------------||
--2----------------||
--2----------------||
--0----------------||

comments
We did not receive enough feedback on this tab! Please rate:
print report bad tab
1 2 3 4 5
I want to post or [tab]
guest
You may want to rate the tab now too:
select rating
Please do not post tabs as comments. Select "correction" instead!