Oops, an error
Loading. Please wait.

Choke Hold Tab

ver1
ver1

Whole song

Interactive

More versions @911Tabs.com
443 views 3 this week
no commentswrite comment
1 2 3 4 5
please rate
Autoscroll
+/-
esc
set tempo
stop
Contributor
Tuning
D# G# C# F# A# D#
Hey! There's an official Ultimate Guitar app which is ideal
for learning songs when you're away from computer. Get the app
WARNING: You are trying to view
                                    content from Ultimate-Guitar.com
                                    in an unauthorized application,
                                    which is prohibited.

                                    Please use an official Ultimate
                                    Guitar Tabs application for iPhone,
                                    iPad or Android to access legitimate
                                    chords, guitar, bass, and drum tabs
                                    from Ultimate-Guitar.com database.

                                    Type "ultimate guitar tabs" in Apple
                                    App Store's or Android Market's
                                    search to find the application.
#----------------------------------PLEASE NOTE---------------------------------#
#This file is the author's own work and represents their interpretation of the #
#song. You may only use this file for private study, scholarship, or research. #
#------------------------------------------------------------------------------#

CHOKE HOLD
As recorded by The Haunted
(From the 1998 Album THE HAUNTED)

Transcribed by The Foreverlorn
        

Words by Dolving, Anders Music by Jensen, Jonas

Gtr I (Eb Ab Db Gb Bb Eb) - 'Untitled'
Gtr II (Eb Ab Db Gb Bb Eb) - 'Untitled'

 Intro
  Q=235
  E5
 4/4
  Gtr I
  PM    PM  PM~
  Q  E  E E E Q    Q   H.            Q.   Q.   Q
|----------------|-----------------|----------------|
|----------------|-----------------|----------------|
|----------------|-----------------|----------------|
|----5----7---8--|-2---------------|----------------|
|----------------|-2---------------|----------------|
|-0-----0---0----|-0---------------|-6\---6\---6\---|
|
| Gtr II
|                  PM  PM-|   PM~
| Q  H.            E E E  E E E Q    Q.   Q.   Q
|----------------|-----------------|----------------|
|----------------|-----------------|----------------|
|----------------|-----------------|----------------|
|-2--------------|---5------7---8--|----------------|
|-2--------------|-----------------|----------------|
|-0--------------|-0---0--0---0----|-6\---6\---6\---|


 Verse
  $
  N.C.                                                           E5      D5E5
  Gtrs I, II
  PM|   PM  PM  PM--|   PM|   PM~        PM|   PM  PM  PM    PM|
  E E E E E E E E   E E E E E E E +E     E E E E E E E E   E E E E +E  E E E
|-----------------|--------------------|-----------------|-------------------|
|-----------------|--------------------|-----------------|-------------------|
|-----------------|--------------------|-----------------|-------------------|
|-----5---7---8---|---5-----7---8-(8)\-|-----5---7---8---|-5-----9-(9)-9-7-9-|
|-----------------|--------------------|-----------------|-------7-(7)-7-5-7-|
|-0-0---0---0---0-|-0---0-0---0--------|-0-0---0---0---0-|---0-0-------------|


  N.C.
  PM|   PM  PM  PM--|   PM|   PM~        PM|   PM  PM  PM    PM|
  E E E E E E E E   E E E E E E E +E     E E E E E E E E   E E E E +E  E E E
|-----------------|--------------------|-----------------|-------------------|
|-----------------|--------------------|-----------------|-------------------|
|-----------------|--------------------|-----------------|-------------------|
|-----5---7---8---|---5-----7---8-(8)\-|-----5---7---8---|-5-----------------|
|-----------------|--------------------|-----------------|-------8-(8)-8-8-8-|
|-0-0---0---0---0-|-0---0-0---0--------|-0-0---0---0---0-|---0-0-------------|


   Pre-Chorus
    $$
    N.C.
    PM------------|
    S S S S S S S S E S S E S S
||------------------------------|
||o-----------------------------|
||------------------------------|
||------------------------------|
||o-----------------------------|
||--2-2-2-2-2-2-2-2-5-8p5-4-7p4-|


 1.                          2.
                                                      D.S.
                                          PM----------|
  E S S E S S E S S E S S     E S S E S S S S S S S S S S
|--------------------------||------------------------------|
|-------------------------o||------------------------------|
|--------------------------||------------------------------|
|--------------------------||------------------------------|
|-------------------------o||------------------------------|
|-5-8p5-4-7p4-5-8p5-4-7p4--||-5-8p5-4-7p4-1-1-1---1-1-1----|


  N.C.
  PM------------|
  S S S S S S S S E S S E S S   E S S E S S E S S  Q
|-----------------------------|-----------------------|
|-----------------------------|-----------------------|
|-----------------------------|-------------------12--|
|-----------------------------|-----------------------|
|-----------------------------|-------------------10--|
|-2-2-2-2-2-2-2-2-5-8p5-4-7p4-|-5-8p5-4-7p4-5-8p5-----|


      PM----|
   Q  S S S S E S S E S S   E S S E S S  E Q.
|-------------------------|---------------------|
|-------------------------|---------------------|
|-11----------------------|-------------10-7----|
|-------------------------|---------------------|
|--9----------------------|--------------8-5----|
|-----2-2-2-2-5-8p5-4-7p4-|-5-8p5-4-7p4---------|


   Chorus
    N.C.
   6/8
    PM|   PM     PM|   PM     PM|   PM     PM--------|
    E E E E Q    E E E E Q    E E E E Q    E E E E E E
||-------------|------------|------------|-------------|
||o------------|------------|------------|-------------|
||-------------|------------|------------|-------------|
||-------------|------------|------------|-------------|
||o-----7---7--|-----6---6--|-----7---7--|-1-----------|
||--0-0---0----|-0-0---0----|-0-0---0----|---3-2-1-1-1-|


                                        1.        2.
                                                 To Coda
  N.C.                                   G5 Bb5    G5 F#5
                                        2/4
  PM|   PM     PM|   PM     PM|   PM
  E E E E Q    E E E E Q    E E E E Q    Q  Q      Q  Q
|------------|------------|------------|--------||-------|
|------------|------------|------------|-------o||-------|
|------------|------------|------------|--------||-------|
|------------|------------|------------|-5--8---||-5--4--|
|-----7---7--|-----6---6--|-----7---7--|-5--8--o||-5--4--|
|-0-0---0----|-0-0---0----|-0-0---0----|-3--6---||-3--2--|


 Break                 Verse Riff
  E5                    N.C.
 4/4
  Gtr I
  PM|   PM  PM~         PM  PM|   PM~
  E E E E E E E +E      E E E E E E E +E
|--------------------||--------------------|
|--------------------||--------------------|
|--------------------||--------------------|
|-----5---7---8-(8)\-||---5-----7---8-(8)\-|
|--------------------||--------------------|
|-0-0---0---0--------||-0---0-0---0--------|
|
| Gtr II
|             ~         PM  PM|   PM~
| Q   H       E +E      E E E E E E E +E
|--------------------||--------------------|
|--------------------||--------------------|
|--------------------||--------------------|
|-2-----------8-(8)\-||---5-----7---8-(8)\-|
|-2------------------||--------------------|
|-0------------------||-0---0-0---0--------|


                          E5      D5E5
  PM|   PM  PM  PM    PM|
  E E E E E E E E   E E E E +E  E E E
|-----------------|-------------------|
|-----------------|-------------------|
|-----------------|-------------------|
|-----5---7---8---|-5-----9-(9)-9-7-9-|
|-----------------|-------7-(7)-7-5-7-|
|-0-0---0---0---0-|---0-0-------------|
|
| PM|   PM  PM  PM    PM|
| E E E E E E E E   E E E E +E  E E E
|-----------------|-------------------|
|-----------------|-------------------|
|-----------------|-------------------|
|-----5---7---8---|-5-----9-(9)-9-7-9-|
|-----------------|-------7-(7)-7-5-7-|
|-0-0---0---0---0-|---0-0-------------|


  N.C.
  Gtrs I, II
  PM|   PM  PM  PM--|   PM|   PM~        PM|   PM  PM  PM    PM|
  E E E E E E E E   E E E E E E E +E     E E E E E E E E   E E E E +E  E E E
|-----------------|--------------------|-----------------|-------------------|
|-----------------|--------------------|-----------------|-------------------|
|-----------------|--------------------|-----------------|-------------------|
|-----5---7---8---|---5-----7---8-(8)\-|-----5---7---8---|-5-----------------|
|-----------------|--------------------|-----------------|-------8-(8)-8-8-8-|
|-0-0---0---0---0-|-0---0-0---0--------|-0-0---0---0---0-|---0-0-------------|


 Verse Riff Variation
  N.C.                                                           E5/B    D5E5/B
  PM|   PM  PM  PM--|   PM|   PM~        PM|   PM  PM  PM    PM|
  E E E E E E E E   E E E E E E E +E     E E E E E E E E   E E E E +E  E E E
|-----------------|--------------------|-----------------|-------------------|
|-----------------|--------------------|-----------------|-------------------|
|-----------------|--------------------|-----------------|-------------------|
|-----------------|--------------------|-----------------|-------2-(2)-2-0-2-|
|-----------------|--------------------|-----------------|-------2-(2)-2-0-2-|
|-0-0-3-0-5-0-6-0-|-0-3-0-0-5-0-6-(6)\-|-0-0-3-0-5-0-6-0-|-3-0-0-------------|


                                                             D.S.S. al Coda
  N.C.
  PM|   PM  PM  PM--|   PM|   PM~        PM|   PM  PM  PM    PM|
  E E E E E E E E   E E E E E E E +E     E E E E E E E E   E E E E +E  E E E
|-----------------|--------------------|-----------------|-------------------|
|-----------------|--------------------|-----------------|-------------------|
|-----------------|--------------------|-----------------|-------------------|
|-----------------|--------------------|-----------------|-------------------|
|-----------------|--------------------|-----------------|-------8-(8)-8-8-8-|
|-0-0-3-0-5-0-6-0-|-0-3-0-0-5-0-6-(6)\-|-0-0-3-0-5-0-6-0-|-3-0-0-------------|


   Interlude
    &
    N.C.
    PM------------------------------------|
    E E E E E E E E   S S E E S S E E S S E  3x
||------------------|------------------------||
||o-----------------|-----------------------o||
||------------------|------------------------||
||------------------|------------------------||
||o-----------------|-----------------------o||
||--6-6-6-6-6-3-6-3-|-0-0-0-0-0-0-0-0-0-0-0--||


  C5                N.C.
  E E E E E E E E   Q.   Q.   E E
|-----------------|---------------|
|-----------------|---------------|
|-5-5-5-5-5-5-5-5-|---------------|
|-5-5-5-5-5-5-5-5-|---------------|
|-3-3-3-3-3-3-3-3-|---------------|
|-----------------|-3----6----3-6-|


    N.C.                                        C5
    PM------------------------------------|
    E E E E E E E E   S S E E S S E E S S E  3x E E E E E E E E
||------------------|------------------------||-----------------|
||o-----------------|-----------------------o||-----------------|
||------------------|------------------------||-5-5-5-5-5-5-5-5-|
||------------------|------------------------||-5-5-5-5-5-5-5-5-|
||o-----------------|-----------------------o||-3-3-3-3-3-3-3-3-|
||--6-6-6-6-6-3-6-3-|-0-0-0-0-0-0-0-0-0-0-0--||-----------------|


  G#m
    PM|   PM|   PM    PM|   PM|
  E E E E E E E E   E E E E E E E E
|-----------------|-----------------|
|-----------------|-----------------|
|-----------------|-----------------|
|-----------------|-----------------|
|-2-----2-----2---|-2-----2-----2-2-|
|-4-4-4-4-4-4-4-4-|-4-4-4-4-4-4-4-4-|


   Chorus
    N.C.
   6/8
    PM|   PM     PM|   PM     PM|   PM     PM--------|
    E E E E Q    E E E E Q    E E E E Q    E E E E E E
||-------------|------------|------------|-------------|
||o------------|------------|------------|-------------|
||-------------|------------|------------|-------------|
||-------------|------------|------------|-------------|
||o-----7---7--|-----6---6--|-----7---7--|-1-----------|
||--0-0---0----|-0-0---0----|-0-0---0----|---3-2-1-1-1-|


                                        1.        2.
  N.C.                                   G5 Bb5    G5 F#5
                                        2/4
  PM|   PM     PM|   PM     PM|   PM
  E E E E Q    E E E E Q    E E E E Q    Q  Q      Q  Q
|------------|------------|------------|--------||-------|
|------------|------------|------------|-------o||-------|
|------------|------------|------------|--------||-------|
|------------|------------|------------|-5--8---||-5--4--|
|-----7---7--|-----6---6--|-----7---7--|-5--8--o||-5--4--|
|-0-0---0----|-0-0---0----|-0-0---0----|-3--6---||-3--2--|


  E5
 4/4
  Q  Q  Q  Q    Q  H.
|-------------|----------|
|-------------|----------|
|-------------|----------|
|-2-----2-----|-2--------|
|-2-----2-----|-2--------|
|-0-----0-----|-0--------|


 Verse Riff Variation
  N.C.                                                          E5/B    D5E5/B
  Gtr I
  PM|   PM  PM  PM--|   PM|   PM~       PM|   PM  PM  PM    PM|
  E E E E E E E E   E E E E E E E +E    E E E E E E E E   E E E E +E  E E E
|-----------------|-------------------|-----------------|-------------------|
|-----------------|-------------------|-----------------|-------------------|
|-----------------|-------------------|-----------------|-------------------|
|-----------------|-------------------|-----------------|-------2-(2)-2-0-2-|
|-----------------|-------------------|-----------------|-------2-(2)-2-0-2-|
|-0-0-3-0-5-0-6-0-|-0-3-0-0-5-0-6-(6)-|-0-0-3-0-5-0-6-0-|-3-0-0-------------|
|
| Gtr II
| PM|   PM  PM  PM--|   PM|   PM        PM|   PM  PM  PM    PM|
| E E E E E E E E   E E E E E E Q       E E E E E E E E   E E E E +E  E E E
|-----------------|-------------0-----|-----------------|-------------------|
|-----------------|-------------0-----|-----------------|-------------------|
|-----------------|-------------0-----|-----------------|-------------------|
|-----------------|-------------------|-----------------|-------2-(2)-2-0-2-|
|-----------------|-------------------|-----------------|-------2-(2)-2-0-2-|
|-0-0-3-0-5-0-6-0-|-0-3-0-0-5-0-------|-0-0-3-0-5-0-6-0-|-3-0-0-------------|


  N.C.
  PM|   PM  PM  PM--|   PM|   PM~       PM|   PM  PM  PM    PM|
  E E E E E E E E   E E E E E E E +E    E E E E E E E E   E E E E +E  E E E
|-----------------|-------------------|-----------------|-------------------|
|-----------------|-------------------|-----------------|-------------------|
|-----------------|-------------------|-----------------|-------------------|
|-----------------|-------------------|-----------------|-------------------|
|-----------------|-------------------|-----------------|-------8-(8)-8-8-8-|
|-0-0-3-0-5-0-6-0-|-0-3-0-0-5-0-6-(6)-|-0-0-3-0-5-0-6-0-|-3-0-0-------------|
|
| PM|   PM  PM  PM--|   PM|   PM        PM|   PM  PM  PM    PM|
| E E E E E E E E   E E E E E E Q       E E E E E E E E   E E E E +E  E E E
|-----------------|-------------0-----|-----------------|-------------------|
|-----------------|-------------0-----|-----------------|-------------------|
|-----------------|-------------0-----|-----------------|-------------------|
|-----------------|-------------------|-----------------|-------------------|
|-----------------|-------------------|-----------------|-------8-(8)-8-8-8-|
|-0-0-3-0-5-0-6-0-|-0-3-0-0-5-0-------|-0-0-3-0-5-0-6-0-|-3-0-0-------------|


  N.C.                                                           E5/B    D5E5/B
  Gtrs I, II
  PM|   PM  PM  PM--|   PM|   PM~        PM|   PM  PM  PM    PM|
  E E E E E E E E   E E E E E E E +E     E E E E E E E E   E E E E +E  E E E
|-----------------|--------------------|-----------------|-------------------|
|-----------------|--------------------|-----------------|-------------------|
|-----------------|--------------------|-----------------|-------------------|
|-----------------|--------------------|-----------------|-------2-(2)-2-0-2-|
|-----------------|--------------------|-----------------|-------2-(2)-2-0-2-|
|-0-0-3-0-5-0-6-0-|-0-3-0-0-5-0-6-(6)\-|-0-0-3-0-5-0-6-0-|-3-0-0-------------|


  N.C.
  PM|   PM  PM  PM--|   PM|   PM~        PM|   PM  PM  PM    PM|
  E E E E E E E E   E E E E E E E +E     E E E E E E E E   E E E E +E  E E E
|-----------------|--------------------|-----------------|-------------------|
|-----------------|--------------------|-----------------|-------------------|
|-----------------|--------------------|-----------------|-------------------|
|-----------------|--------------------|-----------------|-------------------|
|-----------------|--------------------|-----------------|-------8-(8)-8-8-8-|
|-0-0-3-0-5-0-6-0-|-0-3-0-0-5-0-6-(6)\-|-0-0-3-0-5-0-6-0-|-3-0-0-------------|


   Interlude #2
    N.C.E5/B            Eb5/Bb        E5/B        N.C.
                                                                   2/8
    Gtr I
    PM|   PM      PM|     PM      PM|   PM
                                                  |-3-|     |-3-|
    E E E E E +E  E E   E E E +E  E E E E   E +E  E E E  Q  E E E   Q
||--------------------|-------------------|-----------------------|----|
||o-------------------|-------------------|-----------------------|----|
||--------------------|-------------------|-----------------------|----|
||--------------------|-------------------|-----------------------|----|
||o-----7---7-(7)-----|-6---6-(6)-----7---|-7-(7)-------10--------|-9--|
||--0-0-7-0-7-(7)-0-0-|-6-0-6-(6)-0-0-7-0-|-7-(7)-8-8-8-----7-7-7-|----|
|
|   Gtr II
|   PM|   PM      PM|     PM      PM|   PM
|                                                 |-3-|     |-3-|
|   E E E E E +E  E E   E E E +E  E E E E   E +E  E E E  Q  E E E   Q
||--------------------|-------------------|-----------------------|----|
||o-------------------|-------------------|-----------------------|----|
||--------------------|-------------------|-----------------------|----|
||------9---9-(9)-----|-8---8-(8)-----9---|-9-(9)--------9--------|-7--|
||o-----7---7-(7)-----|-6---6-(6)-----7---|-7-(7)-7-7-7-----6-6-6-|----|
||--0-0---0-------0-0-|---0-------0-0---0-|-----------------------|----|


                                         1.              2.
  N.C.E5/B            Eb5/Bb        E5/B        G5 Bb5    E5/B  G5 F5
 4/4                                     6/8
  PM|   PM      PM|     PM      PM|   PM
  E E E E E +E  E E   E E E +E  E E E E   E +E  Q  Q      E +E  Q  Q
|-------------------|-------------------|--------------||-------------|
|-------------------|-------------------|-------------o||-------------|
|-------------------|-------------------|--------------||-------------|
|-------------------|-------------------|-------5--8---||-------5--3--|
|-----7---7-(7)-----|-6---6-(6)-----7---|-7-(7)-5--8--o||-7-(7)-5--3--|
|-0-0-7-0-7-(7)-0-0-|-6-0-6-(6)-0-0-7-0-|-7-(7)-3--6---||-7-(7)-3--1--|
|
| PM|   PM      PM|     PM      PM|   PM
| E E E E E +E  E E   E E E +E  E E E E   E +E  Q  Q      E +E  Q  Q
|-------------------|-------------------|--------------||-------------|
|-------------------|-------------------|-------------o||-------------|
|-------------------|-------------------|--------------||-------------|
|-----9---9-(9)-----|-8---8-(8)-----9---|-9-(9)-5--8---||-------5--3--|
|-----7---7-(7)-----|-6---6-(6)-----7---|-7-(7)-5--8--o||-7-(7)-5--3--|
|-0-0---0-------0-0-|---0-------0-0---0-|-------3--6---||-7-(7)-3--1--|


 Interlude #2 Variation
  N.C.
 4/4                                                                   2/8
  PM|    PM        PM|     PM      PM|    PM          PM--|     PM--|
                                                      |-3-|     |-3-|
  E E  E E  E  +E  E E   E E E +E  E E  E E    E  +E  E E E  Q  E E E   Q
|----------------------|--------------------|-------------------------|----|
|----------------------|--------------------|-------------------------|----|
|----------------------|--------------------|-------------------------|----|
|----------------------|--------------------|-------------------------|----|
|-----10---10-(10)-----|-9---9-(9)-----10---|-10-(10)-------10--------|-9--|
|-0-0----0---------0-0-|---0-------0-0----0-|---------8-8-8-----7-7-7-|----|
|
| PM|    PM        PM|     PM      PM|    PM          PM--|     PM--|
|                                                     |-3-|     |-3-|
| E E  E E  E  +E  E E   E E E +E  E E  E E    E  +E  E E E  Q  E E E   Q
|----------------------|--------------------|-------------------------|----|
|----------------------|--------------------|-------------------------|----|
|----------------------|--------------------|-------------------------|----|
|----------------------|--------------------|----------------9--------|-7--|
|------7----7--(7)-----|-6---6-(6)------7---|--7--(7)-7-7-7-----6-6-6-|----|
|-0-0----0---------0-0-|---0-------0-0----0-|-------------------------|----|


  N.C.                                                G5 Bb5
 4/4                                         6/8
  PM|    PM        PM|     PM      PM|    PM
  E E  E E  E  +E  E E   E E E +E  E E  E E    E  +E  Q  Q
|----------------------|--------------------|---------------|
|----------------------|--------------------|---------------|
|----------------------|--------------------|---------------|
|----------------------|--------------------|---------5--8--|
|-----10---10-(10)-----|-9---9-(9)-----10---|-10-(10)-5--8--|
|-0-0----0---------0-0-|---0-------0-0----0-|---------3--6--|
|
| PM|    PM        PM|     PM      PM|    PM
| E E  E E  E  +E  E E   E E E +E  E E  E E    E  +E  Q  Q
|----------------------|--------------------|---------------|
|----------------------|--------------------|---------------|
|----------------------|--------------------|---------------|
|----------------------|--------------------|---------5--8--|
|------7----7--(7)-----|-6---6-(6)------7---|--7--(7)-5--8--|
|-0-0----0---------0-0-|---0-------0-0----0-|---------3--6--|


  N.C.
 4/4                                                                   2/8
  PM|    PM        PM|     PM      PM|    PM          PM--|     PM--|
                                                      |-3-|     |-3-|
  E E  E E  E  +E  E E   E E E +E  E E  E E    E  +E  E E E  Q  E E E   Q
|----------------------|--------------------|-------------------------|----|
|----------------------|--------------------|-------------------------|----|
|----------------------|--------------------|-------------------------|----|
|----------------------|--------------------|-------------------------|----|
|-----10---10-(10)-----|-9---9-(9)-----10---|-10-(10)-------10--------|-9--|
|-0-0----0---------0-0-|---0-------0-0----0-|---------8-8-8-----7-7-7-|----|
|
| PM|    PM        PM|     PM      PM|    PM          PM--|     PM--|
|                                                     |-3-|     |-3-|
| E E  E E  E  +E  E E   E E E +E  E E  E E    E  +E  E E E  Q  E E E   Q
|----------------------|--------------------|-------------------------|----|
|----------------------|--------------------|-------------------------|----|
|----------------------|--------------------|-------------------------|----|
|----------------------|--------------------|----------------9--------|-7--|
|------7----7--(7)-----|-6---6-(6)------7---|--7--(7)-7-7-7-----6-6-6-|----|
|-0-0----0---------0-0-|---0-------0-0----0-|-------------------------|----|


  N.C.
 4/4
  PM|    PM        PM|     PM      PM|    PM
  E E  E E  E  +E  E E   E E E +E  E E  E E    E  +E  E S  S E E Q
|----------------------|--------------------|-----------------------|
|----------------------|--------------------|-----------------------|
|----------------------|--------------------|-----------------------|
|----------------------|--------------------|-----------------------|
|-----10---10-(10)-----|-9---9-(9)-----10---|-10-(10)-7-9h10--------|
|-0-0----0---------0-0-|---0-------0-0----0-|----------------8-7-5--|
|
| PM|    PM        PM|     PM      PM|    PM
| E E  E E  E  +E  E E   E E E +E  E E  E E    E  +E  E S  S E E Q
|----------------------|--------------------|-----------------------|
|----------------------|--------------------|-----------------------|
|----------------------|--------------------|-----------------------|
|----------------------|--------------------|-----------------------|
|------7----7--(7)-----|-6---6-(6)------7---|--7--(7)-7-9h10--------|
|-0-0----0---------0-0-|---0-------0-0----0-|----------------8-7-5--|


 Break #2
  E5                                   N.C.
  Gtrs I, II
                                       TPTPTPTPTPTPTPTPTPTP
  W          +W           +W           S S S S S S S S S S Q.
|----------|------------|------------|---------------------------|
|----------|------------|------------|---------------------------|
|----------|------------|------------|---------------------------|
|-2--------|-(2)--------|-(2)--------|-xSxSxSxSxSxSxSxSxSx-------|
|-2--------|-(2)--------|-(2)--------|---------------------------|
|-0--------|-(0)--------|-(0)--------|---------------------------|


   Outro
    N.C.C5/GD5/AEb5/Bb  C5/G  D5/AEm/G     C5/GD5/AEb5/BbC5/G  E5      D5E5
    PM|   PM  PM  PM--|   PM|   PM     PM|   PM  PM  PM    PM|
    E E E E E E E E   E E E E E E Q    E E E E E E E E   E E E E +E  E E E
||------------------|-------------0--|-----------------|--------------------|
||o-----------------|-------------0--|-----------------|--------------------|
||------------------|-------------0--|-----------------|--------------------|
||------------------|----------------|-----------------|-------9-(9)-9-7-9--|
||o-----3---5---6---|---3-----5------|-----3---5---6---|-3-----7-(7)-7-5-7--|
||--0-0-3-0-5-0-6-0-|-0-3-0-0-5-0----|-0-0-3-0-5-0-6-0-|-3-0-0--------------|


  N.C.C5/GD5/AEb5/Bb  C5/G  D5/AEm/G     C5/GD5/AEb5/BbC5/G  E5
  PM|   PM  PM  PM--|   PM|   PM     PM|   PM  PM  PM    PM|
  E E E E E E E E   E E E E E E Q    E E E E E E E E   E E E E +H
|-----------------|-------------0--|-----------------|----------------|
|-----------------|-------------0--|-----------------|----------------|
|-----------------|-------------0--|-----------------|----------------|
|-----------------|----------------|-----------------|-------2-(2)----|
|-----3---5---6---|---3-----5------|-----3---5---6---|-3-----2-(2)----|
|-0-0-3-0-5-0-6-0-|-0-3-0-0-5-0----|-0-0-3-0-5-0-6-0-|-3-0-0-0-(0)----|


  1.,2.
  N.C.                                                           E5/B    D5E5/B
  Gtrs I, II
  PM|   PM  PM  PM--|   PM|   PM~        PM|   PM  PM  PM    PM|
  E E E E E E E E   E E E E E E E +E     E E E E E E E E   E E E E +E  E E E
|-----------------|--------------------|-----------------|-------------------|
|-----------------|--------------------|-----------------|-------------------|
|-----------------|--------------------|-----------------|-------------------|
|-----------------|--------------------|-----------------|-------2-(2)-2-0-2-|
|-----------------|--------------------|-----------------|-------2-(2)-2-0-2-|
|-0-0-3-0-5-0-6-0-|-0-3-0-0-5-0-6-(6)\-|-0-0-3-0-5-0-6-0-|-3-0-0-------------|


  N.C.
  PM|   PM  PM  PM--|   PM|   PM~        PM|   PM  PM  PM    PM|
  E E E E E E E E   E E E E E E E +E     E E E E E E E E   E E E E +E  E E E  3x
|-----------------|--------------------|-----------------|--------------------||
|-----------------|--------------------|-----------------|-------------------o||
|-----------------|--------------------|-----------------|--------------------||
|-----------------|--------------------|-----------------|-------3-(3)-3-3-3--||
|-----------------|--------------------|-----------------|-------------------o||
|-0-0-3-0-5-0-6-0-|-0-3-0-0-5-0-6-(6)\-|-0-0-3-0-5-0-6-0-|-3-0-0-1-(1)-1-1-1--||


    3.
    N.C.
    PM|              PM--|      PM        PM-
    E E  E E  E E  E E   E  E E E  E E  E E
||---------------------|--------------------|
||o--------------------|--------------------|
||---------------------|--------------------|
||---------------------|--------------------|
||o--------------------|--------------------|
||--0-0-15p0-17p0-18-0-|-0-15p0-0-17p0-18-0-|


 ---|              PM       PM
  E E  E E  E E  E E    E E E  E  +E   E  E  E
|--------------------|---------------------------||
|--------------------|--------------------------o||
|--------------------|---------------------------||
|--------------------|---------------------------||
|--------------------|--------------------------o||
|-0-0-15p0-17p0-18-0-|-15p0-0-12-(12)-12-10-12---||


  N.C.C5/GD5/AEb5/Bb  C5/G  D5/AEm/G     C5/GD5/AEb5/BbC5/G  E5      D5E5
  PM|   PM  PM  PM--|   PM|   PM     PM|   PM  PM  PM    PM|
  E E E E E E E E   E E E E E E Q    E E E E E E E E   E E E E +E  E E E
|-----------------|-------------0--|-----------------|-------------------|
|-----------------|-------------0--|-----------------|-------------------|
|-----------------|-------------0--|-----------------|-------------------|
|-----------------|----------------|-----------------|-------9-(9)-9-7-9-|
|-----3---5---6---|---3-----5------|-----3---5---6---|-3-----7-(7)-7-5-7-|
|-0-0-3-0-5-0-6-0-|-0-3-0-0-5-0----|-0-0-3-0-5-0-6-0-|-3-0-0-------------|


  N.C.C5/GD5/AEb5/Bb  C5/G  D5/AEm/G     C5/GD5/AEb5/BbC5/G  E5
  PM|   PM  PM  PM--|   PM|   PM     PM|   PM  PM  PM    PM|
  E E E E E E E E   E E E E E E Q    E E E E E E E E   E E E E +H
|-----------------|-------------0--|-----------------|----------------|
|-----------------|-------------0--|-----------------|----------------|
|-----------------|-------------0--|-----------------|----------------|
|-----------------|----------------|-----------------|-------2-(2)----|
|-----3---5---6---|---3-----5------|-----3---5---6---|-3-----2-(2)----|
|-0-0-3-0-5-0-6-0-|-0-3-0-0-5-0----|-0-0-3-0-5-0-6-0-|-3-0-0-0-(0)----|


    N.C.
    PM|              PM--|      PM        PM-
    E E  E E  E E  E E   E  E E E  E E  E E
||---------------------|--------------------|
||o--------------------|--------------------|
||---------------------|--------------------|
||---------------------|--------------------|
||o--------------------|--------------------|
||--0-0-15p0-17p0-18-0-|-0-15p0-0-17p0-18-0-|


 ---|              PM       PM
  E E  E E  E E  E E    E E E  E  +E   E  E  E
|--------------------|---------------------------||
|--------------------|--------------------------o||
|--------------------|---------------------------||
|--------------------|---------------------------||
|--------------------|--------------------------o||
|-0-0-15p0-17p0-18-0-|-15p0-0-12-(12)-12-10-12---||



Duration Legend
---------------
W - whole; H - half; Q - quarter; E - 8th; S - 16th; T - 32nd; X - 64th; a - acciaccatura
+ - note tied to previous; . - note dotted; .. - note double dotted
Uncapitalized letters represent notes that are staccato (1/2 duration)
Irregular groupings are notated above the duration line
Duration letters will always appear directly above the note/fret number it represents the
duration for.  Duration letters with no fret number below them represent rests.  Multi-
bar rests are notated in the form Wxn, where n is the number of bars to rest for.  Low
melody durations appear below the staff

Tablature Legend
----------------
 h   - hammer-on
 p   - pull-off
 b   - bend
 pb  - pre-bend
 r   - bend release (if no number after the r, then release immediately)
 /\  - slide into or out of (from/to "nowhere")
 s   - legato slide
 S   - shift slide
 - natural harmonic
[n]  - artificial harmonic
n(n) - tapped harmonic
 ~   - vibrato
 tr  - trill
 T   - tap
 TP  - trem. picking
 PM  - palm muting
\n/  - tremolo bar dip; n = amount to dip
 \n  - tremolo bar down
 n/  - tremolo bar up
/n\  - tremolo bar inverted dip
 =   - hold bend; also acts as connecting device for hammers/pulls
 <> - volume swell (louder/softer)
 x   - on rhythm slash represents muted slash
 o   - on rhythm slash represents single note slash

Misc Legend
-----------
 |  - bar
||  - double bar
||o - repeat start
o|| - repeat end
*|  - double bar (ending)
 :  - bar (freetime)
 $  - Segno
 &  - Coda
Tempo markers -  = BPM(8/16=s8/s16), where s8 = swing 8ths, s16 = swing 16ths

comments
We did not receive enough feedback on this tab! Please rate:
print report bad tab
1 2 3 4 5
I want to post or [tab]
guest
You may want to rate the tab now too:
select rating
Please do not post tabs as comments. Select "correction" instead!