Oops, an error
Loading. Please wait.

No Compromise Tab

ver2
ver2

Whole song

Interactive

More versions @911Tabs.com
2,551 views 1 this week
no commentswrite comment
1 2 3 4 5
accurate
x 1
Autoscroll
+/-
esc
set tempo
stop
Contributor
Hey! There's an official Ultimate Guitar app which is ideal
for learning songs when you're away from computer. Get the app
WARNING: You are trying to view
                                    content from Ultimate-Guitar.com
                                    in an unauthorized application,
                                    which is prohibited.

                                    Please use an official Ultimate
                                    Guitar Tabs application for iPhone,
                                    iPad or Android to access legitimate
                                    chords, guitar, bass, and drum tabs
                                    from Ultimate-Guitar.com database.

                                    Type "ultimate guitar tabs" in Apple
                                    App Store's or Android Market's
                                    search to find the application.
#----------------------------------PLEASE NOTE---------------------------------#
#This file is the author's own work and represents their interpretation of the #
#song. You may only use this file for private study, scholarship, or research. #
#------------------------------------------------------------------------------#

NO COMPROMISE
As recorded by The Haunted
(From the 2004 Album REVOLVER)

Transcribed by Erik Alfredsson (Asmogriff) (ComfortablyDumb)
        

Words by Peter Dolving Music by Anders Björler

Gtr I (D G C F A D) - 'Overdriven Left'
Gtr II (D G C F A D) - 'Overdriven Right'

 Intro
  Q=220
  N.C.
 4/4
  Gtrs I, II
  Wx4
|--------|
|--------|
|--------|
|--------|
|--------|
|--------|


  PM------------------------------------------|
  |-3-|                            |---3---|
  E E E E E E  E   E   E     E  E  E   E   E   E  E Q    W          W
|-------------------------|----------------------------|----------|------|
|-------------------------|----------------------------|----------|------|
|-------------------------|----------------------------|----------|------|
|-------------------------|----------------------------|----------|------|
|-------------------------|----------------------------|----------|------|
|-0-0-0-0-----(0)-(0)-(0)-|-(0)---(0)-(0)-(0)-(0)------|----------|------|


  PM------------------------------------------------|
  E E E E  E   E   E  E    E   E   E  E  E   E   E  E   W          W
|-----------------------|-----------------------------|----------|------|
|-----------------------|-----------------------------|----------|------|
|-----------------------|-----------------------------|----------|------|
|-----------------------|-----------------------------|----------|------|
|-----------------------|-----------------------------|----------|------|
|-0-0-0---(0)-(0)-(0)---|-(0)-(0)-(0)---(0)-(0)-(0)---|----------|------|


  PM--------------------------------------------------------------------
  S S S S E E  S   S   S   S   E  E   W          E E E E  E   E   E  E
|-----------------------------------|----------|-----------------------|
|-----------------------------------|----------|-----------------------|
|-----------------------------------|----------|-----------------------|
|-----------------------------------|----------|-----------------------|
|-----------------------------------|----------|-----------------------|
|-0-0-0-0-0---(0)-(0)-(0)-(0)-(0)---|----------|-0-0-0---(0)-(0)-(0)---|


 --------------------------------------------|
  W          S S S S E E  S   S   S   S   E  E   W
|----------|-----------------------------------|------|
|----------|-----------------------------------|------|
|----------|-----------------------------------|------|
|----------|-----------------------------------|------|
|----------|-----------------------------------|------|
|----------|-0-0-0-0-0---(0)-(0)-(0)-(0)-(0)---|------|


  PM--|            PM           PM         PM-
  E E E E  E  E  E E    E  E  E E  E  E  E E
|--------------------|-----------------------|
|--------------------|-----------------------|
|---------16-16-16---|-15-15-15---14-14-14---|
|--------------------|-----------------------|
|---------14-14-14---|-13-13-13---12-12-12---|
|-0-0-0------------0-|----------0----------0-|


 -----|            PM           PM         PM
  E E E E  E  E  E E    E  E  E E  E  E  E E
|--------------------|-----------------------|
|--------------------|-----------------------|
|---------12-12-12---|-11-11-11---10-10-10---|
|--------------------|-----------------------|
|---------10-10-10---|--9--9--9----8--8--8---|
|-0-0-0------------0-|----------0----------0-|


  PM--|            PM           PM         PM-
  E E E E  E  E  E E    E  E  E E  E  E  E E
|--------------------|-----------------------|
|--------------------|-----------------------|
|---------16-16-16---|-15-15-15---19-19-19---|
|--------------------|-----------------------|
|---------14-14-14---|-13-13-13---17-17-17---|
|-0-0-0------------0-|----------0----------0-|


 -----|            PM           PM         PM
  E E E E  E  E  E E    E  E  E E  E  E  E E
|--------------------|-----------------------||
|--------------------|-----------------------||
|---------12-12-12---|-11-11-11---10-10-10---||
|--------------------|-----------------------||
|---------10-10-10---|--9--9--9----8--8--8---||
|-0-0-0------------0-|----------0----------0-||


  E5D5E5          N.C.
  E E Q  +H       W
|---------------|------||
|---------------|------||
|-9s7s9--(9)----|------||
|-9s7s9--(9)----|------||
|-7s5s7--(7)----|------||
|---------------|-6----||


 Pre-Verse
  Q=220
  $$
  N.C.
  PM--------|          PM           PM         PM
  S S E S S E  E  E  E E    E  E  E E  E  E  E E
|------------------------|-----------------------|
|------------------------|-----------------------|
|-------------12-12-12---|-11-11-11---10-10-10---|
|------------------------|-----------------------|
|-------------10-10-10---|--9--9--9----8--8--8---|
|-0-0-0-0-0-0----------0-|----------0----------0-|


  E5D5E5 N.C.
                  PM           PM
  E E Q   E  E  E E    E  E  E E  E  E  Q
|-------------------|------------------------|
|-------------------|------------------------|
|-9s7s9--16-16-16---|-15-15-15---19-19-19----|
|-9s7s9-------------|------------------------|
|-7s5s7--14-14-14---|-13-13-13---17-17-17----|
|-----------------0-|----------0-------------|


  Gtr I
  PM------|           PM           PM         PM
  S S S S Q   E  E  E E    E  E  E E  E  E  E E
|-----------------------|-----------------------|
|-----------------------|-----------------------|
|------------12-12-12---|-11-11-11---10-10-10---|
|-----------------------|-----------------------|
|------------10-10-10---|--9--9--9----8--8--8---|
|-0-0-0-0-0-----------0-|----------0----------0-|
|
| Gtr II
| PM------|           PM           PM         PM
| S S S S Q   E  E  E E    E  E  E E  E  E  E E
|-----------------------|-----------------------|
|-----------------------|-----------------------|
|------------12-12-12---|-11-11-11---10-10-10---|
|-----------------------|-----------------------|
|------------10-10-10---|--9--9--9----8--8--8---|
|-0-0-0-0-0-----------0-|----------0----------0-|


  E5D5E5N.C.
                   PM           PM
  E E E E  E  E  E E    E  E  E E  E  E  Q
|--------------------|------------------------|
|--------------------|------------------------|
|-9s7s9---12-12-12---|-11-11-11---15-15-15----|
|-9s7s9--------------|------------------------|
|-7s5s7---10-10-10---|--9--9--9---13-13-13----|
|-------0----------0-|----------0-------------|
|
|                  PM           PM
| E E E E  E  E  E E    E  E  E E  E  E  Q
|--------------------|------------------------|
|--------------------|------------------------|
|-9s7s9---16-16-16---|-15-15-15---19-19-19----|
|-9s7s9--------------|------------------------|
|-7s5s7---14-14-14---|-13-13-13---17-17-17----|
|-------0----------0-|----------0-------------|


  PM------|           PM           PM         PM
  S S S S Q   E  E  E E    E  E  E E  E  E  E E
|-----------------------|-----------------------|
|-----------------------|-----------------------|
|------------12-12-12---|-11-11-11---10-10-10---|
|-----------------------|-----------------------|
|------------10-10-10---|--9--9--9----8--8--8---|
|-0-0-0-0-0-----------0-|----------0----------0-|
|
| PM------|           PM           PM         PM
| S S S S Q   E  E  E E    E  E  E E  E  E  E E
|-----------------------|-----------------------|
|-----------------------|-----------------------|
|-----------------------|-----------------------|
|-------------5--5--5---|--4--4--4----3--3--3---|
|-----------------------|-----------------------|
|-0-0-0-0-0---3--3--3-0-|--2--2--2-0--1--1--1-0-|


  E5D5E5 N.C.
                  PM           PM
  E E Q   E  E  E E    E  E  E E  E  E  Q
|-------------------|------------------------|
|-------------------|------------------------|
|-9s7s9--16-16-16---|-15-15-15---19-19-19----|
|-9s7s9-------------|------------------------|
|-7s5s7--14-14-14---|-13-13-13---17-17-17----|
|-----------------0-|----------0-------------|
|
|                 PM           PM
| E E Q   E  E  E E    E  E  E E  E  E  Q
|-------------------|------------------------|
|-------------------|------------------------|
|-9s7s9-------------|------------------------|
|-9s7s9---9--9--9---|--8--8--8---12-12-12----|
|-7s5s7-------------|------------------------|
|---------7--7--7-0-|--6--6--6-0-10-10-10----|


  PM------|           PM           PM         PM-
  S S S S Q   E  E  E E    E  E  E E  E  E  E E
|-----------------------|-----------------------|
|-----------------------|-----------------------|
|------------12-12-12---|-11-11-11---10-10-10---|
|-----------------------|-----------------------|
|------------10-10-10---|--9--9--9----8--8--8---|
|-0-0-0-0-0-----------0-|----------0----------0-|
|
| PM------|           PM           PM         PM-
| S S S S Q   E  E  E E    E  E  E E  E  E  E E
|-----------------------|-----------------------|
|-----------------------|-----------------------|
|-----------------------|-----------------------|
|-------------5--5--5---|--4--4--4----3--3--3---|
|-----------------------|-----------------------|
|-0-0-0-0-0---3--3--3-0-|--2--2--2-0--1--1--1-0-|


                    To Dbl. Coda
                  E5/B   Eb5/BD5/A
 ---------------|
  E   E   S S S S H      H    H
|----------------------|-----------||
|----------------------|-----------||
|----------------------|-----------||
|-----------------9----|-8----7----||
|-----------------7----|-6----5----||
|-0---0---0-0-0-0-7----|-6----5----||
|
|---------------|
| S S S S S S S S H      H    H
|----------------------|-----------||
|----------------------|-----------||
|----------------------|-----------||
|-----------------9----|-8----7----||
|-----------------7----|-6----5----||
|-0-0-0-0-0-0-0-0-7----|-6----5----||


 Verse
  F5E5        A5Bb5         F5E5        G5F5
  Gtrs I, II
      PM----|     PM----|       PM----|     PM----|
  E E S S S S E E S S S S   E E S S S S E E S S S S
|-------------------------|-------------------------|
|-------------------------|-------------------------|
|-------------------------|-------------------------|
|-------------2s3---------|-------------------------|
|-3s2---------0s1---------|-3s2---------5s3---------|
|-1s0-0-0-0-0-----0-0-0-0-|-1s0-0-0-0-0-3s1-0-0-0-0-|


  F5E5        A5Bb5         F5E5
      PM----|     PM----|       PM--------------------|
  E E S S S S E E S S S S   E E S S S S S S S S S S S S
|-------------------------|------------------------------|
|-------------------------|------------------------------|
|-------------------------|------------------------------|
|-------------2s3---------|------------------------------|
|-3s2---------0s1---------|-3s2--------------------------|
|-1s0-0-0-0-0-----0-0-0-0-|-1s0-0-0-0-0-0-0-0-0-0-0-0-0--|


  F5E5        A5Bb5         F5E5        G5F5
      PM----|     PM----|       PM----|     PM----|
  E E S S S S E E S S S S   E E S S S S E E S S S S
|-------------------------|-------------------------|
|-------------------------|-------------------------|
|-------------------------|-------------------------|
|-------------2s3---------|-------------------------|
|-3s2---------0s1---------|-3s2---------5s3---------|
|-1s0-0-0-0-0-----0-0-0-0-|-1s0-0-0-0-0-3s1-0-0-0-0-|


  F5E5        A5Bb5         F5E5
      PM----|     PM----|       PM------|     PM----|
  E E S S S S E E S S S S   E E S S S S S S E S S S S
|-------------------------|-----------------------------|
|-------------------------|-----------------------------|
|-------------------------|-----------------------------|
|-------------2s3---------|-----------------------------|
|-3s2---------0s1---------|-3s2-------------------------|
|-1s0-0-0-0-0-----0-0-0-0-|-1s0-0-0-0-0-0-----0-0-0-0---|


    $
    F5E5        A5Bb5         F5E5        G5F5
        PM----|     PM----|       PM----|     PM----|
    E E S S S S E E S S S S   E E S S S S E E S S S S
||--------------------------|-------------------------|
||o-------------------------|-------------------------|
||--------------------------|-------------------------|
||--------------2s3---------|-------------------------|
||o-3s2---------0s1---------|-3s2---------5s3---------|
||--1s0-0-0-0-0-----0-0-0-0-|-1s0-0-0-0-0-3s1-0-0-0-0-|


  F5E5        A5Bb5         F5E5
      PM----|     PM----|       PM--------------------|
  E E S S S S E E S S S S   E E S S S S S S S S S S S S
|-------------------------|------------------------------||
|-------------------------|-----------------------------o||
|-------------------------|------------------------------||
|-------------2s3---------|------------------------------||
|-3s2---------0s1---------|-3s2-------------------------o||
|-1s0-0-0-0-0-----0-0-0-0-|-1s0-0-0-0-0-0-0-0-0-0-0-0-0--||


 Pre-Chorus
  N.C.                                                      Gb5
  PM------------------------------------------------------|
  S S S S S S S S S S S S S S S S   S S S S S S S S S S S S E E
|---------------------------------|-----------------------------|
|---------------------------------|-----------------------------|
|---------------------------------|-----------------------------|
|---------------------------------|-----------------------------|
|---------------------------------|-------------------------4---|
|-2-2-2-2-2-2-2-2-2-2-2S3-3-3-3-3-|-3-3S5-5-5-5-5-5-5-5S6-6-2---|


                                                           To Coda
  N.C.                                                          E5
  PM----------------------------------------------------------|
  S S S S S S S S S S S S S S S S   S S S S S S S S S S S S S S E
|---------------------------------|-----------------------------------|
|---------------------------------|-----------------------------------|
|---------------------------------|-----------------------------------|
|---------------------------------|-----------------------------------|
|---------------------------------|-----------------------------2-----|
|-3-3-3-3-3-3-3-3-3-3S5-5-5-5-5-5-|-5-5S6-6-6-6-6-6-6-6-6-6-6-6-0-----|


  N.C.
  PM-------------------------------
  S S S S S S S S S S S S S S S S
|---------------------------------|
|---------------------------------|
|---------------------------------|
|---------------------------------|
|---------------------------------|
|-2-2-2-2-2-2-2-2-2-2-2S3-3-3-3-3-|


                                             D.S. al Coda
                          Gb5   G5         Bb5         E5
 -----------------------|
  S S S S S S S S S S S S E E   W          H.      +E  E
|-----------------------------|----------|----------------||
|-----------------------------|----------|----------------||
|-----------------------------|----------|----------------||
|-----------------------------|-5--------|-8-------(8)----||
|-------------------------4---|-5--------|-8-------(8)s2--||
|-3-3S5-5-5-5-5-5-5-5S6-6-2---|-3--------|-6-------(6)s0--||


  &
  N.C.                                                      Gb5
  PM------------------------------------------------------|
  S S S S S S S S S S S S S S S S   S S S S S S S S S S S S E E
|---------------------------------|-----------------------------|
|---------------------------------|-----------------------------|
|---------------------------------|-----------------------------|
|---------------------------------|-----------------------------|
|---------------------------------|-------------------------4---|
|-2-2-2-2-2-2-2-2-2-2-2S3-3-3-3-3-|-3-3S5-5-5-5-5-5-5-5S6-6-2---|


  G5   N.C.
             PM------------------------------------|
  Q.   S S S S S S S S S S   S S S S S S S S S S S S S S E
|--------------------------|----------------------------------||
|--------------------------|----------------------------------||
|--------------------------|----------------------------------||
|-5------------------------|-------------------------8-8------||
|-5------------------------|----------------------------------||
|-3----3-3-3-3S5-5-5-5-5-5-|-5-5S6-6-6-6-6-6-6-6-6-6-----0----||


   Chorus
    Q=213
    E5/B Eb5/Bb D5/A     N.C.
                                ~~
    Q.   E +Q   Q    +E  E +Q   Q.   E
||-----------------|-------------------|
||o----------------|-------------------|
||-----------------|-------------------|
||--9----8-(8)--7--|-(7)---------------|
||o-7----6-(6)--5--|-(5)---------------|
||--7----6-(6)--5--|-(5)-0-(0)--3----0-|


       PM------|   PM--------|   PM------|   PM----|
  +Q   S S S S E E S S S S   E E S S S S E E S S S S
|--------------------------|-------------------------|
|--------------------------|-------------------------|
|--------------------------|-------------------------|
|--------------------------|-------------------------|
|--------------------------|-------------------------|
|-(0)--0-0-0-0-0---0-0-0-0-|-0---0-0-0-0-0---0-0-0-0-|


  1.
  E5/B Eb5/Bb D5/A     N.C.
  Q.   E +Q   Q    +E   E  +Q    Q  Q
|----------------|---------------------|
|----------------|---------------------|
|----------------|-----10-(10)--10--7--|
|-9----8-(8)--7--|-(7)-----------------|
|-7----6-(6)--5--|-(5)--8--(8)---8--5--|
|-7----6-(6)--5--|-(5)-----------------|


     PM----------------------------------|
  Q  E E E E S S S S   E E E E E E S S S S
|--------------------|----------------------||
|--------------------|---------------------o||
|-9------------------|----------------------||
|--------------------|----------------------||
|-7------------------|---------------------o||
|----0-0-0-0-0-0-0-0-|-0-0-0-0-0-0-0-0-0-0--||


  2.
                D.S.S. al Dbl. Coda
  E5/B Eb5/Bb D5/A     N.C.
  Q.   E +Q   Q    +E  E +Q   Q  Q
|----------------|------------------||
|----------------|------------------||
|----------------|------------------||
|-9----8-(8)--7--|-(7)-5-(5)--4--3--||
|-7----6-(6)--5--|-(5)--------------||
|-7----6-(6)--5--|-(5)-3-(3)--2--1--||


   Interlude
    Q=220
    &&
    N.C.
    Gtr I
    PM-----------------------------------
    E E E E E E E E   E E E E E E E E
||------------------|------------------||
||o-----------------|-----------------o||
||------------------|------------------||
||------------------|------------------||
||o-----------------|-----------------o||
||--0-0-0-0-0-0-0-0-|-0-0-0-0-0-0-0-0--||
|
|   Gtr II
|   W                 W
||------------------|------------------||
||o-----------------|-----------------o||
||------------------|------------------||
||------------------|------------------||
||o-----------------|-----------------o||
||------------------|------------------||


 -------------------------------------|
      E E E E E E E E   E E E E E E E E
|-||------------------|------------------||
|-||o-----------------|-----------------o||
|-||------------------|------------------||
|-||------------------|------------------||
|-||o-----------------|-----------------o||
|-||--0-0-0-0-0-0-0-0-|-0-0-0-0-0-0-0-0--||
|
|     PM------------------------------|
|     E E E E E E E E   E E E E E E E E
|-||------------------|------------------||
|-||o-----------------|-----------------o||
|-||------------------|------------------||
|-||------------------|------------------||
|-||o-----------------|-----------------o||
|-||--0-0-0-0-0-0-0-0-|-0-0-0-0-0-0-0-0--||


    N.C.                                                               Bb5
    Gtrs I, II
        PM    PM      PM    PM                 PM    PM      PM    PM|
    E E E E E E E E   E E E E E E E +E     E E E E E E E E   E E E E E E +Q
||------------------|--------------------|-----------------|-------------------|
||o-----------------|--------------------|-----------------|-------------------|
||------------------|--------------------|-----------------|-------------------|
||--9---------------|--------------------|-9---------------|-----------8-(8)---|
||o---8---5h7---8p7-|---5h7---2h3p2-(2)/-|---8---5h7---8p7-|---5h7-----8-(8)---|
||------0-----0-----|-0-----0------------|-----0-----0-----|-0-----0-0-6-(6)---|


  N.C.                                                               F5
      PM    PM      PM    PM                 PM    PM      PM    PM|
  E E E E E E E E   E E E E E E E +E     E E E E E E E E   E E E E E E +Q
|-----------------|--------------------|-----------------|------------------||
|-----------------|--------------------|-----------------|------------------||
|-----------------|--------------------|-----------------|------------------||
|-9---------------|--------------------|-9---------------|-----------3-(3)--||
|---8---5h7---8p7-|---5h7---2h3p2-(2)/-|---8---5h7---8p7-|---5h7-----3-(3)--||
|-----0-----0-----|-0-----0------------|-----0-----0-----|-0-----0-0-1-(1)--||


  Gb5    G5       A5     Bb5     G5     A5       Bb5
                           PM
  H    E E Q    E E Q  E E E E   H    E E Q    E E Q  H
|-------------|----------------|-------------|-------------|
|-------------|----------------|-------------|-------------|
|-------------|----------------|-------------|-------------|
|-4----4s5-5--|-5s7-7--7s8-----|-5----5s7-7--|-7s8-8--8----|
|-4----4s5-5--|-5s7-7--7s8-----|-5----5s7-7--|-7s8-8--8----|
|-2----2s3-3--|-3s5-5--5s6-2---|-3----3s5-5--|-5s6-6--6----|


  Gb5    G5       A5     Bb5     G5     A5
                           PM
  H    E E Q    E E Q  E E E E   H    E E Q
|-------------|----------------|-------------|
|-------------|----------------|-------------|
|-------------|----------------|-------------|
|-4----4s5-5--|-5s7-7--7s8-----|-5----5s7-7--|
|-4----4s5-5--|-5s7-7--7s8-----|-5----5s7-7--|
|-2----2s3-3--|-3s5-5--5s6-2---|-3----3s5-5--|


 1.                   2.
    Bb5                A5Bb5
  E E Q  Q  E +E       E E Q  H
|-------------------||-------------||
|------------------o||-------------||
|-------------------||-------------||
|-7s8-8--8----------||-7s8-8--8----||
|-7s8-8--8--2-(2)/-o||-7s8-8--8----||
|-5s6-6--6----------||-5s6-6--6----||


 Verse
  F5E5    A5Bb5     F5E5    G5F5      F5E5    A5Bb5     F5E5
      PM|     PM|       PM|     PM|       PM|     PM|       PM--------|
  E E E E E E E E   E E E E E E E E   E E E E E E E E   E E E E E E E E
|-----------------|-----------------|-----------------|-----------------|
|-----------------|-----------------|-----------------|-----------------|
|---------2s3-----|-----------------|---------2s3-----|-----------------|
|-3s2-----2s3-----|-3s2-----5s3-----|-3s2-----2s3-----|-3s2-------------|
|-3s2-----0s1-----|-3s2-----5s3-----|-3s2-----0s1-----|-3s2-------------|
|-1s0-0-0-----0-0-|-1s0-0-0-3s1-0-0-|-1s0-0-0-----0-0-|-1s0-0-0-0-0-0-0-|


  F5E5    A5Bb5     F5E5    G5F5      F5E5    A5Bb5     F5E5
      PM|     PM|       PM|     PM|       PM|     PM|
  E E E E E E E E   E E E E E E E E   E E E E E E E E   E E E E E E Q
|-----------------|-----------------|-----------------|-----------------|
|-----------------|-----------------|-----------------|-----------------|
|---------2s3-----|-----------------|---------2s3-----|-----------------|
|-3s2-----2s3-----|-3s2-----5s3-----|-3s2-----2s3-----|-3s2-9-9-9-9-9\--|
|-3s2-----0s1-----|-3s2-----5s3-----|-3s2-----0s1-----|-3s2-7-7-7-7-7\--|
|-1s0-0-0-----0-0-|-1s0-0-0-3s1-0-0-|-1s0-0-0-----0-0-|-1s0-0-0-0-0-0---|


  F5E5    A5Bb5     F5E5    G5F5      F5E5    A5Bb5     F5E5
      PM|     PM|       PM|     PM|       PM|     PM|       PM------------|
  E E E E E E E E   E E E E E E E E   E E E E E E E E   E E E E S S E S S E
|-----------------|-----------------|-----------------|-----------------------|
|-----------------|-----------------|-----------------|-----------------------|
|---------2s3-----|-----------------|---------2s3-----|-----------------------|
|-3s2-----2s3-----|-3s2-----5s3-----|-3s2-----2s3-----|-3s2-------------------|
|-3s2-----0s1-----|-3s2-----5s3-----|-3s2-----0s1-----|-3s2-------------------|
|-1s0-0-0-----0-0-|-1s0-0-0-3s1-0-0-|-1s0-0-0-----0-0-|-1s0-0-0-0-0-0-0-0-0---|


  F5E5    A5Bb5     F5E5    G5F5
      PM|     PM|       PM|     PM|
  E E E E E E E E   E E E E E E E E
|-----------------|-----------------|
|-----------------|-----------------|
|---------2s3-----|-----------------|
|-3s2-----2s3-----|-3s2-----5s3-----|
|-3s2-----0s1-----|-3s2-----5s3-----|
|-1s0-0-0-----0-0-|-1s0-0-0-3s1-0-0-|


  F5E5    A5Bb5     F5E5
      PM|     PM|       PM--------------|
  E E E E E E E E   E E S S E S S E S S E
|-----------------|------------------------||
|-----------------|------------------------||
|---------2s3-----|------------------------||
|-3s2-----2s3-----|-3s2--------------------||
|-3s2-----0s1-----|-3s2--------------------||
|-1s0-0-0-----0-0-|-1s0-0-0-0-0-0-0-0-0-0--||


   Chorus
    Q=213
    E5/B Eb5/Bb D5/A     N.C.
                                ~~
    Q.   E +Q   Q    +E  E +Q   Q.   E
||-----------------|-------------------|
||o----------------|-------------------|
||-----------------|-------------------|
||--9----8-(8)--7--|-(7)---------------|
||o-7----6-(6)--5--|-(5)---------------|
||--7----6-(6)--5--|-(5)-0-(0)--3----0-|


       PM------|   PM--------|   PM------|   PM----|
  +Q   S S S S E E S S S S   E E S S S S E E S S S S
|--------------------------|-------------------------|
|--------------------------|-------------------------|
|--------------------------|-------------------------|
|--------------------------|-------------------------|
|--------------------------|-------------------------|
|-(0)--0-0-0-0-0---0-0-0-0-|-0---0-0-0-0-0---0-0-0-0-|


  1.
  E5/B Eb5/Bb D5/A     N.C.
  Q.   E +Q   Q    +E   E  +Q    Q  Q
|----------------|---------------------|
|----------------|---------------------|
|----------------|-----10-(10)--10--7--|
|-9----8-(8)--7--|-(7)-----------------|
|-7----6-(6)--5--|-(5)--8--(8)---8--5--|
|-7----6-(6)--5--|-(5)-----------------|


     PM----------------------------------|
  Q  E E E E S S S S   E E E E E E S S S S
|--------------------|----------------------||
|--------------------|---------------------o||
|-9------------------|----------------------||
|--------------------|----------------------||
|-7------------------|---------------------o||
|----0-0-0-0-0-0-0-0-|-0-0-0-0-0-0-0-0-0-0--||


  2.
  E5/B Eb5/Bb D5/A     N.C.
  Q.   E +Q   Q    +E  E +Q   Q  Q
|----------------|------------------||
|----------------|------------------||
|----------------|------------------||
|-9----8-(8)--7--|-(7)-5-(5)--4--3--||
|-7----6-(6)--5--|-(5)--------------||
|-7----6-(6)--5--|-(5)-3-(3)--2--1--||


 Outro
  Q=220
  N.C.
  Gtr I
  PM------|           PM           PM         PM
  S S S S Q   E  E  E E    E  E  E E  E  E  E E
|-----------------------|-----------------------|
|-----------------------|-----------------------|
|------------12-12-12---|-11-11-11---10-10-10---|
|-----------------------|-----------------------|
|------------10-10-10---|--9--9--9----8--8--8---|
|-0-0-0-0-0-----------0-|----------0----------0-|
|
| Gtr II
| PM------|           PM           PM         PM
| S S S S Q   E  E  E E    E  E  E E  E  E  E E
|-----------------------|-----------------------|
|-----------------------|-----------------------|
|-----------------------|-----------------------|
|-------------5--5--5---|--4--4--4----3--3--3---|
|-----------------------|-----------------------|
|-0-0-0-0-0---3--3--3-0-|--2--2--2-0--1--1--1-0-|


  E5D5E5 N.C.
                  PM           PM
  E E Q   E  E  E E    E  E  E E  E  E  Q
|-------------------|------------------------|
|-------------------|------------------------|
|-9s7s9--16-16-16---|-15-15-15---19-19-19----|
|-9s7s9-------------|------------------------|
|-7s5s7--14-14-14---|-13-13-13---17-17-17----|
|-----------------0-|----------0-------------|
|
|                 PM           PM
| E E Q   E  E  E E    E  E  E E  E  E  Q
|-------------------|------------------------|
|-------------------|------------------------|
|-9s7s9-------------|------------------------|
|-9s7s9---9--9--9---|--8--8--8---12-12-12----|
|-7s5s7-------------|------------------------|
|---------7--7--7-0-|--6--6--6-0-10-10-10----|


  PM------|           PM           PM         PM
  S S S S Q   E  E  E E    E  E  E E  E  E  E E
|-----------------------|-----------------------|
|-----------------------|-----------------------|
|------------12-12-12---|-11-11-11---10-10-10---|
|-----------------------|-----------------------|
|------------10-10-10---|--9--9--9----8--8--8---|
|-0-0-0-0-0-----------0-|----------0----------0-|
|
| PM------|           PM           PM         PM
| S S S S Q   E  E  E E    E  E  E E  E  E  E E
|-----------------------|-----------------------|
|-----------------------|-----------------------|
|-----------------------|-----------------------|
|-------------5--5--5---|--4--4--4----3--3--3---|
|-----------------------|-----------------------|
|-0-0-0-0-0---3--3--3-0-|--2--2--2-0--1--1--1-0-|


  E5D5E5 N.C.
                  PM           PM
  E E Q   E  E  E E    E  E  E E  E  E  Q
|-------------------|------------------------|
|-------------------|------------------------|
|-9s7s9--12-12-12---|-11-11-11---15-15-15----|
|-9s7s9-------------|------------------------|
|-7s5s7--10-10-10---|--9--9--9---13-13-13----|
|-----------------0-|----------0-------------|
|
|                 PM           PM
| E E Q   E  E  E E    E  E  E E  E  E  Q
|-------------------|------------------------|
|-------------------|------------------------|
|-9s7s9-------------|------------------------|
|-9s7s9---9--9--9---|--8--8--8---12-12-12----|
|-7s5s7-------------|------------------------|
|---------7--7--7-0-|--6--6--6-0-10-10-10----|


  Gtrs I, II
  PM------|           PM           PM         PM
  S S S S Q   E  E  E E    E  E  E E  E  E  E E
|-----------------------|-----------------------|
|-----------------------|-----------------------|
|------------12-12-12---|-11-11-11---10-10-10---|
|-----------------------|-----------------------|
|------------10-10-10---|--9--9--9----8--8--8---|
|-0-0-0-0-0-----------0-|----------0----------0-|


  E5D5E5 N.C.
                  PM           PM
  E E Q   E  E  E E    E  E  E E  E  E  Q
|-------------------|------------------------|
|-------------------|------------------------|
|-9s7s9--16-16-16---|-15-15-15---19-19-19----|
|-9s7s9-------------|------------------------|
|-7s5s7--14-14-14---|-13-13-13---17-17-17----|
|-----------------0-|----------0-------------|


  PM------|           PM           PM         PM-
  S S S S Q   E  E  E E    E  E  E E  E  E  E E
|-----------------------|-----------------------|
|-----------------------|-----------------------|
|------------12-12-12---|-11-11-11---10-10-10---|
|-----------------------|-----------------------|
|------------10-10-10---|--9--9--9----8--8--8---|
|-0-0-0-0-0-----------0-|----------0----------0-|


 --------------------------|
  S S S S E E Q  S S S S   E E Q  H
|------------------------|-------------*|
|------------------------|-------------*|
|------------------------|-------------*|
|------------------------|-------------*|
|------------------------|-------------*|
|-0-0-0-0-0------0-0-0-0-|-0-----------*|



Duration Legend
---------------
W - whole; H - half; Q - quarter; E - 8th; S - 16th; T - 32nd; X - 64th; a - acciaccatura
+ - note tied to previous; . - note dotted; .. - note double dotted
Uncapitalized letters represent notes that are staccato (1/2 duration)
Irregular groupings are notated above the duration line
Duration letters will always appear directly above the note/fret number it represents the
duration for.  Duration letters with no fret number below them represent rests.  Multi-
bar rests are notated in the form Wxn, where n is the number of bars to rest for.  Low
melody durations appear below the staff

Tablature Legend
----------------
 h   - hammer-on
 p   - pull-off
 b   - bend
 pb  - pre-bend
 r   - bend release (if no number after the r, then release immediately)
 /\  - slide into or out of (from/to "nowhere")
 s   - legato slide
 S   - shift slide
 - natural harmonic
[n]  - artificial harmonic
n(n) - tapped harmonic
 ~   - vibrato
 tr  - trill
 T   - tap
 TP  - trem. picking
 PM  - palm muting
\n/  - tremolo bar dip; n = amount to dip
 \n  - tremolo bar down
 n/  - tremolo bar up
/n\  - tremolo bar inverted dip
 =   - hold bend; also acts as connecting device for hammers/pulls
 <> - volume swell (louder/softer)
 x   - on rhythm slash represents muted slash
 o   - on rhythm slash represents single note slash

Misc Legend
-----------
 |  - bar
||  - double bar
||o - repeat start
o|| - repeat end
*|  - double bar (ending)
 :  - bar (freetime)
 $  - Segno
 &  - Coda
Tempo markers -  = BPM(8/16=s8/s16), where s8 = swing 8ths, s16 = swing 16ths

comments
We did not receive enough feedback on this tab! Please rate:
print report bad tab
1 2 3 4 5
I want to post or [tab]
guest
You may want to rate the tab now too:
select rating
Please do not post tabs as comments. Select "correction" instead!