Oops, an error
Loading. Please wait.

Dicephalous Tab

2,837 views 9 this week
1 commentread comment
1 2 3 4 5
excellent!
x 1
add to favorites launch autoscroll
font size
0
reset
Autoscroll
+/-
esc
set tempo
stop
Contributor
Difficulty
Tuning
intermediate
C G C F A D
WARNING: You are trying to view
                                    content from Ultimate-Guitar.com
                                    in an unauthorized application,
                                    which is prohibited.

                                    Please use an official Ultimate
                                    Guitar Tabs application for iPhone,
                                    iPad or Android to access legitimate
                                    chords, guitar, bass, and drum tabs
                                    from Ultimate-Guitar.com database.

                                    Type "ultimate guitar tabs" in Apple
                                    App Store's or Android Market's
                                    search to find the application.
-------------------------------------------------------------------------------
                             DICEPHALOUS - He Is Legend
-------------------------------------------------------------------------------

Tabbed by: Micah Jayne
Email: micahjayne@gmail.com

Tuning: Drop C

He Is Legend - Dicephalous
From the album "It Hates You"

Enjoy!


-----
Intro
-----


Guitar 1 (0:00-0:29)

D|-------------------------------------------|
A|-------------------------------------------|
F|-------------------------------------------|
C|-12121212121212--0-0--13-12121212121212--0-|
G|--8-8-8-8-8-8-8--0-0------8-8-8-8-8-8-8--0-|
C|-----------------0-0---------------------0-|  X7

D|---------------------|
A|---------------------|
F|---------------------|
C|-12121212121212--0-0-|
G|--8-8-8-8-8-8-8--0-0-|
C|-----------------0-0-| X1


Guitar 2 (0:08-0:29)

D|------------------------|
A|-15--13-15--------------|
F|-----------13-14--------|
C|------------------15-13-|
G|------------------------|
C|------------------------| X2

D|------------------------|
A|-15--13-15--------------|
F|-------------13b14------|
C|------------------------|
G|------------------------|
C|------------------------| X1

Guitar 3 (0:08-0:29)

D|-------------------------------------|
A|-------------------------------------|
F|----13----12----10----13----12----10-|
C|-12----12----12----12----12----12----|
G|-------------------------------------|
C|-------------------------------------|  X11
   .  .  .  .  .  .  .  .  .  .  .  .

Guitar 1 & 2 (0:29-0:32)

D|------------------|
A|------------------|
F|------------------|
C|-5555555555555555-|
G|-5555555555555555-|
C|-5555555555555555-|


-------
Verse 1
-------


Guitar 1 (0:32-0:38)

D|------------------------------------------------------------------|
A|------------------------------------------------------------------|
F|------------------------------------------------------------------|
C|-12121212121212--0-0--13-12121212121212--0----12121212121212--0-0-|
G|--8-8-8-8-8-8-8--0-0------8-8-8-8-8-8-8--0-----8-8-8-8-8-8-8--0-0-|
C|-----------------0-0---------------------0--------------------0-0-| X1

Guitar 1 & 2 (0:38-0:40)

D|------------------|
A|------------------|
F|------------------|
C|-5555555555555555-|
G|-5555555555555555-|
C|-5555555555555555-|

Guitar 1 (0:40-0:46)

D|------------------------------------------------------------------|
A|------------------------------------------------------------------|
F|------------------------------------------------------------------|
C|-12121212121212--0-0--13-12121212121212--0----12121212121212--0-0-|
G|--8-8-8-8-8-8-8--0-0------8-8-8-8-8-8-8--0-----8-8-8-8-8-8-8--0-0-|
C|-----------------0-0---------------------0--------------------0-0-| X1

Guitar 1 & 2 (0:46-0:49)

D|------------------|
A|------------------|
F|------------------|
C|-5555555555555555-|
G|-5555555555555555-|
C|-5555555555555555-|


------------
Pre-chorus 1
------------


Guitar 1 (0:49-1:04)

D|--------------------------------------------------------------|
A|--------------------------------------------------------------|
F|--------------------------------------------------------0-2---|
C|-3333333-0-0-43333333-0------3--3333333-0-0-43333333-0------3-|
G|-3333333-0-0-43333333-0--3-5----3333333-0-0-43333333-0--------|
C|-3333333-0-0-43333333-0---------3333333-0-0-43333333-0--------|

D|--------------------------------------------------------------|
A|--------------------------------------------------------------|
F|--------------------------------------------------------------|
C|-3333333-0-0-43333333-0------3--3333333-0-0-43333333-0------4-|
G|-3333333-0-0-43333333-0--3-5----3333333-0-0-43333333-0--5-6---|
C|-3333333-0-0-43333333-0---------3333333-0-0-43333333-0--------|

Guitar 2 (0:49-1:04)

D|--------------------------------------------------------------|
A|--------------------------------------------------------------|
F|--------------------------------------------------------0-2---|
C|-3333333-0-0-43333333-0------3--3333333-0-0-43333333-0------3-|
G|-3333333-0-0-43333333-0--3-5----3333333-0-0-43333333-0--------|
C|-3333333-0-0-43333333-0---------3333333-0-0-43333333-0--------|

D|--------------------------------------------------------------|
A|--------------------------------------------------------------|
F|--------------------------------------------------------------|
C|-3333333-0-0-43333333-0------3--3333333-0-0-43333333-0--5-6-7-|
G|-3333333-0-0-43333333-0--3-5----3333333-0-0-43333333-0--------|
C|-3333333-0-0-43333333-0---------3333333-0-0-43333333-0--------|

Guitar 1 & 2 (1:04-1:07)

D|------------------|
A|------------------|
F|------------------|
C|-5555555555555555-|
G|-5555555555555555-|
C|-5555555555555555-|


--------
Chorus 1
--------


Guitar 1 & 2 (1:07-1:22)

D|----------------------------------------------------------------------|
A|----------------------------------------------------------------------|
F|----------------------------------------------------------------------|
C|--8-88888888888-------------77777777777777-5-55555555555555-----------|
G|--8-88888888888-------------77777777777777-5-55555555555555-----------|
C|--8-88888888888-8-10-12-12\-77777777777777-5-55555555555555-----------|

D|----------------------------------------------------------------------|
A|----------------------------------------------------------------------|
F|----------------------------------------------------------------------|
C|--0-000000------------------8-8888888888-12-121212121212121212121212--|
G|--0-000000------------------8-8888888888-12-121212121212121212121212--|
C|--0-000000-4--5-7-0-12-10-0-8-8888888888-12-121212121212121212121212--|

Guitar 3 (1:07-1:22)

D|-----------------------------------|
A|-----------------------------------|
F|--14-1414141414141414141414141414--|
C|---x--x-x-x-x-x-x-x-x-x-x-x-x-x-x--|
G|--12-1212121212121212121212121212--|
C|-----------------------------------| X5

D|-----------------------------------|
A|-----------------------------------|
F|--14-141414141414141414141414------|
C|---x--x-x-x-x-x-x-x-x-x-x-x-x------|
G|--12-121212121212121212121212------|
C|-----------------------------------| X1

Guitar 1 (1:22-1:35)

D|--------------------------------------------------------------------------|
A|--------------------------------------------------------------------------|
F|--------------------------------------------------------------------------|
C|--55555555-33333333-88888888-1-1-1-1-1-1-1-1-55555555-3333333-------------|
G|--55555555-33333333-88888888-1-1-1-1-1-1-1-1-55555555-3333333-------------|
C|--55555555-33333333-88888888-1-1-1-1-1-1-1-1-55555555-3333333-8-7-10-7----|

D|------------------------------------|
A|------------------------------------|
F|------------------------------------|
C|--1-1-1-1-1-1-1-1-------------------|
G|--1-1-1-1-1-1-1-1-------------------|
C|--1-1-1-1-1-1-1-1--13--13-10-12--8--|

Guitar 2 (1:22-1:35)

D|--------------------------------------------------------------------------|
A|--------------------------------------------------------------------------|
F|-----------------------------1212121212121212-----------------------------|
C|--55555555-33333333-88888888--x-x-x-x-x-x-x-x-55555555-3333333------------|
G|--55555555-33333333-88888888-1010101010101010-55555555-3333333------------|
C|--55555555-33333333-88888888------------------55555555-3333333-8-7-10-7---|

D|-------------------------------------|
A|-------------------------------------|
F|--1212121212121212-------------------|
C|---x-x-x-x-x-x-x-x-------------------|
G|--1010101010101010-------------------|
C|--------------------13--13-10-12--8--|


---------
Interlude
---------


Guitar 1 (1:35-1:49)

D|--------------------------------------------|
A|--------------------------------------------|
F|--------------------------------------------|
C|-12121212121212--0-0--13-12121212121212--0--|
G|--8-8-8-8-8-8-8--0-0------8-8-8-8-8-8-8--0--|
C|-----------------0-0---------------------0--|  X3

D|----------------------|
A|----------------------|
F|----------------------|
C|-12121212121212--0-0--|
G|--8-8-8-8-8-8-8--0-0--|
C|-----------------0-0--| X1

Guitar 2 (1:35-1:49)

D|------------------------------------------------------------------|
A|-----------------------------------------------------------13-----|
F|-14------12h14p12----------14--------12h14p12----------14---------|
C|----12\-----------15-14/15----12\-------------15-14/15-------12\--|
G|------------------------------------------------------------------|
C|------------------------------------------------------------------|

D|---------------------------|
A|---------------------------|
F|-12h14p12----------14------|
C|----------15-14/15----12\--|
G|---------------------------|
C|---------------------------|

Guitar 1 & 2 (1:49-1:52)

D|------------------|
A|------------------|
F|------------------|
C|-5555555555555555-|
G|-5555555555555555-|
C|-5555555555555555-|


-------
Verse 2
-------


Bass (1:52-2:05)

Guitar 1 & 2 (2:05-2:08)

D|------------------|
A|------------------|
F|------------------|
C|-5555555555555555-|
G|-5555555555555555-|
C|-5555555555555555-|


------------
Pre-chorus 2
------------


Guitar 1 (2:08-2:23)

D|--------------------------------------------------------------|
A|--------------------------------------------------------------|
F|--------------------------------------------------------0-2---|
C|-3333333-0-0-43333333-0------3--3333333-0-0-43333333-0------3-|
G|-3333333-0-0-43333333-0--3-5----3333333-0-0-43333333-0--------|
C|-3333333-0-0-43333333-0---------3333333-0-0-43333333-0--------|

D|--------------------------------------------------------------|
A|--------------------------------------------------------------|
F|--------------------------------------------------------------|
C|-3333333-0-0-43333333-0------3--3333333-0-0-43333333-0------4-|
G|-3333333-0-0-43333333-0--3-5----3333333-0-0-43333333-0--5-6---|
C|-3333333-0-0-43333333-0---------3333333-0-0-43333333-0--------|

Guitar 2 (2:08-2:23)

D|--------------------------------------------------------------|
A|--------------------------------------------------------------|
F|--------------------------------------------------------0-2---|
C|-3333333-0-0-43333333-0------3--3333333-0-0-43333333-0------3-|
G|-3333333-0-0-43333333-0--3-5----3333333-0-0-43333333-0--------|
C|-3333333-0-0-43333333-0---------3333333-0-0-43333333-0--------|

D|--------------------------------------------------------------|
A|--------------------------------------------------------------|
F|--------------------------------------------------------------|
C|-3333333-0-0-43333333-0------3--3333333-0-0-43333333-0--5-6-7-|
G|-3333333-0-0-43333333-0--3-5----3333333-0-0-43333333-0--------|
C|-3333333-0-0-43333333-0---------3333333-0-0-43333333-0--------|

Guitar 1 & 2 (2:23-2:26)

D|------------------|
A|------------------|
F|------------------|
C|-5555555555555555-|
G|-5555555555555555-|
C|-5555555555555555-|


--------
Chorus 2
--------


Guitar 1 & 2 (2:26-2:41)

D|----------------------------------------------------------------------|
A|----------------------------------------------------------------------|
F|----------------------------------------------------------------------|
C|--8-88888888888-------------77777777777777-5-55555555555555-----------|
G|--8-88888888888-------------77777777777777-5-55555555555555-----------|
C|--8-88888888888-8-10-12-12\-77777777777777-5-55555555555555-----------|

D|----------------------------------------------------------------------|
A|----------------------------------------------------------------------|
F|----------------------------------------------------------------------|
C|--0-000000------------------8-8888888888-12-121212121212121212121212--|
G|--0-000000------------------8-8888888888-12-121212121212121212121212--|
C|--0-000000-4--5-7-0-12-10-0-8-8888888888-12-121212121212121212121212--|

Guitar 3 (2:26-2:41)

D|-----------------------------------|
A|-----------------------------------|
F|--14-1414141414141414141414141414--|
C|---x--x-x-x-x-x-x-x-x-x-x-x-x-x-x--|
G|--12-1212121212121212121212121212--|
C|-----------------------------------| X5

D|-----------------------------------|
A|-----------------------------------|
F|--14-141414141414141414141414------|
C|---x--x-x-x-x-x-x-x-x-x-x-x-x------|
G|--12-121212121212121212121212------|
C|-----------------------------------| X1

Guitar 1 (2:41-2:55)

D|--------------------------------------------------------------------------|
A|--------------------------------------------------------------------------|
F|--------------------------------------------------------------------------|
C|--55555555-33333333-88888888-1-1-1-1-1-1-1-1-55555555-3333333-------------|
G|--55555555-33333333-88888888-1-1-1-1-1-1-1-1-55555555-3333333-------------|
C|--55555555-33333333-88888888-1-1-1-1-1-1-1-1-55555555-3333333-8-7-10-7----|

D|-------------------------------------|
A|-------------------------------------|
F|-------------------------------------|
C|--1-1-1-1-1-1-1-1----0----7-6-5-10\--|
G|--1-1-1-1-1-1-1-1----0----7-6-5-10\--|
C|--1-1-1-1-1-1-1-1----0----7-6-5-10\--|

Guitar 2 (2:41-2:55)

D|--------------------------------------------------------------------------|
A|--------------------------------------------------------------------------|
F|-----------------------------1212121212121212-----------------------------|
C|--55555555-33333333-88888888--x-x-x-x-x-x-x-x-55555555-3333333------------|
G|--55555555-33333333-88888888-1010101010101010-55555555-3333333------------|
C|--55555555-33333333-88888888------------------55555555-3333333-8-7-10-7---|

D|--------------------------------------|
A|--------------------------------------|
F|--1212121212121212--------------------|
C|---x-x-x-x-x-x-x-x----0----7-6-5-10\--|
G|--1010101010101010----0----7-6-5-10\--|
C|----------------------0----7-6-5-10\--|


---------
Breakdown
---------


Guitar 1 & 2 (2:55-3:09)

D|------------------------------------------------|
A|------------------------------------------------|
F|------------------------------------------------|
C|--0--0-8\7-0-5/7-0-8\7-0----------0----------0--|
G|--0--0-6\5-0-3/5-0-6\5-0----------0----------0--|
C|--0--0-----0-----0-----0-6-5-0-3~-0-6-5-0-3~-0--| X4
       .     .     .     .          .          .

Guitar 1 (3:09-3:25)

D|--------------------------------------------|
A|--------------------------------------------|
F|--------------------------------------------|
C|--0--5h6p5--3h5p3--0--5h6p5--3h5p3--0--3~---|
G|--0----------------0----------------0-------|
C|--0----------------0----------------0-------|

D|--------------------------------------------|
A|--------------------------------------------|
F|--------------------------------------------|
C|--0--5h6p5--3h5p3--0--5h6p5--3h5p3--0--3--1-|
G|--0----------------0----------------0--3--1-|
C|--0----------------0----------------0--3--1-|
                                      .  .  .

D|--------------------------------------------|
A|--------------------------------------------|
F|--------------------------------------------|
C|--0--5h6p5--3h5p3--0--5h6p5--3h5p3--0--3~---|
G|--0----------------0----------------0-------|
C|--0----------------0----------------0-------|

D|----------------------------------------------------------|
A|----------------------------------------------------------|
F|----------------------------------------------------------|
C|--0--5h6p5--3h5p3--0--5h6p5--3h5p3--0--3--1--0----0----0--|
G|--0----------------0----------------0--3--1--0----0----0--|
C|--0----------------0----------------0--3--1--0----0----0--|
                                      .  .  .

Guitar 2 (3:09-3:25)

D|--------------------------------------------|
A|--------------------------------------------|
F|--------------------------------------------|
C|--0----------------0----------------0-------|
G|--0----------------0----------------0-------|
C|--0----------------0----------------0-------|

D|--------------------------------------------|
A|--------------------------------------------|
F|--------------------------------------------|
C|--0----------------0----------------0--3--1-|
G|--0----------------0----------------0--3--1-|
C|--0----------------0----------------0--3--1-|
                                      .  .  .

D|--------------------------------------------|
A|--------------------------------------------|
F|--------------------------------------------|
C|--0----------------0----------------0-------|
G|--0----------------0----------------0-------|
C|--0----------------0----------------0-------|

D|----------------------------------------------------------|
A|----------------------------------------------------------|
F|----------------------------------------------------------|
C|--0----------------0----------------0--3--1--0----0----0--|
G|--0----------------0----------------0--3--1--0----0----0--|
C|--0----------------0----------------0--3--1--0----0----0--|
                                      .  .  .

Guitar 1 (3:25-3:35)

D|---------------------------------------------------------------------------|
A|---------------------------------------------------------------------------|
F|---------------------------------------------------------------------------|
C|--7-6-5-10-3--3-3--0-0--4-3--3-3--0------3--3--3-3--0-0--45555555555555555-|
G|--7-6-5-10-3--3-3--0-0--4-3--3-3--0--3h5----3--3-3--0-0--45555555555555555-|
C|--7-6-5-10-3--3-3--0-0--4-3--3-3--0---------3--3-3--0-0--45555555555555555-|

Guitar 2 (3:25-3:35)

D|---------------------------------------------------------------------------|
A|---------------------------------------------------------------------------|
F|---------------------------------------------------------------------------|
C|--7-6-5-10-3--3-3--0-0--4-3--3-3--0---------3--3-3--0-0--45555555555555555-|
G|--7-6-5-10-3--3-3--0-0--4-3--3-3--0---------3--3-3--0-0--45555555555555555-|
C|--7-6-5-10-3--3-3--0-0--4-3--3-3--0---------3--3-3--0-0--45555555555555555-|


------------
Pre-chorus 3
------------


Guitar 1 (3:35-3:51)

D|---------------------------------------------------------------|
A|---------------------------------------------------------------|
F|--------------------------------------------------------0-2----|
C|-3333333-0-0-43333333-0--0-0-0--3333333-0-0-43333333-0------3--|
G|-3333333-0-0-43333333-0--0-0-0--3333333-0-0-43333333-0---------|
C|-3333333-0-0-43333333-0--0-0-0--3333333-0-0-43333333-0---------|
                           . . .

D|---------------------------------------------------------------|
A|---------------------------------------------------------------|
F|---------------------------------------------------------------|
C|-3333333-0-0-43333333-0--0---0--3333333-0-0-45555555555555555--|
G|-3333333-0-0-43333333-0--0---0--3333333-0-0-45555555555555555--|
C|-3333333-0-0-43333333-0--0---0--3333333-0-0-45555555555555555--|
                           .   .

Guitar 2 (3:35-3:51)

D|---------------------------------------------------------------|
A|---------------------------------------------------------------|
F|--------------------------------------------------------0-2----|
C|-3333333-0-0-43333333-0--0-0-0--3333333-0-0-43333333-0------3--|
G|-3333333-0-0-43333333-0--0-0-0--3333333-0-0-43333333-0---------|
C|-3333333-0-0-43333333-0--0-0-0--3333333-0-0-43333333-0---------|
                           . . .

D|---------------------------------------------------------------|
A|---------------------------------------------------------------|
F|---------------------------------------------------------------|
C|-3333333-0-0-43333333-0--0---0--3333333-0-0-45555555555555555--|
G|-3333333-0-0-43333333-0--0---0--3333333-0-0-45555555555555555--|
C|-3333333-0-0-43333333-0--0---0--3333333-0-0-45555555555555555--|
                           .   .

Guitar 1 & 2 (3:51-4:03)

D|-------------------|
A|-------------------|
F|-------------------|
C|--0----0----0------|
G|--0----0----0------|
C|--0----0----0------|






| .  palm mute
| /  slide up
| \  slide down
| h  hammer-on
| p  pull-off
| ~  vibrato
| +  harmonic
| x  Mute note
===============================================================================
comments
We did not receive enough feedback on this tab! Please rate:
1 2 3 4 5
1 comment total.
+2 reply
PCNRULES wrote on October 16 2009, 10:06 am

Good tabs like this are hard to come by.

I want to post or [tab]
guest
You may want to rate the tab now too:
select rating
Please do not post tabs as comments. Select "correction" instead!