Oops, an error
Loading. Please wait.

Either They Decorated For Christmas Early Or Theyre All Dead Tab

4,624 views 3 this week
8 commentsread comments
1 2 3 4 5
accurate
x 7
Autoscroll
+/-
esc
set tempo
stop
Hey! There's an official Ultimate Guitar app which is ideal
for learning songs when you're away from computer. Get the app
WARNING: You are trying to view
                                    content from Ultimate-Guitar.com
                                    in an unauthorized application,
                                    which is prohibited.

                                    Please use an official Ultimate
                                    Guitar Tabs application for iPhone,
                                    iPad or Android to access legitimate
                                    chords, guitar, bass, and drum tabs
                                    from Ultimate-Guitar.com database.

                                    Type "ultimate guitar tabs" in Apple
                                    App Store's or Android Market's
                                    search to find the application.
Title: Either They Decorated for Christmas Early or They're All Dead
Artist: He Is Legend
Album: I Am Hollywood
Tuning: Guitar I - EADGBe Guitar II - DADGBe
Tabbed by: Matthew Pollock
Email: matt_pollock@hotmail.co.uk

|Guitar I: Riff 1|


e|-----------------------------------------------------------------------------|
B|-----------------------------------------------------------------------------|
G|-----------------------------------------------------------------------------|
D|-----------------------------------------------------------------------------|
A|-------14-------15--p14--p12-------12----------------------------------------|
E|-12-------12--------------------15------15-14-h15-p14--12-14--15-------------|

e|-----------------------------------------------------------------------------|
B|-----------------------------------------------------------------------------|
G|-----------------------------------------------------------------------------|
D|-----------------------------------------------------------------------------|
A|-------14-------15--p14--p12------12-----------------------------------------|
E|-12-------12--------------------15-----15--14--12--12-h14-14--p12------------|

|Guitar II: Riff 1| - Kicks in after |Lead Guitar: Riff 1| is played through twice


e|------------------------------------------------------------------------------|
B|------------------------------------------------------------------------------|
G|------------------------------------------------------------------------------|
D|-2-2--2---2-2-2-2-2-2---------------------------------------------------------|
A|-2-2--2---2-2-2-2-2-2---10-10---10--x10-x10-x10---x12-x12-x12-----------------|
D|-2-2--2---2-2-2-2-2-2---10-10---10--x10-x10-x10---x12-x12-x12-----------------|

|Guitar II: Verse Alternation|


e|-----------------------------------------------------------------------------|
B|-----------------------------------------------------------------------------|
G|-----------------------------------------------------------------------------|
D|-2-2---2----------2-2-2------------------------------------------------------|
A|-2-2---2----------2-2-2---10-10---10-----------------x12-x12-x12-------------|
D|-2-2---2----------2-2-2---10-10---10-----------------x12-x12-x12-------------|

e|-----------------------------------------------------------------------------|
B|-----------------------------------------------------------------------------|
G|-----------------------------------------------------------------------------|
D|-2-2---2----------2-2-2------------------------------------------------------|
A|-2-2---2----------2-2-2---10-10---10--x10-x10-x10--x12-x12-x12---------------|
D|-2-2---2----------2-2-2---10-10---10--x10-x10-x10--x12-x12-x12---------------|

|Guitar I: Verse|


e|-----------------------------------------------------------------------------|
B|-----------------------------------------------------------------------------|
G|----------------------------------------------7h9-~9-------------------------|
D|--------4h5p4----------------------------------------------------------------|
A|----------------~5-----------------------------------------------------------|
E|-----------------------------------------------------------------------------|

e|-----------------------------------------------------------------------------|
B|-----------------------------------------------------------------------------|
G|-----------------------------------------------------------------------------|
D|-----------------------------------------------------------------------------|
A|------------------12-12-14-15-14-12-15-14-12-14------------------------------|
E|-----------15-15-------------------------------------------------------------|

|Guitar I: Chorus|


e|----------------2------------------------------------0--------------2-------|
B|----------------3------------------------------------2--------------3-------|
G|-0--------------2-----------------0-----------------0--------------2--------|
D|-2---------------------------------2-----------------2----------------------|
A|-2---------------------------------2-----------------3----------------------|
E|-0---------------------------------0----------------------------------------|

|Guitar II: Chorus| - Play only on second run-through of |Rhythm Guitar: Chorus|


e|------------------------------------------------------15--14-----------------|
B|---------------------------------------------------------------15------------|
G|-----------------------------------------------------------------------------|
D|-----------------------------------------------------------------------------|
A|-----------------------------------------------------------------------------|
D|-----------------------------------------------------------------------------|

|Guitar I: Riff 1|


e|-----------------------------------------------------------------------------|
B|-----------------------------------------------------------------------------|
G|-----------------------------------------------------------------------------|
D|-----------------------------------------------------------------------------|
A|-------14-------15--p14--p12-------12----------------------------------------|
E|-12-------12--------------------15------15-14-h15-p14--12-14--15-------------|

e|-----------------------------------------------------------------------------|
B|-----------------------------------------------------------------------------|
G|-----------------------------------------------------------------------------|
D|-----------------------------------------------------------------------------|
A|-------14-------15--p14--p12------12-----------------------------------------|
E|-12-------12--------------------15-----15--14--12--12-h14-14--p12------------|

|Guitar II: Verse Alternation|

e|-----------------------------------------------------------------------------|
B|-----------------------------------------------------------------------------|
G|-----------------------------------------------------------------------------|
D|-2-2---2----------2-2-2------------------------------------------------------|
A|-2-2---2----------2-2-2---10-10---10-----------------x12-x12-x12-------------|
D|-2-2---2----------2-2-2---10-10---10-----------------x12-x12-x12-------------|

e|-----------------------------------------------------------------------------|
B|-----------------------------------------------------------------------------|
G|-----------------------------------------------------------------------------|
D|-2-2---2----------2-2-2------------------------------------------------------|
A|-2-2---2----------2-2-2---10-10----10--x10-x10-x10--x12-x12-x12--------------|
D|-2-2---2----------2-2-2---10-10----10--x10-x10-x10--x12-x12-x12--------------|

|Guitar I: Verse|


e|-----------------------------------------------------------------------------|
B|-----------------------------------------------------------------------------|
G|----------------------------------------------7h9-~9-------------------------|
D|--------4h5p4----------------------------------------------------------------|
A|----------------~5-----------------------------------------------------------|
E|-----------------------------------------------------------------------------|

e|-----------------------------------------------------------------------------|
B|-----------------------------------------------------------------------------|
G|-----------------------------------------------------------------------------|
D|-----------------------------------------------------------------------------|
A|------------------12-12-14-15-14-12-15-14-12-14------------------------------|
E|-----------15-15-------------------------------------------------------------|

|Guitar II: Chorus|


e|----------------2------------------------------------0--------------2-----|
B|----------------3------------------------------------2--------------3-----|
G|----------------2------------------------------------0--------------2-----|
D|-2---------------------------------2-----------------2--------------------|
A|-2---------------------------------2-----------------3--------------------|
D|-2---------------------------------2--------------------------------------|

|Guitar I: Chorus| - Play only on second run-through of |Rhythm Guitar: Chorus|


e|------------------------------------------------------15--14-----------------|
B|---------------------------------------------------------------15------------|
G|-----------------------------------------------------------------------------|
D|-----------------------------------------------------------------------------|
A|-----------------------------------------------------------------------------|
E|-----------------------------------------------------------------------------|

|Guitar I: Riff 2|


e|----------------7-7-----------------------------------7-7--------------------|
B|-7-7-8-8-7-7-----7-7-8-8-7-7-------7-7-8-8-7-7-----7-7-8-8-7-7---------------|
G|----------------------------------7-7---------------------------------7-7----|
D|-----------------------------------------------------------------------------|
A|-----------------------------------------------------------------------------|
E|-----------------------------------------------------------------------------|

|Guitar II: Riff 2|


e|-----------------------------------------------------------------------------|
B|-----------------------------------------------------------------------------|
G|-----------------------------------------------------------------------------|
D|-----------------------------------------------------------------------------|
A|------10-10-10-10--10-10-10-10--10-10-10-10--10-10-10-10---------------------|
D|------10-10-10-10--10-10-10-10--10-10-10-10--10-10-10-10---------------------|

e|-----------------------------------------------------------------------------|
B|-----------------------------------------------------------------------------|
G|-----------------------------------------------------------------------------|
D|-------2--2--2--2-----2--2--2--2-----2--2--2--2-----2--2--2--2---------------|
A|-------2--2--2--2-----2--2--2--2-----2--2--2--2-----2--2--2--2---------------|
D|-------2--2--2--2-----2--2--2--2-----2--2--2--2-----2--2--2--2---------------|

e|-----------------------------------------------------------------------------|
B|-----------------------------------------------------------------------------|
G|-----------------------------------------------------------------------------|
D|------5--5--5--5-----5--5--5--5------5--5--5--5------5--5--5--5--------------|
A|------5--5--5--5-----5--5--5--5------5--5--5--5------5--5--5--5--------------|
D|------5--5--5--5-----5--5--5--5------5--5--5--5------5--5--5--5--------------|

e|-----------------------------------------------------------------------------|
B|-----------------------------------------------------------------------------|
G|-----------------------------------------------------------------------------|
D|------7--7--7--7-----7--7--7--7-----7--7--7--7-------7--7--7--7--------------|
A|------7--7--7--7-----7--7--7--7-----7--7--7--7-------7--7--7--7--------------|
D|------7--7--7--7-----7--7--7--7-----7--7--7--7-------7--7--7--7--------------|

|Guitar II: Chorus|


e|----------------2------------------------------------0--------------2-----|
B|----------------3------------------------------------2--------------3-----|
G|----------------2------------------------------------0--------------2-----|
D|-2---------------------------------2-----------------2--------------------|
A|-2---------------------------------2-----------------3--------------------|
D|-2---------------------------------2--------------------------------------|

|Guitar I: Riff 3|


e|-----------------------------------------------------------------------------|
B|-----------------------------------------------------------------------------|
G|-----------------------------------------------------------------------------|
D|-------9-9------------9-9-----------9-9------9-10-10-9------9----------------|
A|------------12-10-9-------12-9-10------12---------------12-----10------------|
E|-12-12-----------------------------------------------------------------------|

|Guitar II: Riff 3|


e|-----------------------------------------------------------------------------|
B|-----------------------------------------------------------------------------|
G|-----------------------------------------------------------------------------|
D|--------------------------------------------------------7-7------------------|
A|-------10-10-9-7-----10-10-9-7--------10-10-9-10-----10-9-10-9---------------|
D|-7-7---------------9-9------------10-10--------------------------------------|

|Guitar II: Riff 4|


e|-----------------------------------------------------------------------------|
B|-----------------------------------------------------------------------------|
G|-----------------------------------------------------------------------------|
D|-x2---0h2-------x2---0h2---x3----x2---0h2-------x2---0h2---x3----------------|
A|-x2---0h2---3---x2---0h2---x3----x2---0h2---3---x2---0h2---x3----------------|
D|-x2---0h2-------x2---0h2---x3----x2---0h2-------x2---0h2---x3----------------|

|Guitar II: Interlude|

e|-----------------------------------------------------------------------------|
B|-----------------------------------------------------------------------------|
G|-----------------------------------------------------------------------------|
D|-0-0---0-0--0---0-0---0-0--0---0---0---0-0---0-0--0---0-0---0-0--0-----------|
A|-0-0---0-0--0---0-0---0-0--0---0---0---0-0---0-0--0---0-0---0-0--0-----------|
D|-0-0---0-0--0---0-0---0-0--0---0---0---0-0---0-0--0---0-0---0-0--0-----------|

e|-----------------------------------------------------------------------------|
B|-----------------------------------------------------------------------------|
G|-----------------------------------------------------------------------------|
D|0---0---0-0---0-0--0---0-0---0-0--0---0---0---0-0---0-0--0---0-0-------------|
A|0---0---0-0---0-0--0---0-0---0-0--0---0---0---0-0---0-0--0---0-0-------------|
D|0---0---0-0---0-0--0---0-0---0-0--0---0---0---0-0---0-0--0---0-0-------------|

e|-----------------------------------------------------------------------------|
B|-----------------------------------------------------------------------------|
G|-----------------------------------------------------------------------------|
D|-0--0--0-------------------------------------------------2---2------2--------|
A|-0--0--0-------------------------------------------------2---2------2--------|
D|-0--0--0-------------------------------------------------2---2------2--------|

|Guitar I: Riff 2|


e|----------------7-7-----------------------------------7-7--------------------|
B|-7-7-8-8-7-7-----7-7-8-8-7-7-------7-7-8-8-7-7-----7-7-8-8-7-7---------------|
G|----------------------------------7-7---------------------------------7-7----|
D|-----------------------------------------------------------------------------|
A|-----------------------------------------------------------------------------|
E|-----------------------------------------------------------------------------|

|Guitar II: Riff 2|


e|-----------------------------------------------------------------------------|
B|-----------------------------------------------------------------------------|
G|-----------------------------------------------------------------------------|
D|-----------------------------------------------------------------------------|
A|------10-10-10-10--10-10-10-10--10-10-10-10--10-10-10-10---------------------|
D|------10-10-10-10--10-10-10-10--10-10-10-10--10-10-10-10---------------------|

e|-----------------------------------------------------------------------------|
B|-----------------------------------------------------------------------------|
G|-----------------------------------------------------------------------------|
D|-------2--2--2--2-----2--2--2--2-----2--2--2--2-----2--2--2--2---------------|
A|-------2--2--2--2-----2--2--2--2-----2--2--2--2-----2--2--2--2---------------|
D|-------2--2--2--2-----2--2--2--2-----2--2--2--2-----2--2--2--2---------------|

e|-----------------------------------------------------------------------------|
B|-----------------------------------------------------------------------------|
G|-----------------------------------------------------------------------------|
D|------5--5--5--5-----5--5--5--5------5--5--5--5------5--5--5--5--------------|
A|------5--5--5--5-----5--5--5--5------5--5--5--5------5--5--5--5--------------|
D|------5--5--5--5-----5--5--5--5------5--5--5--5------5--5--5--5--------------|

e|-----------------------------------------------------------------------------|
B|-----------------------------------------------------------------------------|
G|-----------------------------------------------------------------------------|
D|------7--7--7--7-----7--7--7--7-----7--7--7--7-------7--7--7--7--------------|
A|------7--7--7--7-----7--7--7--7-----7--7--7--7-------7--7--7--7--------------|
D|------7--7--7--7-----7--7--7--7-----7--7--7--7-------7--7--7--7--------------|

|Guitar II: Riff 1| - Let last chord ring


e|------------------------------------------------------------------------------|
B|------------------------------------------------------------------------------|
G|------------------------------------------------------------------------------|
D|-2-2--2---2-2-2-2-2-2---------------------------------------------------------|
A|-2-2--2---2-2-2-2-2-2---10-10---10--x10-x10-x10---x12-x12-x12-----------------|
D|-2-2--2---2-2-2-2-2-2---10-10---10--x10-x10-x10---x12-x12-x12-----------------|
comments
print report bad tab
8 comments total. Showing first comments.
0 reply
theguitarist26 wrote on March 13 2006, 12:09 pm

at the end of riff 1 ( 12-h14-14--p12 ) is not on the 6th string. It is on the 4th string. other than that great tab.

0 reply
guitarandbmx wrote on August 17 2006, 06:50 pm

haha matt ya bam lol

0 reply
SuperShredder wrote on December 15 2006, 07:33 pm

Spot-on tab for a great song!

I want to post or [tab]
guest
You may want to rate the tab now too:
select rating
Please do not post tabs as comments. Select "correction" instead!