Oops, an error
Loading. Please wait.

Everyone I Know Has Fangs Tab

ver1
ver1

Whole song

Interactive

More versions @911Tabs.com
3,373 views 6 this week
1 commentread comment
1 2 3 4 5
accurate
x 4
Autoscroll
+/-
esc
set tempo
stop
Contributor
Hey! There's an official Ultimate Guitar app which is ideal
for learning songs when you're away from computer. Get the app
WARNING: You are trying to view
                                    content from Ultimate-Guitar.com
                                    in an unauthorized application,
                                    which is prohibited.

                                    Please use an official Ultimate
                                    Guitar Tabs application for iPhone,
                                    iPad or Android to access legitimate
                                    chords, guitar, bass, and drum tabs
                                    from Ultimate-Guitar.com database.

                                    Type "ultimate guitar tabs" in Apple
                                    App Store's or Android Market's
                                    search to find the application.
"Everyone I Know Has Fangs"
He Is Legend
It Hates You

Tuning(Drop C): CGCFAD

Bass Intro/Verses:
3F|---------------------------------------------------------------|
4C|---------------------------------------------------------------|
5G|---------------------------------------------------------------|
6C|0-0--0-3-6-6-6-3-5-5-5-5-----0-0--0-3-6-6-6-0--3-5-5-5--2^-----|


Guitar Verses:
1D|---------------------------------------------------------------|
2A|---------------------------------------------------------------|
3F|--------------10-----------------------------------------------|
4C|10----9-10-13----13-10--9--------------------------------------|
5G|---------------------------------------------------------------|
6C|---------------------------------------------------------------|


"Riff" as a Fill:
1D|---------------------------------------------------------------|
2A|---------------------------------------------------------------|
3F|---------------------------------------------------------------|
4C|0-7-6-0-0-7-6-0-0-7-6-0-3--------------------------------------|
5G|---------------------------------------------------------------|
6C|---------------------------------------------------------------|


Chorus:
1D|---------------------------------------------------------------|
2A|---------------------------------------------------------------|
3F|---------------------------------5---5-5-5-5-7-----------------|
4C|8---8-8-8-8-10---3---3-3-3-3-5---5---5-5-5-5-7---5---5-5-5-5-7-|
5G|8---8-8-8-8-10---3---3-3-3-3-5---3---3-3-3-3-5---5---5-5-5-5-7-|
6C|8---8-8-8-8-10---3---3-3-3-3-5-------------------5---5-5-5-5-7-|

Chorus(w/ tail):
1D|------------------------------------------------------------------------------|
2A|------------------------------------------------------------------------------|
3F|------------------------------------------------------------------------------|
4C|8---8-8-8-8-10---3---3-3-3-3-5---7--------------------------------------------|
5G|8---8-8-8-8-10---3---3-3-3-3-5---7--------------------------------------------|
6C|8---8-8-8-8-10---3---3-3-3-3-5---7---7-7-7-7-7-7-7-7--11-11-11-11-11-11-11-11-|


Riff:
1D|----------------------------------------------------------------------|
2A|----------------------------------------------------------------------|
3F|----------------------------------------------------------------------|
4C|0-------------------7-6-0-6-7-0----------------------7-6-0-6-7-0------|
5G|0---0-0-0-0-0-0-0-0-7-6-0-6-7-0------0-0-0-0-0-0-0-0-7-6-0-6-7-0------|
6C|0---0-0-0-0-0-0-0-0-7-6-0-6-7-0-9^---0-0-0-0-0-0-0-0-7-6-0-6-7-0-3^---|

Riff Tail:
1D|-------------------------------------------------------|
2A|-------------------------------------------------------|
3F|-------------------------------------------------------|
4C|-------------------------------------------------------|
5G|-------------------------------------------------------|
6C|0-0-0-0-0-0-0-0-7-6-0-6-7-0-3^--0-3-6--0-6-9--0-9-6----|


Bridge Overdub:
1D|-------------------------------------------------|
2A|-------------------------------------------------|
3F|-------------------------------------------------|
4C|12-12-12-12-12-12-12-12^-12-12-12-12-12-12-12-8--|
5G|-------------------------------------------------|
6C|-------------------------------------------------|


Bridge(Bass):
3F|----------------------------------------------------------------|
4C|----------------------------------------------------------------|
5G|----------------------------------------------------------------|
6C|0---0-0-0-0-0-0-0-0-0-0-0-0-0-0---5---5-5-5-5-5---3---3-3-3-3-3-|


Bridge End:
1D|-------------------------------------------|
2A|-------------------------------------------|
3F|-------------------------------------------|
4C|7-------7-------7-------7--------5----3----|
5G|5-------5-------5-------5--------5----3----|
6C|--0-0-0---0-0-0---0-0-0---0-0-0--5----3----|


Breakdown:
1D|----------------------------------------------------------|
2A|----------------------------------------------------------|
3F|----------------------------------------------------------|
4C|----------------------------------------------------------|
5G|----------------------------------------------------------|
6C|0-0-0-0-0-0-0-0-0-0-0-0-0-0-0-0-0-0-0-0-0-0-0-0-0-0-0-0-0-|

Arrangement:
Bass Intro x2
Verse x4
Fill
Chorus x4 w/tail
Fill
Verse 2 x4
Fill
Riff w/ tail x2
Chorus x4 w/ tail
Bridge Overdub x7
Bridge Bass x6
Bridge End x2
Riff w/ tail
Breakdown x2

Lyrics:

(Verse 1)
Like a scene in science fiction
Where the creature will not die
I'll be using perfect diction
Even though I'm terrified

I can see you smell it through me
Can you find a place to hide
I think I might hear some one coming out of the corner of my eye

(Chorus)
I've been meaning to look into your eyes
I've seen 'em a half a million times
How have I not seen them like this? Strange...
I've been meaning look behind your smile
Seen it a half a million times
So how did I not notice you had fangs?

(Verse 2)
I just had the strangest vision
The apartment was on fire
You were standing in the kitchen
You were covered in cherry pie

Well you know I've seen what's behind your back
So you can't tell me it was just some snack
Uhhh... I think I'm gonna be sick

(Chorus)
I've been meaning to look into your eyes
I've seen 'em a half a million times
How have I not seen them like this? Strange...
I've been meaning look behind your smile
Seen it a half a million times
So how did I not notice you had fangs?

(Breakdown)
Now that I've boarded up my door
And I'm laying on the floor
Just trying to catch my breath
Will you just give minute?!

No I don't need no other friend
So I will not let you in
And if you don't go away
Then I'm jumping out the window.
comments
print report bad tab
1 comment total.
0 reply
ThisFireBurns22 wrote on April 22 2009, 03:18 pm

Thanks for this. Check out my "Stranger Danger" tab. So excited for It Hates You.

I want to post or [tab]
guest
You may want to rate the tab now too:
select rating
Please do not post tabs as comments. Select "correction" instead!