Oops, an error
Loading. Please wait.

Dont It Make Ya Feel Tab

3,716 views 12 this week
no commentswrite comment
1 2 3 4 5
excellent!
x 2
Autoscroll
+/-
esc
set tempo
stop
Contributor
WARNING: You are trying to view
                                    content from Ultimate-Guitar.com
                                    in an unauthorized application,
                                    which is prohibited.

                                    Please use an official Ultimate
                                    Guitar Tabs application for iPhone,
                                    iPad or Android to access legitimate
                                    chords, guitar, bass, and drum tabs
                                    from Ultimate-Guitar.com database.

                                    Type "ultimate guitar tabs" in Apple
                                    App Store's or Android Market's
                                    search to find the application.
http://www.headpins.net/

-----------------------------------------------------------------------------
                        DON'T IT MAKE YA FEEL - Headpins
-----------------------------------------------------------------------------

Written by: B.MacLeod/D.Mills 
Album: "Turn It Loud"     (1982, Solid Gold Records)
Guitarist: Brian MacLeod

Tabbed by: Anne Drury   (zerofret)
Email: zerofret_ad@hotmail.com 
Date: September 8, 2007

INTRO:
                 (drums 1st 3 meas.)
 E ---------------|---------------|---------------|-----------------------|
 B ---------------|---------------|---------------|-----------------------|
 G ---------------|---------------|---------------|-----------------------|
 D ---------------|---------------|---------------|-----------------------|
 A ---------------|---------------|---------------|---------2-----------2-|
 E ---------------|---------------|---------------|---0-3h4---3^s-0-3^s---|
                                                    .   .     .     .

   A5       E5                         A5       E5
 E ----------------|------------------|----------------|------------------|
 B ----------------|------------------|----------------|------------------|
 G -2--------------|------------------|-2--------------|------------------|
 D -2-------2----2-|-2----2-2---------|-2-------2----2-|-2----2-2---------|3x
 A -0-------2----2-|-2----2-2---------|-0-------2----2-|-2----2-2---------|
 E -----3~--0----0-|-0----0-0-0-3h4-0-|-----3~--0----0-|-0----0-0-0-3h4-0-|
            d    u   d    u d                   d    u   d    u d
    .   .   .  .     .  .   .   .       .   .   .  .     .  .   .   .

   A5       E5                         A5       E5
 E ----------------|------------------|----------------|------------------|
 B ----------------|------------------|----------------|------------------|
 G -2--------------|------------------|-2--------------|----------------6=|
 D -2-------2----2-|-2----2-2---------|-2-------2----2-|-2----2-2-------6=|
 A -0-------2----2-|-2----2-2---------|-0-------2----2-|-2----2-2-------4=|
 E -----3~--0----0-|-0----0-0-0-3h4-0-|-----3~--0----0-|-0----0-0-0-3h4---|
            d    u   d    u d                   d    u   d    u d


1ST VERSE:

       C#5                             E5                              C#5
 E -----------------|-----------------|-----------------|-----------------|
 B -----------------|-----------------|-----------------|-----------------|
 G =----6-6-6-6---6=|=---6-6-6--------|-----------------|---------------6=|
 D =----6-6-6-6---6=|=---6-6-6------2-|-2-----2-2-----2-|-2-----2-2-----6=|
 A =----4-4-4-4---4=|=---4-4-4--------|-2-----2-2-----2-|-2-----2-2---2-4=|
 E -----------------|----------0-3h4--|-0-----0-0-----0-|-0-----0-0-0-----|
       pm----|          pm----|         d     u d     u   d     u d
  I know what      I  know what
      you're doing,    you're using tonight


       C#5                             Asus2             A5            C#5                 
 E -----------------|-----------------|-0---------------|-----------------|
 B -----------------|-----------------|-0---------------|-----------------|
 G =----6-6-6-6---6=|=---6-6-6-6------|-2---------------|-2-------------6=|
 D =----6-6-6-6---6=|=---6-6-6-6------|-2---------------|-2-------------6=|
 A =----4-4-4-4---4=|=---4-4-4-4------|-0---------------|-0-------------4=|
 E -----------------|-----------------|-----------------|-----------------|
       pm----|          pm----|
   I know how      I know you can't    Keep you up 'til
       you like it,          fight it,           morning light


       C#5                             E5
 E -----------------|-----------------|-----------------|-----------------|
 B -----------------|-----------------|-----------------|-----------------|
 G =----6-6-6-6---6=|=---6-6-6--------|-----------------|-----------------|
 D =----6-6-6-6---6=|=---6-6-6------2-|-2-----2-2-----2-|-2----2-2--------|
 A =----4-4-4-4---4=|=---4-4-4--------|-2-----2-2-----2-|-2----2-2--------|
 E -----------------|----------0-3h4--|-0-----0-0-----0-|-0----0-0-0--4---|
       pm----|          pm----|         d     u d     u   d    u d
   Energy is rising, everybody's flying tonight,                       The


   Asus2            F#m              B
 E -0--------------|----------------|----------------|--------------------|
 B -0--------------|-2--------------|-4--------------|--------------------|
 G -2--------------|-2--------------|-4--------------|--------------------|
 D -2--------------|-4--------------|-4--------------|--------------------|
 A -0--------------|-4--------------|-2--------------|-------2-----------2|
 E ----------------|-2--------------|----------------|--0-3h4--3^s-0-3^s--|

   music makes you |night,It makes you|tight,It makes  |  Don't it make ya
 groove through the|move,you're up-   |you feel alright|


CHORUS:

   A5       E5                         A5       E5
 E ----------------|------------------|----------------|------------------|
 B ----------------|------------------|----------------|------------------|
 G -2--------------|------------------|-2--------------|------------------|
 D -2-------2----2-|-2----2-2---------|-2-------2----2-|-2----2-2---------|3x
 A -0-------2----2-|-2----2-2---------|-0-------2----2-|-2----2-2---------|
 E -----3~--0----0-|-0----0-0-0-3h4-0-|-----3~--0----0-|-0----0-0-0-3h4-0-|
            d    u   d    u d                   d    u   d    u d
   Don't it make                       Don't it make
       ya feel like dancing,                  ya feel alright


   A5       E5                         A5       E5
 E ----------------|------------------|----------------|------------------|
 B ----------------|------------------|----------------|------------------|
 G -2--------------|------------------|-2--------------|----------------6=|
 D -2-------2----2-|-2----2-2---------|-2-------2----2-|-2----2-2-------6=|
 A -0-------2----2-|-2----2-2---------|-0-------2----2-|-2----2-2-------4=|
 E -----3~--0----0-|-0----0-0-0-3h4-0-|-----3~--0----0-|-0----0-0-0-3h4---|
            d    u   d    u d                   d    u   d    u d
   Don't it make                       Don't it make
       ya feel like dancing,                  ya feel alright


2ND VERSE:   (played same as 1st Verse)

No, you don't fight the fever
Just get up and let it all go
Oh, I don't think I'm dreaming, planning and scheming
You know just how far you can go
You can feel it, if you feel it
Trouble is you're far out of sight
Still you keep on running, looking for more fun
And dancing to the ---- 
Let me tell ya


CHORUS:   (played same as Chorus 1, with this lead part added)

   A5       E5                 +       A5       E5                   +
 E --------------|--------------------|---------------|-------------------|
 B ----------15^w|=--15-12----12------|-----------14^s|==r^sr-------------|
 G --------------|--------12^w---14---|-----------14^w|==r^wr--12---12----|
 D --------------|------------------14|~--------------|----------14---14~-|
 A --------------|--------------------|---------------|-------------------|
 E --------------|--------------------|---------------|-------------------|
   Don't it make                       Don't it make
      ya feel like dancing,                  ya feel alright


   A5       E5                   + +   A5       E5
 E ----------------|-----------------|----------------|-------------------|
 B ----------------|-----------------|----------------|----12-14-16^s---^-|
 G ------------11^s|==r^s=r^s=r--9-9~|=---------------|/13----------------|
 D ----------------|-----------------|----11----------|-------------------|
 A ----------------|-----------------|----------------|-------------------|
 E ----------------|-----------------|----------------|-------------------|
   Don't it make                        Don't it make
       ya feel like dancing,                  ya feel alright           ^
                                        (extend last bend to 1 1/2 tones)

BREAK:

Gt1 B5  A5  F#5                         B5  A5  F#5
 E|-----------------|-----------------|-----------------|-----------------|
 B|------------/5~-=|------4-5-4h5p4--|------------/5~-=|------4-5-4h5p4--|
 G|-4---2-----------|----------------6|-4---2-----------|----------------6|
 D|-4---2---4-------|-----------------|---------4-------|-----------------|
 A|-2---0---4-------|-----------------|-----------------|-----------------|
 E|---------2-------|-----------------|-----------------|-----------------|
  | .   .   .   .     . .  .   .        .   .   .   .     . .  .   .      |
Gt2                                                                       |
 E|-----------------|-----------------|-----------------|-----------------|
 B|------------/9~-=|------7-9-7h9p7--|------------/9~-=|------7-9-7h9p7--|
 G|-----------------|----------------9|-8---6-----------|----------------9|
 D|-----------------|-----------------|---------8-------|-----------------|
 A|-----------------|-----------------|-----------------|-----------------|
 E|-----------------|-----------------|-----------------|-----------------|


Gt1 B5  A5  F#5                         B5  A5  F#5
 E|/7---5-----------|-----------------|-----------------|----------/7-5---|
 B|---------7--/5~-=|------4-5-4h5p4--|------------/5~-=|---4h5p4-------7-|
 G|-----------------|----------------6|-4---2-----------|---------6-------|
 D|-----------------|-----------------|---------4-------|-----------------|
 A|-----------------|-----------------|-----------------|-----------------|
 E|-----------------|-----------------|-----------------|-----------------|
  | .   .   .   .     . .  .   .        .   .   .   .     . .       .   . |
Gt2                                                                       |
 E|/11--9-----------|-----------------|-----------------|---------/11-9---|
 B|--------11--/9~-=|------7-9-7h9p7--|------------/9~-=|---7h9p7---------|
 G|-----------------|----------------9|-8---6-----------|--------9------11|
 D|-----------------|-----------------|---------8-------|-----------------|
 A|-----------------|-----------------|-----------------|-----------------|
 E|-----------------|-----------------|-----------------|-----------------|


Play CHORUS


3RD VERSE:   (played same as 1st Verse)

I know what you're doing, I know what you're using tonight
I know how you like it, I know you can't fight it
Keep you up 'til morning light
You can feel it, I said feel it
Everybody's flying tonight
Still you keep on running, looking for more fun
And dancin', you keep dancin' every night


Play CHORUS 2x


CHORUS:   (for third & final Chorus, add this lead part)

   A5       E5                           A5       E5                  + +
 E ---------------|---------------------|---------------|-----------------|
 B ---------------|----12-14-16^s=r^sr^s|=--------------|-----------------|
 G ---------------|/13------------------|-----------11^s|==r-9-11^s=r-9-9~|
 D ---------------|---------------------|---------------|-----------------|
 A ---------------|---------------------|---------------|-----------------|
 E ---------------|---------------------|---------------|-----------------|
   Don't it make                         Don't it make
       ya feel like dancing,                   ya feel alright


   A5       E5                         A5       E5
 E -----------------|-----------------|-----------------|-----------------|
 B -------------14^s|-=---=---=---=---|-14^sr-----------|-----------------|
 G ==\--------------|-----------------|-----------------|--------------12-|
 D -----------------|-----------------|-------14-14~-=--|-=---=---=-------|
 A -----------------|-----------------|-----------------|-----------------|
 E -----------------|-----------------|-----------------|-----------------|
   Don't it make                       Don't it make
        ya feel like dancing,                  ya feel alright


Gt1
 E|-----------------|
 B|-------------15^w|
 G|-14-12-14-12-----|
 D|-----------------|
 A|-----------------|
 E|-----------------|
  |                 |
Gt2 A5          E5  |
 E|-----------------|
 B|-----------------|
 G|-2---------------|
 D|-2-----------2---|
 A|-0-----------2---|
 E|-------3~----0---|

   Don't it, don't it

-----------------------------------------------------------------------------
Notes:
-Bar lines indicate measures of 4/4 time.
-Dots (...) located under any staff are for timing, and indicate where the
 downbeats (1234) fall.
-In the Intro and Chorus, the strum pattern is shown under the staff, "u"
 for upstroke, "d" for downstroke. That strum pattern has to be followed to
 make the main riff sound right.
-More tabs of Canadian bands can be found on my tab website. There's a link 
 to the site on my UG Profile Page. (Click on "zerofret" at the top of 
 this page to get to my profile page.)

^...bend (w=whole tone,s=semi)             =...hold note or chord  
r...release bend                           ~...vibrato
h...hammer on                              /...slide up
p...pull off                               \...slide down       
pm..palm mute                              +...pinch harmonic

(This file is the transcriber's own work and represents their 
 interpretation of the song.)
comments
We did not receive enough feedback on this tab! Please rate:
print report bad tab
1 2 3 4 5
I want to post or [tab]
guest
You may want to rate the tab now too:
select rating
Please do not post tabs as comments. Select "correction" instead!