Oops, an error
Loading. Please wait.

Disconnected Tab

441 views 1 this week
no commentswrite comment
1 2 3 4 5
excellent!
x 1
Autoscroll
+/-
esc
set tempo
stop
Contributor
Difficulty
Tuning
intermediate
C G C F A D
WARNING: You are trying to view
                                    content from Ultimate-Guitar.com
                                    in an unauthorized application,
                                    which is prohibited.

                                    Please use an official Ultimate
                                    Guitar Tabs application for iPhone,
                                    iPad or Android to access legitimate
                                    chords, guitar, bass, and drum tabs
                                    from Ultimate-Guitar.com database.

                                    Type "ultimate guitar tabs" in Apple
                                    App Store's or Android Market's
                                    search to find the application.
----------------------------------------------------------------------------
                           Disconnected
                             Heartist
----------------------------------------------------------------------------

This is the song that got me hooked on Heartist. The power in the lyrics caught my 
attention the second I heard the clean vocals. Then I realized the guitars are 
very enjoyable to listen to and play. These guys are going to be the hit of 2013, 
I can feel it. Enjoy!

Username: dkm817 (same on X box live)
Youtube Cover: http://www.youtube.com/watch?v=7ZiBa2nc6aU
Email: guitardrums@rockfan.com

Guitar 1 Rhythmic (C G C F A D)
Guitar 2 Lead     (C G C F A D)

NOTE: This was exported off of guitar pro.


Guitar 1

                         PM        PM                          
             Q     E  E  E   E  E  E     E  E  Q    Q    Q     
D||-------|---------------------------|-----------------------|
A||-------|-------10--------10--------|-----------------------|
F||-------|---------------------------|-----------------------|
C||-------|-----------7---------7-----|--7--8-----------------|
G||-------|--------------0---------0--|-----------------------|
C||-------|---------------------------|-----------------------|


             PM                                                 PM        PM  
  Q    E  E  E  E  E  E     E  E  Q    Q    Q       Q     E  E  E   E  E  E   
-------5-----------5--6--|-----------------------|---------------------------|
----------------8--------|--8--------------------|-------10--------10--------|
----------0--0-----------|-----------------------|---------------------------|
-------------------------|-----------------------|-----------7---------7-----|
-------------------------|-----------------------|--------------0---------0--|
-------------------------|-----------------------|---------------------------|


                                       PM                                      
  E  E   E  E  Q    Q       Q    E  E  E  E  E  E     E  E  E  E  E  E  E  E   
-------------------------|-------5--------5--------|--------------------------|
--------11---------------|-------------------------|--------------------------|
-------------------------|----------0--0-----0-----|--------------------------|
--7--8-------------------|-------------------------|-----------------------0--|
-------------------------|-------------------------|-----------------------0--|
-------------------------|-------------------------|--0--8--5--0--7--3--0--0--|


     PM PM PM PM PM                                   
  E  E  E  E  E  E  E  E     E  E  E  E  E  E  E  E   
--------------------------|--------------------------|
--------------------------|--------------------------|
--------------------------|--------------------------|
--0--0--0--0--0--0--------|-----------------------0--|
--0--0--0--0--0--0--------|-----------------------0--|
--0--0--0--0--0--0--5--7--|--0--8--5--0--7--3--0--0--|


     PM PM PM PM PM                                   
  E  E  E  E  E  E  E  E     E  E  E  E  E  E  E  E   
--------------------------|--------------------------|
--------------------------|--------------------------|
--------------------------|--------------------------|
--0--0--0--0--0--0--------|-----------------------0--|
--0--0--0--0--0--0--------|-----------------------0--|
--0--0--0--0--0--0--3--5--|--0--8--5--0--7--3--0--0--|


     PM PM PM PM PM                                        PM PM PM PM PM       
  E  E  E  E  E  E  E  E     E  E  E  E  E  E  E  E     E  E  E  E  E  E  Q     
--------------------------|--------------------------|-------------------------|
--------------------------|--------------------------|-------------------------|
--------------------------|--------------------------|-------------------------|
--0--0--0--0--0--0--------|-----------------------0--|--0--0--0--0--0--0--7----|
--0--0--0--0--0--0--------|-----------------------0--|--0--0--0--0--0--0--4----|
--0--0--0--0--0--0--5--7--|--0--8--5--0--7--3--0--0--|--0--0--0--0--0--0-------|


     PM PM    PM PM    PM    PM    PM PM    PM     PM  
  E  E  E  E  E  E  E  E     E  E  E  E  E  E   E  E   
--------------------------|---------------------------|
--------------------------|---------------------------|
--------------------------|---------------------------|
--------------------------|---------------------------|
--------------------------|-----1--------------10-----|
--0--0--0--3--0--0--0--0--|--0-----0--0--0--0------0--|


     PM PM    PM PM    PM    PM    PM PM    PM     PM  
  E  E  E  E  E  E  E  E     E  E  E  E  E  E   E  E   
--------------------------|---------------------------|
--------------------------|---------------------------|
--------------------------|---------------------------|
--------------------------|--------------------10-----|
--------------------------|-----1---------------------|
--0--0--0--3--0--0--0--0--|--0-----0--0--0--0------0--|


     PM PM    PM PM    PM    PM    PM PM    PM     PM  
  E  E  E  E  E  E  E  E     E  E  E  E  E  E   E  E   
--------------------------|---------------------------|
--------------------------|---------------------------|
--------------------------|---------------------------|
--------------------------|---------------------------|
--------------------------|-----1--------------10-----|
--0--0--0--3--0--0--0--0--|--0-----0--0--0--0------0--|


     PM PM    PM PM    PM    PM    PM PM    PM     PM  
  E  E  E  E  E  E  E  E     E  E  E  E  E  E   E  E   
--------------------------|---------------------------|
--------------------------|---------------------------|
--------------------------|---------------------------|
--------------------------|--------------------10-----|
--------------------------|-----1---------------------|
--0--0--0--3--0--0--0--0--|--0-----0--0--0--0------0--|


  E  E  E  E  E  E  E  E     E  E  E  E  E  E  E  E   
--------------------------|--------------------------|
--------------------------|--------------------------|
--7--7--7--7--7--7--7--7--|--7--7--7--7--7--7--7--7--|
--7--7--7--7--7--7--7--7--|--7--7--7--7--7--7--7--7--|
--0--0--0--0--0--0--0--0--|--0--0--0--0--0--0--0--0--|
--0--0--0--0--0--0--0--0--|--0--0--0--0--0--0--0--0--|


  PM PM       PM PM PM PM          PM PM PM PM PM PM  
  E  E  E  E  E  E  E  E     E  E  E  E  E  E  E  E   
--------------------------|--------------------------|
--------------------------|--------------------------|
--------------------------|--------------------------|
--0--0--------0--0--0--0--|--------0--0--0--0--0--0--|
--0--0--------0--0--0--0--|--------0--0--0--0--0--0--|
--0--0--------0--0--0--0--|--------0--0--0--0--0--0--|


  PM PM       PM PM PM PM                PM PM PM PM  
  E  E  E  E  E  E  E  E     E  E  E  E  E  E  E  E   
--------------------------|--------------------------|
--------------------------|--------------------------|
--------------------------|--------------------------|
--0--0--------0--0--0--0--|--------------0--0--0--0--|
--0--0--------0--0--0--0--|--------------0--0--0--0--|
--0--0--------0--0--0--0--|--------------0--0--0--0--|


  PM PM       PM PM PM PM          PM PM PM PM PM PM  
  E  E  E  E  E  E  E  E     E  E  E  E  E  E  E  E   
--------------------------|--------------------------|
--------------------------|--------------------------|
--------------------------|--------------------------|
--0--0--------0--0--0--0--|--------0--0--0--0--0--0--|
--0--0--------0--0--0--0--|--------0--0--0--0--0--0--|
--0--0--------0--0--0--0--|--------0--0--0--0--0--0--|


  PM PM       PM PM PM PM                                                 
  E  E  E  E  E  E  E  E     W                   E  E  E  E  E  E  E  E   
--------------------------|-------------------|--------------------------|
--------------------------|-------------------|--------------------------|
--------------------------|-------------------|--------------------------|
--0--0--------0--0--0--0--|-------------------|--7--3--------------3--2--|
--0--0--------0--0--0--0--|-------------------|--------------1--0--------|
--0--0--------0--0--0--0--|-------------------|--------------------------|


  E  E  E  E  E  E  E  E     E  E  E  E  E  E  E  E   
--------------------------|--------------------------|
--------------------------|--------------------------|
--------------------------|--------------------------|
--------------5--2--------|--7--3--------------3--2--|
--------1--0--------3--0--|--------------1--0--------|
--------------------------|--------------------------|


  E  E  E  E  E  E  E  E     E  E  E  E  E  E  E  E   
--------------------------|--------------------------|
--------------------------|--------------------------|
--------------------------|--------------------------|
--------------3--2--5--2--|--7--3--------------3--2--|
--------1--0--------------|--------------1--0--------|
--------------------------|--------------------------|


  E  E  E  E  E  E  E  E     E  E  E  E  E  E  E  E   
--------------------------|--------------------------|
--------------------------|--------------------------|
--------------------------|--------------------------|
--------------5--2--------|--7--3--------------3--2--|
--------1--0--------3--0--|--------------1--0--------|
--------------------------|--------------------------|


  E  E  E  E  E  E  E  E     W                   W                 
--------------------------|-------------------|-------------------|
--------------------------|-------------------|-------------------|
--------------------------|-------------------|-------------------|
--------------5-----------|--0----------------|--L----------------|
--------1--0--------------|--0----------------|--L----------------|
--------------------------|--0----------------|--L----------------|


                           PM   PM PM PM PM                             
  W                   Q    Q    E  E  E  E     E  E  E  E  E  E  E  E   
-------------------|------------------------|--------------------------|
-------------------|------------------------|--------------------------|
--3----------------|------------------------|--3--3--3--3--3--3--3--3--|
--3----------------|--3----0----0--0--0--0--|--3--3--3--3--3--3--3--3--|
--1----------------|--3----0----0--0--0--0--|--1--1--1--1--1--1--1--1--|
-------------------|--3----0----0--0--0--0--|--------------------------|


  E  E  E  E  E  E  E  E     E  E  E  E  E  E  E  E   
--------------------------|--------------------------|
--------------------------|--------------------------|
--3--3--3--3--3--3--3--3--|--5--5--5--5--5--5--5--5--|
--3--3--3--3--3--3--3--3--|--5--5--5--5--5--5--5--5--|
--1--1--1--1--1--1--1--1--|--3--3--3--3--3--3--3--3--|
--------------------------|--------------------------|


  E  E  E  E  E  E  E  E     E  E  E  E  E  E  E  E   
--------------------------|--------------------------|
--------------------------|--------------------------|
--5--5--5--5--5--5--5--5--|--------------------------|
--5--5--5--5--5--5--5--5--|--0--0--0--0--0--0--0--0--|
--3--3--3--3--3--3--3--3--|--0--0--0--0--0--0--0--0--|
--------------------------|--0--0--0--0--0--0--0--0--|


  E  E  E  E  E  E  E  E     E  E  E  E  E  E  E  E   
--------------------------|--------------------------|
--------------------------|--------------------------|
--------------------------|--------------------------|
--0--0--0--0--0--0--0--0--|--0--0--0--0--0--0--0--0--|
--0--0--0--0--0--0--0--0--|--0--0--0--0--0--0--0--0--|
--0--0--0--0--0--0--0--0--|--0--0--0--0--0--0--0--0--|


  E  E  E  E  E  E  E  E     E  E  E  E  E  E  E  E   
--------------------------|--------------------------|
--------------------------|--------------------------|
--------------------------|--3--3--3--3--3--3--3--3--|
--0--0--0--0--0--0--0--0--|--3--3--3--3--3--3--3--3--|
--0--0--0--0--0--0--0--0--|--1--1--1--1--1--1--1--1--|
--0--0--0--0--0--0--0--0--|--------------------------|


  E  E  E  E  E  E  E  E     E  E  E  E  E  E  E  E   
--------------------------|--------------------------|
--------------------------|--------------------------|
--3--3--3--3--3--3--3--3--|--5--5--5--5--5--5--5--5--|
--3--3--3--3--3--3--3--3--|--5--5--5--5--5--5--5--5--|
--1--1--1--1--1--1--1--1--|--3--3--3--3--3--3--3--3--|
--------------------------|--------------------------|


  E  E  E  E  E  E  E  E     E  E  E  E  E  E  E  E   
--------------------------|--------------------------|
--------------------------|--------------------------|
--5--5--5--5--5--5--5--5--|--------------------------|
--5--5--5--5--5--5--5--5--|--0--0--0--0--0--0--0--0--|
--3--3--3--3--3--3--3--3--|--0--0--0--0--0--0--0--0--|
--------------------------|--0--0--0--0--0--0--0--0--|


  E  E  E  E  E  E  E  E     E  E  E  E  E  E  E  E   
--------------------------|--------------------------|
--------------------------|--------------------------|
--------------------------|--------------------------|
--0--0--0--0--0--0--0--0--|--0--0--0--0--0--0--0--0--|
--0--0--0--0--0--0--0--0--|--0--0--0--0--0--0--0--0--|
--0--0--0--0--0--0--0--0--|--0--0--0--0--0--0--0--0--|


  E  E  E  E  E  E  E  E     E  E  E  E  E  E  E  E   
--------------------------|--------------------------|
--------------------------|--------------------------|
--------------------------|--------------------------|
--0--0--0--0--0--0--0--0--|-----------------------0--|
--0--0--0--0--0--0--0--0--|-----------------------0--|
--0--0--0--0--0--0--0--0--|--0--8--5--0--7--3--0--0--|


     PM PM PM PM PM                                   
  E  E  E  E  E  E  E  E     E  E  E  E  E  E  E  E   
--------------------------|--------------------------|
--------------------------|--------------------------|
--------------------------|--------------------------|
--0--0--0--0--0--0--------|-----------------------0--|
--0--0--0--0--0--0--------|-----------------------0--|
--0--0--0--0--0--0--5--7--|--0--8--5--0--7--3--0--0--|


     PM PM PM PM PM                                   
  E  E  E  E  E  E  E  E     E  E  E  E  E  E  E  E   
--------------------------|--------------------------|
--------------------------|--------------------------|
--------------------------|--------------------------|
--0--0--0--0--0--0--------|-----------------------0--|
--0--0--0--0--0--0--------|-----------------------0--|
--0--0--0--0--0--0--3--5--|--0--8--5--0--7--3--0--0--|


     PM PM PM PM PM                                        PM PM PM            
  E  E  E  E  E  E  E  E     E  E  E  E  E  E  E  E     E  E  E  E  H          
--------------------------|--------------------------|------------------------|
--------------------------|--------------------------|------------------------|
--------------------------|--------------------------|------------------------|
--0--0--0--0--0--0--------|-----------------------0--|--0--0--0--0--0/--------|
--0--0--0--0--0--0--------|-----------------------0--|--0--0--0--0------------|
--0--0--0--0--0--0--5--7--|--0--8--5--0--7--3--0--0--|--0--0--0--0------------|


     PM PM    PM PM    PM    PM    PM PM    PM     PM  
  E  E  E  E  E  E  E  E     E  E  E  E  E  E   E  E   
--------------------------|---------------------------|
--------------------------|---------------------------|
--------------------------|---------------------------|
--------------------------|---------------------------|
--------------------------|-----1--------------10-----|
--0--0--0--3--0--0--0--0--|--0-----0--0--0--0------0--|


     PM PM    PM PM    PM    PM    PM PM    PM     PM  
  E  E  E  E  E  E  E  E     E  E  E  E  E  E   E  E   
--------------------------|---------------------------|
--------------------------|---------------------------|
--------------------------|---------------------------|
--------------------------|--------------------10-----|
--------------------------|-----1---------------------|
--0--0--0--3--0--0--0--0--|--0-----0--0--0--0------0--|


     PM PM    PM PM    PM    PM    PM PM    PM     PM  
  E  E  E  E  E  E  E  E     E  E  E  E  E  E   E  E   
--------------------------|---------------------------|
--------------------------|---------------------------|
--------------------------|---------------------------|
--------------------------|---------------------------|
--------------------------|-----1--------------10-----|
--0--0--0--3--0--0--0--0--|--0-----0--0--0--0------0--|


  S S S S S S S S S S S S S S S S    S S S S S S S S E  E  E  E   
----------------------------------|------------------------------|
--6-6-6-6-6-6-6-6-6-6-6-6-6-6-6-6-|--6-6-6-6-6-6-6-6-------------|
--x-x-x-x-x-x-x-x-x-x-x-x-x-x-x-x-|--x-x-x-x-x-x-x-x-------------|
--3-3-3-3-3-3-3-3-3-3-3-3-3-3-3-3-|--3-3-3-3-3-3-3-3-------------|
--5-5-5-5-5-5-5-5-5-5-5-5-5-5-5-5-|--5-5-5-5-5-5-5-5-------------|
----------------------------------|------------------------------|


  PM PM       PM PM PM PM          PM PM PM PM PM PM  
  E  E  E  E  E  E  E  E     E  E  E  E  E  E  E  E   
--------------------------|--------------------------|
--------------------------|--------------------------|
--------------------------|--------------------------|
--0--0--L--L--0--0--0--0--|--L--L--0--0--0--0--0--0--|
--0--0--L--L--0--0--0--0--|--L--L--0--0--0--0--0--0--|
--0--0--L--L--0--0--0--0--|--L--L--0--0--0--0--0--0--|


  PM PM       PM PM PM PM                PM PM PM PM PM  
  E  E  E  E  E  E  E  E     E  E  E  E  S  S  E  E  E   
--------------------------|-----------------------------|
--------------------------|-----------------------------|
--------------------------|-----------------------------|
--0--0--L--L--0--0--0--0--|--L--L--L--L--0--0--0--0--0--|
--0--0--L--L--0--0--0--0--|--L--L--L--L--0--0--0--0--0--|
--0--0--L--L--0--0--0--0--|--L--L--L--L--0--0--0--0--0--|


  PM PM PM       PM PM PM PM          PM PM PM PM PM PM  
  S  S  E  E  E  E  E  E  E     E  E  E  E  E  E  E  E   
-----------------------------|--------------------------|
-----------------------------|--------------------------|
-----------------------------|--------------------------|
--0--0--0--------0--0--0--0--|--------0--0--0--0--0--0--|
--0--0--0--------0--0--0--0--|--------0--0--0--0--0--0--|
--0--0--0--------0--0--0--0--|--------0--0--0--0--0--0--|


  PM PM       PM PM PM PM                PM PM PM PM  
  E  E  E  E  E  E  E  E     E  E  E  E  E  E  E  E   
--------------------------|--------------------------|
--------------------------|--------------------------|
--------------------------|--------------------------|
--0--0--------0--0--0--0--|--------------0--0--0--0--|
--0--0--------0--0--0--0--|--------------0--0--0--0--|
--0--0--------0--0--0--0--|--------------0--0--0--0--|


  E  E  E  E  E  E  E  E     E  E  E  E  E  E  E  E   
--------------------------|--------------------------|
--------------------------|--------------------------|
--------------------------|--------------------------|
--7--3--------------3--2--|--------------5--2--------|
--------------1--0--------|--------1--0--------3--0--|
--------------------------|--------------------------|


  E  E  E  E  E  E  E  E     E  E  E  E  E  E  E  E   
--------------------------|--------------------------|
--------------------------|--------------------------|
--------------------------|--------------------------|
--7--3--------------3--2--|--------------3--2--5--2--|
--------------1--0--------|--------1--0--------------|
--------------------------|--------------------------|


  E  E  E  E  E  E  E  E     E  E  E  E  E  E  E  E   
--------------------------|--------------------------|
--------------------------|--------------------------|
--------------------------|--------------------------|
--7--3--------------3--2--|--------------5--2--------|
--------------1--0--------|--------1--0--------3--0--|
--------------------------|--------------------------|


  E  E  E  E  E  E  E  E     E  E  E  E  E  E  E  E   
--------------------------|--------------------------|
--------------------------|--------------------------|
--------------------------|--------------------------|
--7--3--------------3--2--|--------------5-----------|
--------------1--0--------|--------1--0--------------|
--------------------------|--------------------------|


  E  E  E  E  E  E  E  E     E  E  E  E  E  E  E  E   
--------------------------|--------------------------|
--------------------------|--------------------------|
--3--3--3--3--3--3--3--3--|--3--3--3--3--3--3--3--3--|
--3--3--3--3--3--3--3--3--|--3--3--3--3--3--3--3--3--|
--1--1--1--1--1--1--1--1--|--1--1--1--1--1--1--1--1--|
--------------------------|--------------------------|


  E  E  E  E  E  E  E  E     E  E  E  E  E  E  E  E   
--------------------------|--------------------------|
--------------------------|--------------------------|
--5--5--5--5--5--5--5--5--|--5--5--5--5--5--5--5--5--|
--5--5--5--5--5--5--5--5--|--5--5--5--5--5--5--5--5--|
--3--3--3--3--3--3--3--3--|--3--3--3--3--3--3--3--3--|
--------------------------|--------------------------|


  E  E  E  E  E  E  E  E     E  E  E  E  E  E  E  E   
--------------------------|--------------------------|
--------------------------|--------------------------|
--------------------------|--------------------------|
--0--0--0--0--0--0--0--0--|--0--0--0--0--0--0--0--0--|
--0--0--0--0--0--0--0--0--|--0--0--0--0--0--0--0--0--|
--0--0--0--0--0--0--0--0--|--0--0--0--0--0--0--0--0--|


  E  E  E  E  E  E  E  E     E  E  E  E  E  E  E  E   
--------------------------|--------------------------|
--------------------------|--------------------------|
--------------------------|--------------------------|
--0--0--0--0--0--0--0--0--|--0--0--0--0--0--0--0--0--|
--0--0--0--0--0--0--0--0--|--0--0--0--0--0--0--0--0--|
--0--0--0--0--0--0--0--0--|--0--0--0--0--0--0--0--0--|


  E  E  E  E  E  E  E  E     E  E  E  E  E  E  E  E   
--------------------------|--------------------------|
--------------------------|--------------------------|
--3--3--3--3--3--3--3--3--|--3--3--3--3--3--3--3--3--|
--3--3--3--3--3--3--3--3--|--3--3--3--3--3--3--3--3--|
--1--1--1--1--1--1--1--1--|--1--1--1--1--1--1--1--1--|
--------------------------|--------------------------|


  E  E  E  E  E  E  E  E     E  E  E  E  E  E  E  E   
--------------------------|--------------------------|
--------------------------|--------------------------|
--5--5--5--5--5--5--5--5--|--5--5--5--5--5--5--5--5--|
--5--5--5--5--5--5--5--5--|--5--5--5--5--5--5--5--5--|
--3--3--3--3--3--3--3--3--|--3--3--3--3--3--3--3--3--|
--------------------------|--------------------------|


  E  E  E  E  E  E  E  E     E  E  E  E  E  E  E  E   
--------------------------|--------------------------|
--------------------------|--------------------------|
--------------------------|--------------------------|
--0--0--0--0--0--0--0--0--|--0--0--0--0--0--0--0--0--|
--0--0--0--0--0--0--0--0--|--0--0--0--0--0--0--0--0--|
--0--0--0--0--0--0--0--0--|--0--0--0--0--0--0--0--0--|


  E  E  E  E  E  E  E  E     E  E  E  E  E  E  E  E   
--------------------------|--------------------------|
--------------------------|--------------------------|
--------------------------|--------------------------|
--0--0--0--0--0--0--0--0--|--0--0--0--0--0--0--0--0--|
--0--0--0--0--0--0--0--0--|--0--0--0--0--0--0--0--0--|
--0--0--0--0--0--0--0--0--|--0--0--0--0--0--0--0--0--|


  E  E  E  E  E  E  E  E     E  E  E  E  E  E  E  E   
--------------------------|--------------------------|
--------------------------|--------------------------|
--3--3--3--3--3--3--3--3--|--3--3--3--3--3--3--3--3--|
--3--3--3--3--3--3--3--3--|--3--3--3--3--3--3--3--3--|
--1--1--1--1--1--1--1--1--|--1--1--1--1--1--1--1--1--|
--------------------------|--------------------------|


  E  E  E  E  E  E  E  E     E  E  E  E  E  E  E  E     Q    S Q    S Q    E   
--------------------------|--------------------------|------------------------|
--------------------------|--------------------------|------------------------|
--------------------------|--------------------------|---------7----L-6----3--|
--5--5--5--5--5--5--5--5--|--5--5--5--5--5--5--5--5--|--0----L-7----L-6----3--|
--5--5--5--5--5--5--5--5--|--5--5--5--5--5--5--5--5--|--0----L-5----L-4----1--|
--5--5--5--5--5--5--5--5--|--5--5--5--5--5--5--5--5--|--0----L----------------|


  H        H           W                   W                 
--------------------|-------------------|-------------------|
--------------------|-------------------|-------------------|
--L--------6--------|-------------------|-------------------|
--L--------6--------|--0----------------|--L----------------|
--L--------4--------|--0----------------|--L----------------|
--------------------|--0----------------|--L----------------|


  W                   W                   W                   W                 
-------------------|-------------------|-------------------|-------------------|
-------------------|-------------------|-------------------|-------------------|
-------------------|-------------------|-------------------|-------------------|
--L----------------|--L----------------|--0----------------|--L----------------|
--L----------------|--L----------------|--0----------------|--L----------------|
--L----------------|--L----------------|--0----------------|--L----------------|


  W                   W                   E  E  E  E  E  E  E  E   
-------------------|-------------------|--------------------------|
-------------------|-------------------|--------------------------|
-------------------|-------------------|--3--3--3--3--3--3--3--3--|
--L----------------|--L----------------|--3--3--3--3--3--3--3--3--|
--L----------------|--L----------------|--1--1--1--1--1--1--1--1--|
--L----------------|--L----------------|--------------------------|


  E  E  E  E  E  E  E  E     E  E  E  E  E  E  E  E   
--------------------------|--------------------------|
--------------------------|--------------------------|
--3--3--3--3--3--3--3--3--|--3--3--3--3--3--3--3--3--|
--3--3--3--3--3--3--3--3--|--3--3--3--3--3--3--3--3--|
--1--1--1--1--1--1--1--1--|--1--1--1--1--1--1--1--1--|
--------------------------|--------------------------|


  E  E  E  E  E  E  E  E     E  E  E  E  E  E  E  E   
--------------------------|--------------------------|
--------------------------|--------------------------|
--3--3--3--3--3--3--3--3--|--------------------------|
--3--3--3--3--3--3--3--3--|--5--5--5--5--5--5--5--5--|
--1--1--1--1--1--1--1--1--|--5--5--5--5--5--5--5--5--|
--------------------------|--5--5--5--5--5--5--5--5--|


  E  E  E  E  E  E  E  E     E  E  E  E  E  E  E  E   
--------------------------|--------------------------|
--------------------------|--------------------------|
--------------------------|--------------------------|
--5--5--5--5--5--5--5--5--|--5--5--5--5--5--5--5--5--|
--5--5--5--5--5--5--5--5--|--5--5--5--5--5--5--5--5--|
--5--5--5--5--5--5--5--5--|--5--5--5--5--5--5--5--5--|


                             PM                                    
  E  E  E  E  E  E  E  E     W                   W                 
--------------------------|-------------------|-------------------|
--------------------------|-------------------|-------------------|
--------------------------|-------------------|-------------------|
--5--5--5--5--5--5--5--5--|--0----------------|--L----------------|
--5--5--5--5--5--5--5--5--|--0----------------|--L----------------|
--5--5--5--5--5--5--5--5--|--0----------------|--L----------------|


  PM PM PM PM PM PM     PM PM   PM   PM   PM  
  S  S  S  S  S  S  S S S  S  S S  S S  S S   
---------------------------------------------|
---------------------------------------------|
---------------------------------------------|
--0--0--0--0--0--0------0--0----0--L-0--L-0--|
--0--0--0--0--0--0------0--0----0--L-0--L-0--|
--0--0--0--0--0--0------0--0----0--L-0--L-0--|


    PM PM PM PM PM     PM PM PM PM   PM   PM  
  S S  S  S  S  S  S S S  S  S  S  S S  S S   
---------------------------------------------|
---------------------------------------------|
---------------------------------------------|
--L-0--0--0--0--0------0--0--0--0--L-0--L-0--|
--L-0--0--0--0--0------0--0--0--0--L-0--L-0--|
--L-0--0--0--0--0------0--0--0--0--L-0--L-0--|


    PM PM PM PM PM     PM PM PM PM   PM   PM  
  S S  S  S  S  S  S S S  S  S  S  S S  S S   
---------------------------------------------|
---------------------------------------------|
---------------------------------------------|
--L-0--0--0--0--0------0--0--0--0--L-0--L-0--|
--L-0--0--0--0--0------0--0--0--0--L-0--L-0--|
--L-0--0--0--0--0------0--0--0--0--L-0--L-0--|


    PM   PM PM PM PM PM PM PM PM PM PM PM PM PM  
  S S  S S  S  S  S  S  S  S  S  S  S  S  S  S   
------------------------------------------------|
------------------------------------------------|
------------------------------------------------|
--L-0--L-0--0--0--0--0--0--0--0--0--0--0--0--0--|
--L-0--L-0--0--0--0--0--0--0--0--0--0--0--0--0--|
--L-0--L-0--0--0--0--0--0--0--0--0--0--0--0--0--|


      PM PM PM PM     PM PM   PM   PM   PM  
  S S S  S  S  S  S S S  S  S S  S S  S S   
-------------------------------------------|
-------------------------------------------|
-------------------------------------------|
------0--0--0--0------0--0----0--L-0--L-0--|
------0--0--0--0------0--0----0--L-0--L-0--|
------0--0--0--0------0--0----0--L-0--L-0--|


    PM PM PM PM PM     PM PM PM PM   PM   PM  
  S S  S  S  S  S  S S S  S  S  S  S S  S S   
---------------------------------------------|
---------------------------------------------|
---------------------------------------------|
--L-0--0--0--0--0------0--0--0--0--L-0--L-0--|
--L-0--0--0--0--0------0--0--0--0--L-0--L-0--|
--L-0--0--0--0--0------0--0--0--0--L-0--L-0--|


    PM PM PM PM PM     PM PM PM PM   PM   PM  
  S S  S  S  S  S  S S S  S  S  S  S S  S S   
---------------------------------------------|
---------------------------------------------|
---------------------------------------------|
--L-0--0--0--0--0------0--0--0--0--L-0--L-0--|
--L-0--0--0--0--0------0--0--0--0--L-0--L-0--|
--L-0--0--0--0--0------0--0--0--0--L-0--L-0--|


    PM   PM PM PM PM PM PM PM PM PM PM PM PM PM                  PM PM PM  
  S S  S S  S  S  S  S  S  S  S  S  S  S  S  S     H        Q    S  S  E   
------------------------------------------------|-------------------------|
------------------------------------------------|-------------------------|
------------------------------------------------|-------------------------|
--L-0--L-0--0--0--0--0--0--0--0--0--0--0--0--0--|----------------0--0--0--|
--L-0--L-0--0--0--0--0--0--0--0--0--0--0--0--0--|----------------0--0--0--|
--L-0--L-0--0--0--0--0--0--0--0--0--0--0--0--0--|----------------0--0--0--|


                          PM PM PM PM     PM PM PM PM     PM PM  
  W                   S S S  S  S  S  S S S  S  S  S  S S S  S   
-------------------|--------------------------------------------|
-------------------|--------------------------------------------|
-------------------|--------------------------------------------|
-------------------|------0--0--0--0------0--0--0--0------0--0--|
-------------------|------0--0--0--0------0--0--0--0------0--0--|
-------------------|------0--0--0--0------0--0--0--0------0--0--|


  PM PM     PM PM PM PM     PM PM PM PM PM PM  
  S  S  S S S  S  S  S  S S S  S  S  S  S  S   
----------------------------------------------|
----------------------------------------------|
----------------------------------------------|
--0--0------0--0--0--0------0--0--0--0--0--0--|
--0--0------0--0--0--0------0--0--0--0--0--0--|
--0--0------0--0--0--0------0--0--0--0--0--0--|


      PM PM PM PM     PM PM PM PM     PM PM  
  S S S  S  S  S  S S S  S  S  S  S S S  S   
--------------------------------------------|
--------------------------------------------|
--------------------------------------------|
------0--0--0--0------0--0--0--0------0--0--|
------0--0--0--0------0--0--0--0------0--0--|
------0--0--0--0------0--0--0--0------0--0--|


  PM PM     PM PM PM PM                                 
  S  S  S S S  S  S  S  E   S E  S E     E   S E  S E   
--------------------------------------|----------------|
--------------------------------------|----------------|
--------------------------------------|----------------|
--0--0------0--0--0--0----------------|----------------|
--0--0------0--0--0--0----------------|----------------|
--0--0------0--0--0--0--5b--L-5--L-3--|--5b--L-5--L-3--|


      PM PM PM PM     PM PM PM PM     PM PM  
  S S S  S  S  S  S S S  S  S  S  S S S  S   
--------------------------------------------|
--------------------------------------------|
--------------------------------------------|
------0--0--0--0--L-L-0--0--0--0--L-L-0--0--|
------0--0--0--0--L-L-0--0--0--0--L-L-0--0--|
--L-L-0--0--0--0--L-L-0--0--0--0--L-L-0--0--|


  PM PM     PM PM PM PM                  
  S  S  S S S  S  S  S  S S S S S S S S  
----------------------------------------|
----------------------------------------|
----------------------------------------|
--0--0--L-L-0--0--0--0--L-L-L-L-L-L-L-L-|
--0--0--L-L-0--0--0--0--L-L-L-L-L-L-L-L-|
--0--0--L-L-0--0--0--0--L-L-L-L-L-L-L-L-|


      PM PM PM PM     PM PM PM PM     PM PM  
  S S S  S  S  S  S S S  S  S  S  S S S  S   
--------------------------------------------|
--------------------------------------------|
--------------------------------------------|
--L-L-0--0--0--0--L-L-0--0--0--0--L-L-0--0--|
--L-L-0--0--0--0--L-L-0--0--0--0--L-L-0--0--|
--L-L-0--0--0--0--L-L-0--0--0--0--L-L-0--0--|


  PM PM     PM PM PM PM                
  S  S  S S S  S  S  S  E   S E  S E   
--------------------------------------|
--------------------------------------|
--------------------------------------|
--0--0--L-L-0--0--0--0----------------|
--0--0--L-L-0--0--0--0----------------|
--0--0--L-L-0--0--0--0--5b--L-5--L-3--|


      PM PM PM PM     PM PM PM PM     PM PM  
  S S S  S  S  S  S S S  S  S  S  S S S  S   
--------------------------------------------|
--------------------------------------------|
--------------------------------------------|
------0--0--0--0--L-L-0--0--0--0--L-L-0--0--|
------0--0--0--0--L-L-0--0--0--0--L-L-0--0--|
--L-L-0--0--0--0--L-L-0--0--0--0--L-L-0--0--|


  PM PM     PM PM PM PM                  
  S  S  S S S  S  S  S  S S S S S S S S  
----------------------------------------|
----------------------------------------|
----------------------------------------|
--0--0--L-L-0--0--0--0--L-L-L-L-L-L-L-L-|
--0--0--L-L-0--0--0--0--L-L-L-L-L-L-L-L-|
--0--0--L-L-0--0--0--0--L-L-L-L-L-L-L-L-|


      PM PM PM PM     PM PM PM PM     PM PM  
  S S S  S  S  S  S S S  S  S  S  S S S  S   
--------------------------------------------|
--------------------------------------------|
--------------------------------------------|
--L-L-0--0--0--0--L-L-0--0--0--0--L-L-0--0--|
--L-L-0--0--0--0--L-L-0--0--0--0--L-L-0--0--|
--L-L-0--0--0--0--L-L-0--0--0--0--L-L-0--0--|


  PM PM     PM PM PM PM                                 
  S  S  S S S  S  S  S  E   S E  S E     E   S E  S E   
--------------------------------------|----------------|
--------------------------------------|----------------|
--------------------------------------|----------------|
--0--0--L-L-0--0--0--0----------------|----------------|
--0--0--L-L-0--0--0--0----------------|----------------|
--0--0--L-L-0--0--0--0--5b--L-5--L-3--|--5b--L-5--L-3--|


  E  E  E  E  E  E  E  E     E  E  E  E  E  E  E  E   
--5--5--5--5--5--5--5--5--|--5--5--5--5--5--5--5--5--|
--3--3--3--3--3--3--3--3--|--3--3--3--3--3--3--3--3--|
--2--2--2--2--2--2--2--2--|--2--2--2--2--2--2--2--2--|
--0--0--0--0--0--0--0--0--|--0--0--0--0--0--0--0--0--|
--0--0--0--0--0--0--0--0--|--0--0--0--0--0--0--0--0--|
--0--0--0--0--0--0--0--0--|--0--0--0--0--0--0--0--0--|


  E  E  E  E  E  E  E  E     E  E  E  E  E  E  E  E   
--5--5--5--5--5--5--5--5--|--5--5--5--5--5--5--------|
--3--3--3--3--3--3--3--3--|--3--3--3--3--3--3--------|
--2--2--2--2--2--2--2--2--|--2--2--2--2--2--2--------|
--0--0--0--0--0--0--0--0--|--0--0--0--0--0--0--------|
--0--0--0--0--0--0--0--0--|--0--0--0--0--0--0--------|
--0--0--0--0--0--0--0--0--|--0--0--0--0--0--0--------|


   E   Q     E   Q     E   E     E   E   Q     E   E   Q     
------------------------------|-----------------------------|
--15--18----15--17----15--18--|--L--15--17----17--18--17----|
------------------------------|-----------------------------|
------------------------------|-----------------------------|
------------------------------|-----------------------------|
------------------------------|-----------------------------|


   E   Q     E   Q     E   E     E   E   E   E   E   E   E   E   
------17--------15------------|-----------------17--15----------|
--15--------15--------15--18--|--L--15--17--18----------18--17--|
------------------------------|---------------------------------|
------------------------------|---------------------------------|
------------------------------|---------------------------------|
------------------------------|---------------------------------|


  E  E  E  E  E  E  E  E     E  E  E  E  E  E  E  E   
--------------------------|--------------------------|
--------------------------|--------------------------|
--------------------------|--------------------------|
--0--0--0--0--0--0--0--0--|--0--0--0--0--0--0--0--0--|
--0--0--0--0--0--0--0--0--|--0--0--0--0--0--0--0--0--|
--0--0--0--0--0--0--0--0--|--0--0--0--0--0--0--0--0--|


  E  E  E  E  E  E  E  E     E  E  E  E  E  E  E  E   
--------------------------|--------------------------|
--------------------------|--------------------------|
--------------------------|--------------------------|
--0--0--0--0--0--0--0--0--|--0--0--0--0--0--0--0--0--|
--0--0--0--0--0--0--0--0--|--0--0--0--0--0--0--0--0--|
--0--0--0--0--0--0--0--0--|--0--0--0--0--0--0--0--0--|


  E  E  E  E  E  E  E  E     E  E  E  E  E  E  E  E   
--------------------------|--------------------------|
--------------------------|--------------------------|
--3--3--3--3--3--3--3--3--|--3--3--3--3--3--3--3--3--|
--3--3--3--3--3--3--3--3--|--3--3--3--3--3--3--3--3--|
--1--1--1--1--1--1--1--1--|--1--1--1--1--1--1--1--1--|
--------------------------|--------------------------|


  E  E  E  E  E  E  E  E     E  E  E  E  E  E  E  E   
--------------------------|--------------------------|
--------------------------|--------------------------|
--5--5--5--5--5--5--5--5--|--5--5--5--5--5--5--5--5--|
--5--5--5--5--5--5--5--5--|--5--5--5--5--5--5--5--5--|
--3--3--3--3--3--3--3--3--|--3--3--3--3--3--3--3--3--|
--------------------------|--------------------------|


  E  E  E  E  E  E  E  E     E  E  E  E  E  E  E  E   
--------------------------|--------------------------|
--------------------------|--------------------------|
--------------------------|--------------------------|
--0--0--0--0--0--0--0--0--|--0--0--0--0--0--0--0--0--|
--0--0--0--0--0--0--0--0--|--0--0--0--0--0--0--0--0--|
--0--0--0--0--0--0--0--0--|--0--0--0--0--0--0--0--0--|


  E  E  E  E  E  E  E  E     E  E  E  E  E  E  E  E   
--------------------------|--------------------------|
--------------------------|--------------------------|
--------------------------|--------------------------|
--0--0--0--0--0--0--0--0--|--0--0--0--0--0--0--0--0--|
--0--0--0--0--0--0--0--0--|--0--0--0--0--0--0--0--0--|
--0--0--0--0--0--0--0--0--|--0--0--0--0--0--0--0--0--|


  E  E  E  E  E  E  E  E     E  E  E  E  E  E  E  E   
--------------------------|--------------------------|
--------------------------|--------------------------|
--3--3--3--3--3--3--3--3--|--3--3--3--3--3--3--3--3--|
--3--3--3--3--3--3--3--3--|--3--3--3--3--3--3--3--3--|
--1--1--1--1--1--1--1--1--|--1--1--1--1--1--1--1--1--|
--------------------------|--------------------------|


  E  E  E  E  E  E  E  E     E  E  E  E  E  E  E  E   
--------------------------|--------------------------|
--------------------------|--------------------------|
--5--5--5--5--5--5--5--5--|--5--5--5--5--5--5--5--5--|
--5--5--5--5--5--5--5--5--|--5--5--5--5--5--5--5--5--|
--3--3--3--3--3--3--3--3--|--3--3--3--3--3--3--3--3--|
--------------------------|--------------------------|


  E  E  E  E  E  E  E  E     E  E  E  E  E  E  E  E   
--------------------------|--------------------------|
--------------------------|--------------------------|
--------------------------|--------------------------|
--0--0--0--0--0--0--0--0--|--0--0--0--0--0--0--0--0--|
--0--0--0--0--0--0--0--0--|--0--0--0--0--0--0--0--0--|
--0--0--0--0--0--0--0--0--|--0--0--0--0--0--0--0--0--|


  E  E  E  E  E  E  E  E     E  E  E  E  E  E  E  E   
--------------------------|--------------------------|
--------------------------|--------------------------|
--------------------------|--------------------------|
--0--0--0--0--0--0--0--0--|--0--0--0--0--0--0--0--0--|
--0--0--0--0--0--0--0--0--|--0--0--0--0--0--0--0--0--|
--0--0--0--0--0--0--0--0--|--0--0--0--0--0--0--0--0--|


  E  E  E  E  E  E  E  E     E  E  E  E  E  E  E  E   
--------------------------|--------------------------|
--------------------------|--------------------------|
--3--3--3--3--3--3--3--3--|--3--3--3--3--3--3--3--3--|
--3--3--3--3--3--3--3--3--|--3--3--3--3--3--3--3--3--|
--1--1--1--1--1--1--1--1--|--1--1--1--1--1--1--1--1--|
--------------------------|--------------------------|


  E  E  E  E  E  E  E  E     E  E  E  E  E  E  E  E   
--------------------------|--------------------------|
--------------------------|--------------------------|
--5--5--5--5--5--5--5--5--|--5--5--5--5--5--5--5--5--|
--5--5--5--5--5--5--5--5--|--5--5--5--5--5--5--5--5--|
--3--3--3--3--3--3--3--3--|--3--3--3--3--3--3--3--3--|
--------------------------|--------------------------|


  E  E  E  E  E  E  E  E     E  E  E  E  E  E  E  E   
--------------------------|--------------------------|
--------------------------|--------------------------|
--------------------------|--------------------------|
--0--0--0--0--0--0--0--0--|--0--0--0--0--0--0--0--0--|
--0--0--0--0--0--0--0--0--|--0--0--0--0--0--0--0--0--|
--0--0--0--0--0--0--0--0--|--0--0--0--0--0--0--0--0--|


  E  E  E  E  E  E  E  E     E  E  E  E  E  E  E  E                           
--------------------------|--------------------------|-----|-----|-----|-----|
--------------------------|--------------------------|-----|-----|-----|-----|
--------------------------|--------------------------|-----|-----|-----|-----|
--0--0--0--0--0--0--0--0--|--0--0--0--0--0--0--0--0--|-----|-----|-----|-----|
--0--0--0--0--0--0--0--0--|--0--0--0--0--0--0--0--0--|-----|-----|-----|-----|
--0--0--0--0--0--0--0--0--|--0--0--0--0--0--0--0--0--|-----|-----|-----|-----|


                                      PM      PM PM PM PM PM PM     
                                      Q    E  E  S  S  S  S  E  E   
-----|-----|-----|-----|-----|-----|-------------------------------|
-----|-----|-----|-----|-----|-----|-------------------------------|
-----|-----|-----|-----|-----|-----|-------------------------------|
-----|-----|-----|-----|-----|-----|--0----L--0--0--0--0--0--0--L--|
-----|-----|-----|-----|-----|-----|--0----L--0--0--0--0--0--0--L--|
-----|-----|-----|-----|-----|-----|--0----L--0--0--0--0--0--0--L--|


     PM   PM PM PM PM PM PM       PM      PM PM PM PM PM PM     
  E  Q    E  S  S  S  S  E  E     Q    E  E  S  S  S  S  E  E   
-------------------------------|-------------------------------|
-------------------------------|-------------------------------|
-------------------------------|-------------------------------|
--L--0----0--0--0--0--0--0--L--|--0----L--0--0--0--0--0--0--L--|
--L--0----0--0--0--0--0--0--L--|--0----L--0--0--0--0--0--0--L--|
--L--0----0--0--0--0--0--0--L--|--0----L--0--0--0--0--0--0--L--|


                               PH                PM PM PM PM PM     
   |--3--|                                                          
   S  S  S E  E  E  E  E  E    E      Q    E  E  S  S  S  S  E  E   
-----------------------------------|-------------------------------|
-----------------------------------|-------------------------------|
-----------------------------------|-------------------------------|
--10-12-10-0--7--------7--5--<>6b--|-------------0--0--0--0--0--L--|
-----------------8--5--------------|-------------0--0--0--0--0--L--|
-----------------------------------|-------------0--0--0--0--0--L--|


     PM   PM PM PM PM PM PM       PM      PM PM PM PM PM PM     
  E  Q    E  S  S  S  S  E  E     Q    E  E  S  S  S  S  E  E   
-------------------------------|-------------------------------|
-------------------------------|-------------------------------|
-------------------------------|-------------------------------|
--L--0----0--0--0--0--0--0--L--|--0----L--0--0--0--0--0--0--L--|
--L--0----0--0--0--0--0--0--L--|--0----L--0--0--0--0--0--0--L--|
--L--0----0--0--0--0--0--0--L--|--0----L--0--0--0--0--0--0--L--|


                          PM PM                       
   |--3--|                                            
   S  S  S E  E  E  E  E  E  E     W                  
--------------------------------|-------------------||
--------------------------------|-------------------||
--------------------------------|-------------------||
--10-12-10-0--7--------7--0--0--|-------------------||
-----------------8--5-----0--0--|-------------------||
--------------------------0--0--|-------------------||


Guitar 2

      S  S  S  S  S   S   S  S  S  S  S  S  S  S   S    S   
D||--------------------------------------------------------|
A||--15-15-15-15-15-(15)-15-15-15-15-15-15-15-15-(15)-(15)-|
F||--------------------------------------------------------|
C||--------------------------------------------------------|
G||--------------------------------------------------------|
C||--------------------------------------------------------|


   S  S  S  S  S   S   S  S  S  S  S  S  S  S   S    S   
--------------------------------------------------------|
--10-10-10-10-10-(10)-10-10-10-10-10-10-10-10-(10)-(10)-|
--------------------------------------------------------|
--------------------------------------------------------|
--------------------------------------------------------|
--------------------------------------------------------|


   S  S  S  S  S   S   S  S  S  S  S  S  S  S   S    S   
--------------------------------------------------------|
--11-11-11-11-11-(11)-11-11-11-11-11-11-11-11-(11)-(11)-|
--------------------------------------------------------|
--------------------------------------------------------|
--------------------------------------------------------|
--------------------------------------------------------|


   S  S  S  S  S   S   S  S  S  S  S  S  S  S   S    S   
--------------------------------------------------------|
--------------------------------------------------------|
--12-12-12-12-12-(12)-12-12-12-12-12-12-12-12-(12)-(12)-|
--------------------------------------------------------|
--------------------------------------------------------|
--------------------------------------------------------|


   S  S  S  S  S   S   S  S  S  S  S  S  S  S   S    S   
--------------------------------------------------------|
--15-15-15-15-15-(15)-15-15-15-15-15-15-15-15-(15)-(15)-|
--------------------------------------------------------|
--------------------------------------------------------|
--------------------------------------------------------|
--------------------------------------------------------|


   S  S  S  S  S   S   S  S  S  S  S  S  S  S   S    S   
--------------------------------------------------------|
--10-10-10-10-10-(10)-10-10-10-10-10-10-10-10-(10)-(10)-|
--------------------------------------------------------|
--------------------------------------------------------|
--------------------------------------------------------|
--------------------------------------------------------|


   S  S  S  S  S   S   S  S  S  S  S  S  S  S   S    S   
--------------------------------------------------------|
--11-11-11-11-11-(11)-11-11-11-11-11-11-11-11-(11)-(11)-|
--------------------------------------------------------|
--------------------------------------------------------|
--------------------------------------------------------|
--------------------------------------------------------|


   S  S  S  S  S   S   S  S  S  S  S  S  S  S   S    S   
--------------------------------------------------------|
--------------------------------------------------------|
--12-12-12-12-12-(12)-12-12-12-12-12-12-12-12-(12)-(12)-|
--------------------------------------------------------|
--------------------------------------------------------|
--------------------------------------------------------|


   S  S  S  S  S  S  S  S  S  S  S  S  S  S  S  S  
--22-22-22-22-22-22-22-22-22-22-22-22-22-22-22-22-|
--------------------------------------------------|
--------------------------------------------------|
--------------------------------------------------|
--------------------------------------------------|
--------------------------------------------------|


   S  S  S  S  S  S  S  S  S  S  S  S  S  S  S  S  
--------------------------------------------------|
--22-22-22-22-22-22-22-22-22-22-22-22-22-22-22-22-|
--------------------------------------------------|
--------------------------------------------------|
--------------------------------------------------|
--------------------------------------------------|


   S  S  S  S  S  S  S  S  S  S  S  S  S  S  S  S  
--------------------------------------------------|
--23-23-23-23-23-23-23-23-23-23-23-23-23-23-23-23-|
--------------------------------------------------|
--------------------------------------------------|
--------------------------------------------------|
--------------------------------------------------|


   S  S  S  S  S  S  S  S  S  S  S  S  S  S  S  S  
--------------------------------------------------|
--20-20-20-20-20-20-20-20-20-20-20-20-20-20-20-20-|
--------------------------------------------------|
--------------------------------------------------|
--------------------------------------------------|
--------------------------------------------------|


   S  S  S  S  S  S  S  S  S  S  S  S  S  S  S  S  
--22-22-22-22-22-22-22-22-22-22-22-22-22-22-22-22-|
--------------------------------------------------|
--------------------------------------------------|
--------------------------------------------------|
--------------------------------------------------|
--------------------------------------------------|


   S  S  S  S  S  S  S  S  S  S  S  S  S  S  S  S  
--------------------------------------------------|
--22-22-22-22-22-22-22-22-22-22-22-22-22-22-22-22-|
--------------------------------------------------|
--------------------------------------------------|
--------------------------------------------------|
--------------------------------------------------|


   S  S  S  S  S  S  S  S  S  S  S  S  S  S  S  S  
--------------------------------------------------|
--23-23-23-23-23-23-23-23-23-23-23-23-23-23-23-23-|
--------------------------------------------------|
--------------------------------------------------|
--------------------------------------------------|
--------------------------------------------------|


                                                        PM PM    PM PM    PM  
   S  S  S  S  S  S  S  S  S  S  S  S  S  S  S  S    E  E  E  E  E  E  E  E   
--------------------------------------------------|--------------------------|
--20-20-20-20-20-20-20-20-20-20-20-20-20-20-20-20-|--------------------------|
--------------------------------------------------|--------------------------|
--------------------------------------------------|--------------------------|
--------------------------------------------------|--------------------------|
--------------------------------------------------|--0--0--0--3--0--0--0--0--|


  PM    PM PM    PM    PM       PM PM    PM PM    PM  
  E  E  E  E  E  E  E  E     E  E  E  E  E  E  E  E   
--------------------------|--------------------------|
--------------------------|--------------------------|
--------------------------|--------------------------|
--------------------------|--------------------------|
-----1--------------7-----|--------------------------|
--0-----0--0--0--0-----0--|--0--0--0--3--0--0--0--0--|


  PM    PM PM    PM    PM       PM PM    PM PM    PM  
  E  E  E  E  E  E  E  E     E  E  E  E  E  E  E  E   
--------------------------|--------------------------|
--------------------------|--------------------------|
--------------------------|--------------------------|
--------------------5-----|--------------------------|
-----1--------------------|--------------------------|
--0-----0--0--0--0-----0--|--0--0--0--3--0--0--0--0--|


  PM    PM PM    PM    PM       PM PM    PM PM    PM  
  E  E  E  E  E  E  E  E     E  E  E  E  E  E  E  E   
--------------------------|--------------------------|
--------------------------|--------------------------|
--------------------------|--------------------------|
--------------------------|--------------------------|
-----1--------------7-----|--------------------------|
--0-----0--0--0--0-----0--|--0--0--0--3--0--0--0--0--|


  PM    PM PM    PM    PM                             
  E  E  E  E  E  E  E  E     E  E  E  E  E  E  E  E   
--------------------------|--------------------------|
--------------------------|--------------------------|
--------------------------|--------------7--7--7--7--|
--------------------5-----|--------------7--7--7--7--|
-----1--------------------|--------------0--0--0--0--|
--0-----0--0--0--0-----0--|--------------0--0--0--0--|


  E  E  E  E  E  E  E  E      E   E   E   E   E   E   E   E   
--------------------------|----------------------------------|
--------------------------|--10--10--10--10--10--10--10--10--|
--7--7--7--7--7--7--7--7--|---7---7---7---7---7---7---7---7--|
--7--7--7--7--7--7--7--7--|---7---7---7---7---7---7---7---7--|
--0--0--0--0--0--0--0--0--|----------------------------------|
--0--0--0--0--0--0--0--0--|----------------------------------|


   E   E   E   E   E   E   E   E     E  E  E  E  E  E  E  E   
----------------------------------|--------------------------|
--10--10--10--10--10--10--10--10--|--------------------------|
---7---7---7---7---7---7---7---7--|--9-----9-----9-----9-----|
---7---7---7---7---7---7---7---7--|-----7-----7-----7-----7--|
----------------------------------|--------------------------|
----------------------------------|--------------------------|


  E  E  E  E  E  E  E  E      E   E   E   E   E   E   E   E   
--------------------------|----------------------------------|
--------------------------|--10--10--10--10--10--10--10--10--|
--9-----9-----9-----9-----|--10--10--10--10--10--10--10--10--|
-----7-----7-----7-----7--|---7---7---7---7---7---7---7---7--|
--------------------------|----------------------------------|
--------------------------|----------------------------------|


   E   E   E   E   E   E   E   E     E  E  E  E  E  E  E  E   
----------------------------------|--------------------------|
--10--10--10--10--10--10--10--10--|--------------------------|
--10--10--10--10--10--10--10--10--|--9-----9-----9-----9-----|
---7---7---7---7---7---7---7---7--|-----7-----7-----7-----7--|
----------------------------------|--------------------------|
----------------------------------|--------------------------|


  E  E  E  E  E  E  E  E      E   E   E   E   E   E   E   E   
--------------------------|----------------------------------|
--------------------------|--10--10--10--10--10--10--10--10--|
--9-----9-----9-----9-----|---7---7---7---7---7---7---7---7--|
-----7-----7-----7-----7--|---7---7---7---7---7---7---7---7--|
--------------------------|----------------------------------|
--------------------------|----------------------------------|


   E   E   E   E   E   E   E   E     E  E  E  E  E  E  E  E   
----------------------------------|--------------------------|
--10--10--10--10--10--10--10--10--|--------------------------|
---7---7---7---7---7---7---7---7--|--9-----9-----9-----9-----|
---7---7---7---7---7---7---7---7--|-----7-----7-----7-----7--|
----------------------------------|--------------------------|
----------------------------------|--------------------------|


  E  E  E  E  E  E  E  E     E  E  E  E  E  E  E  E   
--------------------------|--------------------------|
--------------------------|--------------------------|
--9-----9-----9-----9-----|--------------------------|
-----7-----7-----7-----7--|--7--3--------------3--2--|
--------------------------|--------------1--0--------|
--------------------------|--------------------------|


  E  E  E  E  E  E  E  E     E  E  E  E  E  E  E  E   
--------------------------|--------------------------|
--------------------------|--------------------------|
--------------------------|--------------------------|
--------------5--2--------|--7--3--------------3--2--|
--------1--0--------3--0--|--------------1--0--------|
--------------------------|--------------------------|


  E  E  E  E  E  E  E  E     W                   W                 
--------------------------|-------------------|-------------------|
--------------------------|--6----------------|--L----------------|
--------------------------|--x----------------|-------------------|
--------------5-----------|--3----------------|--L----------------|
--------1--0--------------|-------------------|-------------------|
--------------------------|-------------------|-------------------|


  W                   W                    E   E   E   E   E   E   E   E   
-------------------|-------------------|--------------12--13--12----------|
--8----------------|-------------------|----------15--------------15------|
--x----------------|--5----------------|--14--12----------------------12--|
--5----------------|--x----------------|----------------------------------|
-------------------|--3----------------|----------------------------------|
-------------------|-------------------|----------------------------------|


   E   E   E   E   E   E   E   E      E   E   E   E   E   E   E   E   
--------------12--13--12----------|----------------------------------|
----------15--------------15------|--17--13----------------------13--|
--14--12----------------------12--|----------14--------------14------|
----------------------------------|--------------15--14--15----------|
----------------------------------|----------------------------------|
----------------------------------|----------------------------------|


   E   E   E   E   E   E   E   E      E   E   E   E   E   E   E   E   
----------------------------------|--13--10--------------------------|
--17--13----------------------13--|----------10----------------------|
----------14--------------14------|--------------10--------------10--|
--------------15--14--15----------|------------------12--10--12------|
----------------------------------|----------------------------------|
----------------------------------|----------------------------------|


   E   E   E   E   E   E   E   E      E   E   E   E   E   E   E   E   
--13--10--------------------------|----------------------------------|
----------10----------------------|----------------------------------|
--------------10--------------10--|--14--10--------------------------|
------------------12--10--12------|----------12--------------10--12--|
----------------------------------|--------------12--10--12----------|
----------------------------------|----------------------------------|


   E   E   E   E   E   E   E   E      E   E   E   E   E   E   E   E   
----------------------------------|----------------------------------|
----------------------------------|--15--13--------------------------|
--17--12------------------12--14--|----------14----------------------|
----------14------12--14----------|--------------15--14--12--14--15--|
--------------15------------------|----------------------------------|
----------------------------------|----------------------------------|


   E   E   E   E   E   E   E   E      E   E   E   E   E   E   E   E   
----------------------------------|----------------------------------|
------------------------------13--|--17--13--------------------------|
--14----------------------14------|----------14----------------------|
------15--14--12--14--15----------|--------------15--14--12--14--15--|
----------------------------------|----------------------------------|
----------------------------------|----------------------------------|


   E   E   E   E   E   E   E   E      E   E   E   E   E   E   E   E   
----------------------------------|----------------------------------|
------------------------------13--|--18--13--------------------------|
--14----------------------14------|----------14----------------------|
------15--14--12--14--15----------|--------------15--14--12--14--15--|
----------------------------------|----------------------------------|
----------------------------------|----------------------------------|


   E   E   E   E   E   E   E   E      E   E   E   E   E   E   E   E   
----------------------------------|----------------------------------|
------------------------------13--|----------------------------------|
--14----------------------14------|--14--10--------------------------|
------15--14--12--14--15----------|----------12--------------10--12--|
----------------------------------|--------------12--10--12----------|
----------------------------------|----------------------------------|


   E   E   E   E   E   E   E   E   
----------------------------------|
----------------------------------|
--17--12------------------12--14--|
----------14------12--14----------|
--------------15------------------|
----------------------------------|


   S  S  S  S  S  S  S  S  S  S  S  S  S  S  S  S  
--22-22-22-22-22-22-22-22-22-22-22-22-22-22-22-22-|
--------------------------------------------------|
--------------------------------------------------|
--------------------------------------------------|
--------------------------------------------------|
--------------------------------------------------|


   S  S  S  S  S  S  S  S  S  S  S  S  S  S  S  S  
--------------------------------------------------|
--22-22-22-22-22-22-22-22-22-22-22-22-22-22-22-22-|
--------------------------------------------------|
--------------------------------------------------|
--------------------------------------------------|
--------------------------------------------------|


   S  S  S  S  S  S  S  S  S  S  S  S  S  S  S  S  
--------------------------------------------------|
--23-23-23-23-23-23-23-23-23-23-23-23-23-23-23-23-|
--------------------------------------------------|
--------------------------------------------------|
--------------------------------------------------|
--------------------------------------------------|


   S  S  S  S  S  S  S  S  S  S  S  S  S  S  S  S  
--------------------------------------------------|
--20-20-20-20-20-20-20-20-20-20-20-20-20-20-20-20-|
--------------------------------------------------|
--------------------------------------------------|
--------------------------------------------------|
--------------------------------------------------|


   S  S  S  S  S  S  S  S  S  S  S  S  S  S  S  S  
--22-22-22-22-22-22-22-22-22-22-22-22-22-22-22-22-|
--------------------------------------------------|
--------------------------------------------------|
--------------------------------------------------|
--------------------------------------------------|
--------------------------------------------------|


   S  S  S  S  S  S  S  S  S  S  S  S  S  S  S  S  
--------------------------------------------------|
--22-22-22-22-22-22-22-22-22-22-22-22-22-22-22-22-|
--------------------------------------------------|
--------------------------------------------------|
--------------------------------------------------|
--------------------------------------------------|


   S  S  S  S  S  S  S  S  S  S  S  S  S  S  S  S  
--------------------------------------------------|
--23-23-23-23-23-23-23-23-23-23-23-23-23-23-23-23-|
--------------------------------------------------|
--------------------------------------------------|
--------------------------------------------------|
--------------------------------------------------|


                                          PM PM    PM PM    PM  
   S  S  S  S  S  S  S  S H            E  E  E  E  E  E  E  E   
------------------------------------|--------------------------|
--20-20-20-20-20-20-20-20-0/--------|--------------------------|
------------------------------------|--------------------------|
------------------------------------|--------------------------|
------------------------------------|--------------------------|
------------------------------------|--0--0--0--3--0--0--0--0--|


  PM    PM PM    PM    PM       PM PM    PM PM    PM  
  E  E  E  E  E  E  E  E     E  E  E  E  E  E  E  E   
--------------------------|--------------------------|
--------------------------|--------------------------|
--------------------------|--------------------------|
--------------------------|--------------------------|
-----1--------------7-----|--------------------------|
--0-----0--0--0--0-----0--|--0--0--0--3--0--0--0--0--|


  PM    PM PM    PM    PM       PM PM    PM PM    PM  
  E  E  E  E  E  E  E  E     E  E  E  E  E  E  E  E   
--------------------------|--------------------------|
--------------------------|--------------------------|
--------------------------|--------------------------|
--------------------5-----|--------------------------|
-----1--------------------|--------------------------|
--0-----0--0--0--0-----0--|--0--0--0--3--0--0--0--0--|


  PM    PM PM    PM    PM       PM PM    PM PM    PM  
  E  E  E  E  E  E  E  E     E  E  E  E  E  E  E  E   
--------------------------|--------------------------|
--------------------------|--------------------------|
--------------------------|--------------------------|
--------------------------|--------------------------|
-----1--------------7-----|--------------------------|
--0-----0--0--0--0-----0--|--0--0--0--3--0--0--0--0--|


  PM    PM PM                PM PM       PM PM PM PM  
  E  E  E  E  E  E  E  E     E  E  E  E  E  E  E  E   
--------------------------|--------------------------|
--------------------------|--------------------------|
--------------------------|--------------------------|
--------------------------|--0--0--L--L--0--0--0--0--|
-----1--------------------|--0--0--L--L--0--0--0--0--|
--0-----0--0--------------|--0--0--L--L--0--0--0--0--|


        PM PM PM PM PM PM    PM PM       PM PM PM PM  
  E  E  E  E  E  E  E  E     E  E  E  E  E  E  E  E   
--------------------------|--------------------------|
--------------------------|--------------------------|
--------------------------|--------------------------|
--L--L--0--0--0--0--0--0--|--0--0--L--L--0--0--0--0--|
--L--L--0--0--0--0--0--0--|--0--0--L--L--0--0--0--0--|
--L--L--0--0--0--0--0--0--|--0--0--L--L--0--0--0--0--|


              PM PM PM PM PM    PM PM PM       PM PM PM PM  
  E  E  E  E  S  S  E  E  E     S  S  E  E  E  E  E  E  E   
-----------------------------|-----------------------------|
-----------------------------|-----------------------------|
-----------------------------|-----------------------------|
--L--L--L--L--0--0--0--0--0--|--0--0--0--------0--0--0--0--|
--L--L--L--L--0--0--0--0--0--|--0--0--0--------0--0--0--0--|
--L--L--L--L--0--0--0--0--0--|--0--0--0--------0--0--0--0--|


        PM PM PM PM PM PM    PM PM       PM PM PM PM  
  E  E  E  E  E  E  E  E     E  E  E  E  E  E  E  E   
--------------------------|--------------------------|
--------------------------|--------------------------|
--------------------------|--------------------------|
--------0--0--0--0--0--0--|--0--0--------0--0--0--0--|
--------0--0--0--0--0--0--|--0--0--------0--0--0--0--|
--------0--0--0--0--0--0--|--0--0--------0--0--0--0--|


              PM PM PM PM                                     
  E  E  E  E  E  E  E  E      E   E   E   E   E   E   E   E   
--------------------------|----------------------------------|
--------------------------|--10--10--10--10--10--10--10--10--|
--------------------------|---7---7---7---7---7---7---7---7--|
--------------0--0--0--0--|---7---7---7---7---7---7---7---7--|
--------------0--0--0--0--|----------------------------------|
--------------0--0--0--0--|----------------------------------|


   E   E   E   E   E   E   E   E     E  E  E  E  E  E  E  E   
----------------------------------|--------------------------|
--10--10--10--10--10--10--10--10--|--------------------------|
---7---7---7---7---7---7---7---7--|--9-----9-----9-----9-----|
---7---7---7---7---7---7---7---7--|-----7-----7-----7-----7--|
----------------------------------|--------------------------|
----------------------------------|--------------------------|


  E  E  E  E  E  E  E  E      E   E   E   E   E   E   E   E   
--------------------------|----------------------------------|
--------------------------|--10--10--10--10--10--10--10--10--|
--9-----9-----9-----9-----|--10--10--10--10--10--10--10--10--|
-----7-----7-----7-----7--|---7---7---7---7---7---7---7---7--|
--------------------------|----------------------------------|
--------------------------|----------------------------------|


   E   E   E   E   E   E   E   E     E  E  E  E  E  E  E  E   
----------------------------------|--------------------------|
--10--10--10--10--10--10--10--10--|--------------------------|
--10--10--10--10--10--10--10--10--|--9-----9-----9-----9-----|
---7---7---7---7---7---7---7---7--|-----7-----7-----7-----7--|
----------------------------------|--------------------------|
----------------------------------|--------------------------|


  E  E  E  E  E  E  E  E      E   E   E   E   E   E   E   E   
--------------------------|--------------12--13--12----------|
--------------------------|----------15--------------15------|
--9-----9-----9-----9-----|--14--12----------------------12--|
-----7-----7-----7-----7--|----------------------------------|
--------------------------|----------------------------------|
--------------------------|----------------------------------|


   E   E   E   E   E   E   E   E      E   E   E   E   E   E   E   E   
--------------12--13--12----------|----------------------------------|
----------15--------------15------|--17--13----------------------13--|
--14--12----------------------12--|----------14--------------14------|
----------------------------------|--------------15--14--15----------|
----------------------------------|----------------------------------|
----------------------------------|----------------------------------|


   E   E   E   E   E   E   E   E      E   E   E   E   E   E   E   E   
----------------------------------|--13--10--------------------------|
--17--13----------------------13--|----------10----------------------|
----------14--------------14------|--------------10--------------10--|
--------------15--14--15----------|------------------12--10--12------|
----------------------------------|----------------------------------|
----------------------------------|----------------------------------|


   E   E   E   E   E   E   E   E      E   E   E   E   E   E   E   E   
--13--10--------------------------|----------------------------------|
----------10----------------------|----------------------------------|
--------------10--------------10--|--14--10--------------------------|
------------------12--10--12------|----------12--------------10--12--|
----------------------------------|--------------12--10--12----------|
----------------------------------|----------------------------------|


   E   E   E   E   E   E   E   E      E   E   E   E   E   E   E   E   
----------------------------------|----------------------------------|
----------------------------------|--15--13--------------------------|
--17--12------------------12--14--|----------14----------------------|
----------14------12--14----------|--------------15--14--12--14--15--|
--------------15------------------|----------------------------------|
----------------------------------|----------------------------------|


   E   E   E   E   E   E   E   E      E   E   E   E   E   E   E   E   
----------------------------------|----------------------------------|
------------------------------13--|--17--13--------------------------|
--14----------------------14------|----------14----------------------|
------15--14--12--14--15----------|--------------15--14--12--14--15--|
----------------------------------|----------------------------------|
----------------------------------|----------------------------------|


   E   E   E   E   E   E   E   E      E   E   E   E   E   E   E   E   
----------------------------------|----------------------------------|
------------------------------13--|--18--13--------------------------|
--14----------------------14------|----------14----------------------|
------15--14--12--14--15----------|--------------15--14--12--14--15--|
----------------------------------|----------------------------------|
----------------------------------|----------------------------------|


   E   E   E   E   E   E   E   E      E   E   E   E   E   E   E   E   
----------------------------------|----------------------------------|
------------------------------13--|----------------------------------|
--14----------------------14------|--14--10--------------------------|
------15--14--12--14--15----------|----------12--------------10--12--|
----------------------------------|--------------12--10--12----------|
----------------------------------|----------------------------------|


   E   E   E   E   E   E   E   E      E   E   E   E   E   E   E   E   
----------------------------------|----------------------------------|
----------------------------------|--15--13--------------------------|
--17--12------------------12--14--|----------14----------------------|
----------14------12--14----------|--------------15--14--12--14--15--|
--------------15------------------|----------------------------------|
----------------------------------|----------------------------------|


   E   E   E   E   E   E   E   E      E   E   E   E   E   E   E   E   
----------------------------------|----------------------------------|
------------------------------13--|--17--13--------------------------|
--14----------------------14------|----------14----------------------|
------15--14--12--14--15----------|--------------15--14--12--14--15--|
----------------------------------|----------------------------------|
----------------------------------|----------------------------------|


   E   E   E   E   E   E   E   E     Q    S Q    S Q    E   
----------------------------------|------------------------|
------------------------------13--|------------------------|
--14----------------------14------|---------7----L-6----3--|
------15--14--12--14--15----------|--0----L-7----L-6----3--|
----------------------------------|--0----L-5----L-4----1--|
----------------------------------|--0----L----------------|


  H        H         
--------------------|
--------------------|
--L--------6--------|
--L--------6--------|
--L--------4--------|
--------------------|


   |--3--|  |--3--|  |--3--|  |--3--|  |--3--|  |--3--|  |--3--|  |--3--|  
   S  S  S  S  S  S  S  S  S  S  S  S  S  S  S  S  S  S  S  S  S  S  S  S  
--17-17-17-17-17-17-17-17-17-17-17-17-17-17-17-17-17-17-17-17-17-17-17-17-|
--------------------------------------------------------------------------|
--------------------------------------------------------------------------|
--------------------------------------------------------------------------|
--------------------------------------------------------------------------|
--------------------------------------------------------------------------|


   |--3--|  |--3--|  |--3--|  |--3--|  |--3--|  |--3--|  |--3--|  |--3--|  
   S  S  S  S  S  S  S  S  S  S  S  S  S  S  S  S  S  S  S  S  S  S  S  S  
--17-17-17-17-17-17-17-17-17-17-17-17-17-17-17-17-17-17-17-17-17-17-17-17-|
--------------------------------------------------------------------------|
--------------------------------------------------------------------------|
--------------------------------------------------------------------------|
--------------------------------------------------------------------------|
--------------------------------------------------------------------------|


   |--3--|  |--3--|  |--3--|  |--3--|  |--3--|  |--3--|  |--3--|  |--3--|  
   S  S  S  S  S  S  S  S  S  S  S  S  S  S  S  S  S  S  S  S  S  S  S  S  
--------------------------------------------------------------------------|
--18-18-18-18-18-18-18-18-18-18-18-18-18-18-18-18-18-18-18-18-18-18-18-18-|
--------------------------------------------------------------------------|
--------------------------------------------------------------------------|
--------------------------------------------------------------------------|
--------------------------------------------------------------------------|


   |--3--|  |--3--|  |--3--|  |--3--|  |--3--|  |--3--|  |--3--|  |--3--|  
   S  S  S  S  S  S  S  S  S  S  S  S  S  S  S  S  S  S  S  S  S  S  S  S  
--------------------------------------------------------------------------|
--18-18-18-18-18-18-18-18-18-18-18-18-18-18-18-18-18-18-18-18-18-18-18-18-|
--------------------------------------------------------------------------|
--------------------------------------------------------------------------|
--------------------------------------------------------------------------|
--------------------------------------------------------------------------|


   |--3--|  |--3--|  |--3--|  |--3--|  |--3--|  |--3--|  |--3--|  |--3--|  
   S  S  S  S  S  S  S  S  S  S  S  S  S  S  S  S  S  S  S  S  S  S  S  S  
--------------------------------------------------------------------------|
--17-17-17-17-17-17-17-17-17-17-17-17-17-17-17-17-17-17-17-17-17-17-17-17-|
--------------------------------------------------------------------------|
--------------------------------------------------------------------------|
--------------------------------------------------------------------------|
--------------------------------------------------------------------------|


   |--3--|  |--3--|  |--3--|  |--3--|  |--3--|  |--3--|  |--3--|  |--3--|  
   S  S  S  S  S  S  S  S  S  S  S  S  S  S  S  S  S  S  S  S  S  S  S  S  
--------------------------------------------------------------------------|
--17-17-17-17-17-17-17-17-17-17-17-17-17-17-17-17-17-17-17-17-17-17-17-17-|
--------------------------------------------------------------------------|
--------------------------------------------------------------------------|
--------------------------------------------------------------------------|
--------------------------------------------------------------------------|


   |--3--|  |--3--|  |--3--|  |--3--|  |--3--|  |--3--|  |--3--|  |--3--|  
   S  S  S  S  S  S  S  S  S  S  S  S  S  S  S  S  S  S  S  S  S  S  S  S  
--------------------------------------------------------------------------|
--15-15-15-15-15-15-15-15-15-15-15-15-15-15-15-15-15-15-15-15-15-15-15-15-|
--------------------------------------------------------------------------|
--------------------------------------------------------------------------|
--------------------------------------------------------------------------|
--------------------------------------------------------------------------|


   |--3--|  |--3--|  |--3--|  |--3--|  |--3--|  |--3--|  |--3--|  |--3--|  
   S  S  S  S  S  S  S  S  S  S  S  S  S  S  S  S  S  S  S  S  S  S  S  S  
--------------------------------------------------------------------------|
--15-15-15-15-15-15-15-15-15-15-15-15-15-15-15-15-15-15-15-15-15-15-15-15-|
--------------------------------------------------------------------------|
--------------------------------------------------------------------------|
--------------------------------------------------------------------------|
--------------------------------------------------------------------------|


   |--3--|  |--3--|  |--3--|  |--3--|  |--3--|  |--3--|  |--3--|  |--3--|  
   S  S  S  S  S  S  S  S  S  S  S  S  S  S  S  S  S  S  S  S  S  S  S  S  
--------------------------------------------------------------------------|
--------------------------------------------------------------------------|
--17-17-17-17-17-17-17-17-17-17-17-17-17-17-17-17-17-17-17-17-17-17-17-17-|
--------------------------------------------------------------------------|
--------------------------------------------------------------------------|
--------------------------------------------------------------------------|


   |--3--|  |--3--|  |--3--|  |--3--|  |--3--|  |--3--|  |--3--|  |--3--|  
   S  S  S  S  S  S  S  S  S  S  S  S  S  S  S  S  S  S  S  S  S  S  S  S  
--------------------------------------------------------------------------|
--------------------------------------------------------------------------|
--17-17-17-17-17-17-17-17-17-17-17-17-17-17-17-17-17-17-17-17-17-17-17-17-|
--------------------------------------------------------------------------|
--------------------------------------------------------------------------|
--------------------------------------------------------------------------|


   |--3--|  |--3--|  |--3--|  |--3--|  |--3--|  |--3--|  |--3--|  |--3--|  
   S  S  S  S  S  S  S  S  S  S  S  S  S  S  S  S  S  S  S  S  S  S  S  S  
--------------------------------------------------------------------------|
--15-15-15-15-15-15-15-15-15-15-15-15-15-15-15-15-15-15-15-15-15-15-15-15-|
--------------------------------------------------------------------------|
--------------------------------------------------------------------------|
--------------------------------------------------------------------------|
--------------------------------------------------------------------------|


   |--3--|  |--3--|  |--3--|  |--3--|  |--3--|  |--3--|  |--3--|  |--3--|  
   S  S  S  S  S  S  S  S  S  S  S  S  S  S  S  S  S  S  S  S  S  S  S  S  
--------------------------------------------------------------------------|
--15-15-15-15-15-15-15-15-15-15-15-15-15-15-15-15-15-15-15-15-15-15-15-15-|
--------------------------------------------------------------------------|
--------------------------------------------------------------------------|
--------------------------------------------------------------------------|
--------------------------------------------------------------------------|


   |--3--|  |--3--|  |--3--|  |--3--|  |--3--|  |--3--|  |--3--|  |--3--|  
   S  S  S  S  S  S  S  S  S  S  S  S  S  S  S  S  S  S  S  S  S  S  S  S  
--------------------------------------------------------------------------|
--17-17-17-17-17-17-17-17-17-17-17-17-17-17-17-17-17-17-17-17-17-17-17-17-|
--------------------------------------------------------------------------|
--------------------------------------------------------------------------|
--------------------------------------------------------------------------|
--------------------------------------------------------------------------|


   |--3--|  |--3--|  |--3--|  |--3--|  |--3--|  |--3--|  |--3--|  |--3--|  
   S  S  S  S  S  S  S  S  S  S  S  S  S  S  S  S  S  S  S  S  S  S  S  S  
--------------------------------------------------------------------------|
--17-17-17-17-17-17-17-17-17-17-17-17-17-17-17-17-17-17-17-17-17-17-17-17-|
--------------------------------------------------------------------------|
--------------------------------------------------------------------------|
--------------------------------------------------------------------------|
--------------------------------------------------------------------------|


   |--3--|  |--3--|  |--3--|  |--3--|  |--3--|  |--3--|  |--3--|  |--3--|  
   S  S  S  S  S  S  S  S  S  S  S  S  S  S  S  S  S  S  S  S  S  S  S  S  
--------------------------------------------------------------------------|
--18-18-18-18-18-18-18-18-18-18-18-18-18-18-18-18-18-18-18-18-18-18-18-18-|
--------------------------------------------------------------------------|
--------------------------------------------------------------------------|
--------------------------------------------------------------------------|
--------------------------------------------------------------------------|


   |--3--|  |--3--|  |--3--|  |--3--|  |--3--|  |--3--|  |--3--|  |--3--|  
   S  S  S  S  S  S  S  S  S  S  S  S  S  S  S  S  S  S  S  S  S  S  S  S  
--------------------------------------------------------------------------|
--20-20-20-20-20-20-20-20-20-20-20-20-20-20-20-20-20-20-20-20-20-20-20-20-|
--------------------------------------------------------------------------|
--------------------------------------------------------------------------|
--------------------------------------------------------------------------|
--------------------------------------------------------------------------|


   W                   W                 
--17----------------|--L----------------|
--------------------|-------------------|
--------------------|-------------------|
--------------------|-------------------|
--------------------|-------------------|
--------------------|-------------------|


  PM PM PM PM PM PM     PM PM   PM   PM   PM  
  S  S  S  S  S  S  S S S  S  S S  S S  S S   
---------------------------------------------|
---------------------------------------------|
---------------------------------------------|
--0--0--0--0--0--0------0--0----0--L-0--L-0--|
--0--0--0--0--0--0------0--0----0--L-0--L-0--|
--0--0--0--0--0--0------0--0----0--L-0--L-0--|


    PM PM PM PM PM     PM PM PM PM   PM   PM  
  S S  S  S  S  S  S S S  S  S  S  S S  S S   
---------------------------------------------|
---------------------------------------------|
---------------------------------------------|
--L-0--0--0--0--0------0--0--0--0--L-0--L-0--|
--L-0--0--0--0--0------0--0--0--0--L-0--L-0--|
--L-0--0--0--0--0------0--0--0--0--L-0--L-0--|


    PM PM PM PM PM     PM PM PM PM   PM   PM  
  S S  S  S  S  S  S S S  S  S  S  S S  S S   
---------------------------------------------|
---------------------------------------------|
---------------------------------------------|
--L-0--0--0--0--0------0--0--0--0--L-0--L-0--|
--L-0--0--0--0--0------0--0--0--0--L-0--L-0--|
--L-0--0--0--0--0------0--0--0--0--L-0--L-0--|


    PM   PM PM PM PM PM PM PM PM PM PM PM PM PM  
  S S  S S  S  S  S  S  S  S  S  S  S  S  S  S   
------------------------------------------------|
------------------------------------------------|
------------------------------------------------|
--L-0--L-0--0--0--0--0--0--0--0--0--0--0--0--0--|
--L-0--L-0--0--0--0--0--0--0--0--0--0--0--0--0--|
--L-0--L-0--0--0--0--0--0--0--0--0--0--0--0--0--|


      PM PM PM PM     PM PM   PM   PM   PM  
  S S S  S  S  S  S S S  S  S S  S S  S S   
-------------------------------------------|
-------------------------------------------|
-------------------------------------------|
------0--0--0--0------0--0----0--L-0--L-0--|
------0--0--0--0------0--0----0--L-0--L-0--|
------0--0--0--0------0--0----0--L-0--L-0--|


    PM PM PM PM PM     PM PM PM PM   PM   PM  
  S S  S  S  S  S  S S S  S  S  S  S S  S S   
---------------------------------------------|
---------------------------------------------|
---------------------------------------------|
--L-0--0--0--0--0------0--0--0--0--L-0--L-0--|
--L-0--0--0--0--0------0--0--0--0--L-0--L-0--|
--L-0--0--0--0--0------0--0--0--0--L-0--L-0--|


    PM PM PM PM PM     PM PM PM PM   PM   PM  
  S S  S  S  S  S  S S S  S  S  S  S S  S S   
---------------------------------------------|
---------------------------------------------|
---------------------------------------------|
--L-0--0--0--0--0------0--0--0--0--L-0--L-0--|
--L-0--0--0--0--0------0--0--0--0--L-0--L-0--|
--L-0--0--0--0--0------0--0--0--0--L-0--L-0--|


    PM   PM PM PM PM PM PM PM PM PM PM PM PM PM             PM PM PM       
  S S  S S  S  S  S  S  S  S  S  S  S  S  S  S     H        S  S  E  Q     
------------------------------------------------|-------------------------|
------------------------------------------------|-------------------------|
------------------------------------------------|-------------------------|
--L-0--L-0--0--0--0--0--0--0--0--0--0--0--0--0--|-----------0--0--0-------|
--L-0--L-0--0--0--0--0--0--0--0--0--0--0--0--0--|-----------0--0--0-------|
--L-0--L-0--0--0--0--0--0--0--0--0--0--0--0--0--|-----------0--0--0-------|


           S  S  S  S  S  S  S  S  S  S  S  S  S  S  S  S  
-------|--22-22-22-22-22-22-22-22-22-22-22-22-22-22-22-22-|
-------|--------------------------------------------------|
-------|--------------------------------------------------|
-------|--------------------------------------------------|
-------|--------------------------------------------------|
-------|--------------------------------------------------|


   S  S  S  S  S  S  S  S  S  S  S  S  S  S  S  S  
--------------------------------------------------|
--22-22-22-22-22-22-22-22-22-22-22-22-22-22-22-22-|
--------------------------------------------------|
--------------------------------------------------|
--------------------------------------------------|
--------------------------------------------------|


   S  S  S  S  S  S  S  S  S  S  S  S  S  S  S  S  
--------------------------------------------------|
--23-23-23-23-23-23-23-23-23-23-23-23-23-23-23-23-|
--------------------------------------------------|
--------------------------------------------------|
--------------------------------------------------|
--------------------------------------------------|


   S  S  S  S  S  S  S  S  S  S  S  S  S  S  S  S     S  S  S  S  S  S  S  S  
--------------------------------------------------|--------------------------|
--20-20-20-20-20-20-20-20-20-20-20-20-20-20-20-20-|--20-20-20-20-20-20-20-20-|
--------------------------------------------------|--------------------------|
--------------------------------------------------|--------------------------|
--------------------------------------------------|--------------------------|
--------------------------------------------------|--------------------------|


   S  S  S  S  S  S  S  S  S  S  S  S  S  S  S  S  
--22-22-22-22-22-22-22-22-22-22-22-22-22-22-22-22-|
--------------------------------------------------|
--------------------------------------------------|
--------------------------------------------------|
--------------------------------------------------|
--------------------------------------------------|


   S  S  S  S  S  S  S  S  S  S  S  S  S  S  S  S  
--------------------------------------------------|
--22-22-22-22-22-22-22-22-22-22-22-22-22-22-22-22-|
--------------------------------------------------|
--------------------------------------------------|
--------------------------------------------------|
--------------------------------------------------|


   S  S  S  S  S  S  S  S  S  S  S  S  S  S  S  S  
--------------------------------------------------|
--23-23-23-23-23-23-23-23-23-23-23-23-23-23-23-23-|
--------------------------------------------------|
--------------------------------------------------|
--------------------------------------------------|
--------------------------------------------------|


   S  S  S  S  S  S  S  S  S  S  S  S  S  S  S  S  
--------------------------------------------------|
--20-20-20-20-20-20-20-20-20-20-20-20-20-20-20-20-|
--------------------------------------------------|
--------------------------------------------------|
--------------------------------------------------|
--------------------------------------------------|


   S  S  S  S  S  S  S  S  S  S  S  S  S  S  S  S  
--22-22-22-22-22-22-22-22-22-22-22-22-22-22-22-22-|
--------------------------------------------------|
--------------------------------------------------|
--------------------------------------------------|
--------------------------------------------------|
--------------------------------------------------|


   S  S  S  S  S  S  S  S  S  S  S  S  S  S  S  S  
--------------------------------------------------|
--22-22-22-22-22-22-22-22-22-22-22-22-22-22-22-22-|
--------------------------------------------------|
--------------------------------------------------|
--------------------------------------------------|
--------------------------------------------------|


   S  S  S  S  S  S  S  S  S  S  S  S  S  S  S  S  
--------------------------------------------------|
--23-23-23-23-23-23-23-23-23-23-23-23-23-23-23-23-|
--------------------------------------------------|
--------------------------------------------------|
--------------------------------------------------|
--------------------------------------------------|


   S  S  S  S  S  S  S  S  S  S  S  S  S  S  S  S     S  S  S  S  S  S  S  S  
--------------------------------------------------|--------------------------|
--20-20-20-20-20-20-20-20-20-20-20-20-20-20-20-20-|--20-20-20-20-20-20-20-20-|
--------------------------------------------------|--------------------------|
--------------------------------------------------|--------------------------|
--------------------------------------------------|--------------------------|
--------------------------------------------------|--------------------------|


  E  E  E  E  E  E  E  E     E  E  E  E  E  E  E  E   
--5--5--5--5--5--5--5--5--|--5--5--5--5--5--5--5--5--|
--3--3--3--3--3--3--3--3--|--3--3--3--3--3--3--3--3--|
--2--2--2--2--2--2--2--2--|--2--2--2--2--2--2--2--2--|
--0--0--0--0--0--0--0--0--|--0--0--0--0--0--0--0--0--|
--0--0--0--0--0--0--0--0--|--0--0--0--0--0--0--0--0--|
--0--0--0--0--0--0--0--0--|--0--0--0--0--0--0--0--0--|


  E  E  E  E  E  E  E  E     E  E  E  E  E  E  E  E                       
--5--5--5--5--5--5--5--5--|--5--5--5--5--5--5--------|----|----|----|----|
--3--3--3--3--3--3--3--3--|--3--3--3--3--3--3--------|----|----|----|----|
--2--2--2--2--2--2--2--2--|--2--2--2--2--2--2--------|----|----|----|----|
--0--0--0--0--0--0--0--0--|--0--0--0--0--0--0--------|----|----|----|----|
--0--0--0--0--0--0--0--0--|--0--0--0--0--0--0--------|----|----|----|----|
--0--0--0--0--0--0--0--0--|--0--0--0--0--0--0--------|----|----|----|----|


   E   E   E   E   E   E   E   E      E   E   E   E   E   E   E   E   
--13--10--------------------------|--13--10--------------------------|
----------10----------------------|----------10----------------------|
--------------10--------------10--|--------------10--------------10--|
------------------12--10--12------|------------------12--10--12------|
----------------------------------|----------------------------------|
----------------------------------|----------------------------------|


   E   E   E   E   E   E   E   E      E   E   E   E   E   E   E   E   
----------------------------------|----------------------------------|
----------------------------------|----------------------------------|
--14--10--------------------------|--17--12------------------12--14--|
----------12--------------10--12--|----------14------12--14----------|
--------------12--10--12----------|--------------15------------------|
----------------------------------|----------------------------------|


   E   E   E   E   E   E   E   E      E   E   E   E   E   E   E   E   
----------------------------------|----------------------------------|
--15--13--------------------------|------------------------------13--|
----------14----------------------|--14----------------------14------|
--------------15--14--12--14--15--|------15--14--12--14--15----------|
----------------------------------|----------------------------------|
----------------------------------|----------------------------------|


   E   E   E   E   E   E   E   E      E   E   E   E   E   E   E   E   
----------------------------------|----------------------------------|
--17--13--------------------------|------------------------------13--|
----------14----------------------|--14----------------------14------|
--------------15--14--12--14--15--|------15--14--12--14--15----------|
----------------------------------|----------------------------------|
----------------------------------|----------------------------------|


   E   E   E   E   E   E   E   E      E   E   E   E   E   E   E   E   
----------------------------------|----------------------------------|
--18--13--------------------------|------------------------------13--|
----------14----------------------|--14----------------------14------|
--------------15--14--12--14--15--|------15--14--12--14--15----------|
----------------------------------|----------------------------------|
----------------------------------|----------------------------------|


   E   E   E   E   E   E   E   E      E   E   E   E   E   E   E   E   
----------------------------------|----------------------------------|
----------------------------------|----------------------------------|
--14--10--------------------------|--17--12------------------12--14--|
----------12--------------10--12--|----------14------12--14----------|
--------------12--10--12----------|--------------15------------------|
----------------------------------|----------------------------------|


   E   E   E   E   E   E   E   E      E   E   E   E   E   E   E   E   
--15--17--17--17--17--17--17--17--|--17------------------------------|
----------------------------------|------18--18--18--18--18--18--18--|
----------------------------------|----------------------------------|
----------------------------------|----------------------------------|
----------------------------------|----------------------------------|
----------------------------------|----------------------------------|


   E   E   E   E   E   E   E   E      E   E   E   E   E   E   E   E   
----------------------------------|------15--15--15--15--15--15--15--|
--18--17--17--17--17--17--17--17--|--17------------------------------|
----------------------------------|----------------------------------|
----------------------------------|----------------------------------|
----------------------------------|----------------------------------|
----------------------------------|----------------------------------|


   E   E   E   E   E   E   E   E      E   E   E   E   E   E   E   E   
--15--17--17--17--17--17--17--17--|--17------------------------------|
----------------------------------|------18--18--18--18--18--18--18--|
----------------------------------|----------------------------------|
----------------------------------|----------------------------------|
----------------------------------|----------------------------------|
----------------------------------|----------------------------------|


   E   E   E   E   E   E   E   E      E   E   E   E   E   E   E   E   
------20--20--20--20--20--20--20--|--20--22--22--22--22--22--22--22--|
--18------------------------------|----------------------------------|
----------------------------------|----------------------------------|
----------------------------------|----------------------------------|
----------------------------------|----------------------------------|
----------------------------------|----------------------------------|


   E   E   E   E   E   E   E   E      E   E   E   E   E   E   E   E   
--15--17--17--17--17--17--17--17--|--17------------------------------|
----------------------------------|------18--18--18--18--18--18--18--|
----------------------------------|----------------------------------|
----------------------------------|----------------------------------|
----------------------------------|----------------------------------|
----------------------------------|----------------------------------|


   E   E   E   E   E   E   E   E      E   E   E   E   E   E   E   E   
----------------------------------|----------------------------------|
--18--17--17--17--17--17--17--17--|--17------------------------------|
----------------------------------|------17--17--17--17--17--17--17--|
----------------------------------|----------------------------------|
----------------------------------|----------------------------------|
----------------------------------|----------------------------------|


   E   E   E   E   E   E   E   E      E   E   E   E   E   E   E   E   
----------------------------------|----------------------------------|
----------------------------------|----------------------------------|
--17--19--19--19--19--19--19--19--|--19--19--19--19--19--19--19--19--|
----------------------------------|----------------------------------|
----------------------------------|----------------------------------|
----------------------------------|----------------------------------|


   E   E   E   E   E   E   E   E      E   E   E   E   E   E   E   E   
----------------------------------|----------------------------------|
----------------------------------|----------------------------------|
--19--19--19--19--19--19--19--19--|--19--19--19--19--19--19--19--19--|
----------------------------------|----------------------------------|
----------------------------------|----------------------------------|
----------------------------------|----------------------------------|


   E   E   E   E   E   E   E   E      E   E   E   E   E   E   E   E   
----------------------------------|----------------------------------|
----------------------------------|----------------------------------|
--12--14--12--14--12------12--14--|--12--14--12------12--14--12--14--|
----------------------15----------|--------------15------------------|
----------------------------------|----------------------------------|
----------------------------------|----------------------------------|


   E   E   E   E   E   E   E   E      E   E   E   E   E   E   E   E   
----------------------------------|----------------------------------|
----------------------------------|----------------------------------|
--12--14--12--14--12------12--14--|--12--14--12------12--14--12--14--|
----------------------15----------|--------------15------------------|
----------------------------------|----------------------------------|
----------------------------------|----------------------------------|


   E   E   E   E   E   E   E   E      E   E   E   E   E   E   E   E   
----------------------------------|----------------------------------|
----------------------------------|----------------------------------|
--12--14--12--14--12------12--14--|--12--14--12------12--14--12--14--|
----------------------15----------|--------------15------------------|
----------------------------------|----------------------------------|
----------------------------------|----------------------------------|


   E   E   E   E   E   E   E   E      E   E   E   E   E   E   E   E   
----------------------------------|----------------------------------|
----------------------------------|----------------------------------|
--12--14--12--14--12------12--14--|--12--14--12------12--14--12--14--|
----------------------15----------|--------------15------------------|
----------------------------------|----------------------------------|
----------------------------------|----------------------------------|


   E   E   E   E   E   E   E   E      E   E   E   
----------------------------------|--------------|
----------------------------------|--------------|
--12--14--12--12--14--12--12--14--|--12--12--14--|
----------------------------------|--------------|
----------------------------------|--------------|
----------------------------------|--------------|


  PM      PM PM PM PM PM PM          PM   PM PM PM PM PM PM     
  Q    E  E  S  S  S  S  E  E     E  Q    E  S  S  S  S  E  E   
-------------------------------|-------------------------------|
-------------------------------|-------------------------------|
-------------------------------|-------------------------------|
--0----L--0--0--0--0--0--0--L--|--L--0----0--0--0--0--0--0--L--|
--0----L--0--0--0--0--0--0--L--|--L--0----0--0--0--0--0--0--L--|
--0----L--0--0--0--0--0--0--L--|--L--0----0--0--0--0--0--0--L--|


  PM      PM PM PM PM PM PM                                 PH   
                                  |-3-|                          
  Q    E  E  S  S  S  S  E  E     S S S E  E  E  E  E  E    E    
-------------------------------|--------------------------------|
-------------------------------|--------------------------------|
-------------------------------|--------------------------------|
--0----L--0--0--0--0--0--0--L--|--7-8-7-0--3--0-----3--2--<>6b--|
--0----L--0--0--0--0--0--0--L--|-----------------1--------------|
--0----L--0--0--0--0--0--0--L--|--------------------------------|


             PM PM PM PM PM          PM   PM PM PM PM PM PM     
  Q    E  E  S  S  S  S  E  E     E  Q    E  S  S  S  S  E  E   
-------------------------------|-------------------------------|
-------------------------------|-------------------------------|
-------------------------------|-------------------------------|
-------------0--0--0--0--0--L--|--L--0----0--0--0--0--0--0--L--|
-------------0--0--0--0--0--L--|--L--0----0--0--0--0--0--0--L--|
-------------0--0--0--0--0--L--|--L--0----0--0--0--0--0--0--L--|


  PM      PM PM PM PM PM PM                            PM PM  
                                  |-3-|                       
  Q    E  E  S  S  S  S  E  E     S S S E  E  E  E  E  E  E   
-------------------------------|-----------------------------|
-------------------------------|-----------------------------|
-------------------------------|-----------------------------|
--0----L--0--0--0--0--0--0--L--|--7-8-7-0--3--0-----3--0--0--|
--0----L--0--0--0--0--0--0--L--|-----------------1-----0--0--|
--0----L--0--0--0--0--0--0--L--|-----------------------0--0--|


  W                  
-------------------||
-------------------||
-------------------||
-------------------||
-------------------||
-------------------||


Duration Legend
---------------
W - whole
H - half
Q - quarter
E - 8th
S - 16th
T - 32nd
X - 64th
. - note dotted
|-n-|  - n-tuplets


Tablature Legend
----------------
L - tied note
x - dead note
g - grace note
(n) - ghost note
> - accentuded note
NH - natural harmonic
AH - artificial harmonic
TH - tapped harmonic
SH - semi harmonic
PH - pitch harmonic
h - hammer on
p - pull off
b - bend
br - bendRelease
pb - preBend
pbr - preBendRelease
brb - bendReleaseBend
\n/ - tremolo bar dip
\n - tremolo bar dive
-/n - tremolo bar Release up
/n\ - tremolo bar inverted dip
/n - tremolo bar return
-\n - tremolo bar Release down
S - shift slide
s - legato slide
/ -  slide into from below or out of upwards
\ -  slide into from above or out of downwards
~ - vibrato
W - wide vibrato
tr - trill
TP - tremolo picking
T - tapping
S - slap
P - pop
< - fade in
^ - brush up
v - brush down


That is all! I hope this helped, and be sure to check out my cover if you are
having problems with the tab. Thanks, oh and one last thing... ROCK OUT!!!!
comments
We did not receive enough feedback on this tab! Please rate:
print report bad tab
1 2 3 4 5
I want to post or [tab]
guest
You may want to rate the tab now too:
select rating
Please do not post tabs as comments. Select "correction" instead!