Oops, an error
Loading. Please wait.

Heart Of Gold Tab

ver1
ver1

Whole song

Interactive

More versions @911Tabs.com
5,268 views 15 this week
no commentswrite comment
1 2 3 4 5
please rate
Autoscroll
+/-
esc
set tempo
stop
Contributor
Difficulty
intermediate
Hey! There's an official Ultimate Guitar app which is ideal
for learning songs when you're away from computer. Get the app
WARNING: You are trying to view
                                    content from Ultimate-Guitar.com
                                    in an unauthorized application,
                                    which is prohibited.

                                    Please use an official Ultimate
                                    Guitar Tabs application for iPhone,
                                    iPad or Android to access legitimate
                                    chords, guitar, bass, and drum tabs
                                    from Ultimate-Guitar.com database.

                                    Type "ultimate guitar tabs" in Apple
                                    App Store's or Android Market's
                                    search to find the application.
----------------------------------------------------------------------------
                          Heart of Gold
                             Heartist
----------------------------------------------------------------------------

B-E-A-Utiful. Enjoy!

Username: dkm817 (same on X box live)
Youtube Cover: http://www.youtube.com/watch?v=EGuWyzfj3OA
Email: guitardrums@rockfan.com

Guitar 1 Rhythmic (C G C F A D)
Guitar 2 Lead     (C G C F A D)
Guitar 3 Acoustic (E A D G B E)

NOTE: This was exported off of guitar pro.


Guitar 1

      Echo Effect                                             
      <                                                       
      H          Q     E  S  S     E  E   E  S  E  Q    E  S  
D||-------------------------11-|---L-----------11------------|
A||-------------------12--L----|---------12--L---------------|
F||--13----------L-------------|-----------------------------|
C||----------------------------|-----------------------------|
G||----------------------------|-----------------------------|
C||----------------------------|-----------------------------|


   <                                                     
   H        Q     E  S  S     E  E   E  S  E  Q    E  S  
-----------------------14-|---L-----------16--L----L--L-|
-----------------12--L----|---------12--L---------------|
--11--------L-------------|-----------------------------|
--------------------------|-----------------------------|
--------------------------|-----------------------------|
--------------------------|-----------------------------|


   <                                                 <                     
   H        Q     E  E      E   E  H        Q        H        Q     E  E   
------------------------|------------------------|------------------------|
--14--------L-----------|--14--------------------|--14--------L-----------|
-----------------13-----|------13----------------|-----------------13-----|
------------------------|------------------------|------------------------|
------------------------|------------------------|------------------------|
------------------------|------------------------|------------------------|


                                        Echo Effect                         
   E   E  H        Q                    E          E   E  E   E  E   E  E   
------------------------|-----------|--19-------------19-----19-----19-----|
--14--------------------|-----------|--------------------------------------|
------13----------------|-----------|--------------------------------------|
------------------------|-----------|--------------------------------------|
------------------------|-----------|--------------------------------------|
------------------------|-----------|--------------------------------------|


  W                    E  E   E  E   E  E   E  E   
-------------------|--18-----18-----18-----18-----|
-------------------|------------------------------|
-------------------|------------------------------|
-------------------|------------------------------|
-------------------|------------------------------|
-------------------|------------------------------|


   E  E   E  E   E  E   E  E      E  E   E  E   E  E   E  E   
------------------------------|------------------------------|
--19-----19-----19-----19-----|------------------------------|
------------------------------|--18-----18-----18-----18-----|
------------------------------|------------------------------|
------------------------------|------------------------------|
------------------------------|------------------------------|


  W                    E  E   E  E   E  E   E  E   
-------------------|------------------------------|
-------------------|--17-----17-----17-----17-----|
-------------------|------------------------------|
-------------------|------------------------------|
-------------------|------------------------------|
-------------------|------------------------------|


   E  E   E  E   E  E   E  E      E  E   E  E   E  E   E  E   
------------------------------|--19-----19-----19-----19-----|
--16-----16-----16-----16-----|------------------------------|
------------------------------|------------------------------|
------------------------------|------------------------------|
------------------------------|------------------------------|
------------------------------|------------------------------|


  W                    E  E   E  E   E  E   E  E   
-------------------|--18-----18-----18-----18-----|
-------------------|------------------------------|
-------------------|------------------------------|
-------------------|------------------------------|
-------------------|------------------------------|
-------------------|------------------------------|


   E  E   E  E   E  E   E  E      E  E   E  E   E  E   E  E   
------------------------------|------------------------------|
--19-----19-----19-----19-----|------------------------------|
------------------------------|--18-----18-----18-----18-----|
------------------------------|------------------------------|
------------------------------|------------------------------|
------------------------------|------------------------------|


  W                    E  E   E  E   E  E   E  E   
-------------------|------------------------------|
-------------------|--17-----17-----17-----17-----|
-------------------|------------------------------|
-------------------|------------------------------|
-------------------|------------------------------|
-------------------|------------------------------|


   E  E   E  E   E  E   E  E      E  E   E  E   E  E   E  E   
------------------------------|--19-----19-----19-----19-----|
--16-----16-----16-----16-----|------------------------------|
------------------------------|------------------------------|
------------------------------|------------------------------|
------------------------------|------------------------------|
------------------------------|------------------------------|


  W                    E  E   E  E   E  E   E  E     H         E  E   E  E   
-------------------|--16-----16-----16-----16-----|-----------18-----18-----|
-------------------|------------------------------|-------------------------|
-------------------|------------------------------|-------------------------|
-------------------|------------------------------|-------------------------|
-------------------|------------------------------|-------------------------|
-------------------|------------------------------|-------------------------|


   E  E   E  E   E  E   E  E     W                   Q    Q    Q    Q     
--19-----19-----19-----19-----|-------------------|----------------------|
------------------------------|-------------------|----------------------|
------------------------------|-------------------|--4----4----4----4----|
------------------------------|-------------------|--4----4----4----4----|
------------------------------|-------------------|--4----4----4----4----|
------------------------------|-------------------|--4----4----4----4----|


  E  E  E  E  E  E  E  E     E  E  E  E  E  E  E  E   
--------------------------|--------------------------|
--------------------------|--------------------------|
--4-----------------------|--------------------------|
--4-----------------------|--6--6--6--6--6--6--6--6--|
--4-----------------------|--6--6--6--6--6--6--6--6--|
--4-----------------------|--6--6--6--6--6--6--6--6--|


  E  E  E  E  E  E  E  E     E  E  E  E  E  E  E  E   
--------------------------|--------------------------|
--------------------------|--------------------------|
--------------------------|--9--9--9--9--9--9--9--9--|
--9--9--9--9--9--9--9--9--|--9--9--9--9--9--9--9--9--|
--9--9--9--9--9--9--9--9--|--7--7--7--7--7--7--7--7--|
--9--9--9--9--9--9--9--9--|--------------------------|


  E  E  E  E  E  E  E  E     E  E  E  E  E  E  E  E   
--------------------------|--------------------------|
--------------------------|--------------------------|
--9--9--9--9--9--9--9--9--|--------------------------|
--9--9--9--9--9--9--9--9--|--6--6--6--6--6--6--6--6--|
--7--7--7--7--7--7--7--7--|--6--6--6--6--6--6--6--6--|
--------------------------|--6--6--6--6--6--6--6--6--|


  E  E  E  E  E  E  E  E     E  E  E  E  E  E  E  E   
--------------------------|--------------------------|
--------------------------|--------------------------|
--------------------------|--9--9--9--9--9--9--9--9--|
--9--9--9--9--9--9--9--9--|--9--9--9--9--9--9--9--9--|
--9--9--9--9--9--9--9--9--|--7--7--7--7--7--7--7--7--|
--9--9--9--9--9--9--9--9--|--------------------------|


  E  E  E  E  E  E  E  E     E  E  E  E  E  E  E  E   
--------------------------|--------------------------|
--------------------------|--------------------------|
--9--9--9--9--9--9--9--9--|--------------------------|
--9--9--9--9--9--9--9--9--|--6--6--6--6--6-----------|
--7--7--7--7--7--7--7--7--|--6--6--6--6--6-----------|
--------------------------|--6--6--6--6--6-----------|


  E  E  E  E  E  E  E  E     Q    E  E  E  Q    E     Q    E  E  E  E  E  E   
--------------------------|------------------------|-------------------------|
--------------------------|------------------------|-------------------------|
--------------------------|--9----9--9--9--9----9--|--9----9--9--9--9--9--9--|
--9--9--9--9--9-----------|--9----9--9--9--9----9--|--9----9--9--9--9--9--9--|
--9--9--9--9--9-----------|--7----7--7--7--7----7--|--7----7--7--7--7--7--7--|
--9--9--9--9--9-----------|------------------------|-------------------------|


  E  E  E  E  E  E  E  E     E  E  E  E  E  E  E  E   
--------------------------|--------------------------|
--------------------------|--------------------------|
--6--6--6--6--6--6--6--6--|--6--6--6--6--6--6--6--6--|
--6--6--6--6--6--6--6--6--|--6--6--6--6--6--6--6--6--|
--4--4--4--4--4--4--4--4--|--4--4--4--4--4--4--4--4--|
--------------------------|--------------------------|


  E  E  E  E  E  E  E  E      E   E   E   E   E  E  E  E     W                 
--------------------------|-------------------------------|-------------------|
--------------------------|-------------------------------|-------------------|
--9--9--9--9--9--9--9--9--|--11--11--11--11--11-----------|-------------------|
--9--9--9--9--9--9--9--9--|--11--11--11--11--11-----------|--9----------------|
--7--7--7--7--7--7--7--7--|---9---9---9---9---9-----------|--6----------------|
--------------------------|-------------------------------|--6----------------|


  W                   W                   W                 
-------------------|-------------------|-------------------|
-------------------|-------------------|-------------------|
-------------------|-------------------|-------------------|
--L----------------|-------------------|-------------------|
--L----------------|-------------------|-------------------|
--L----------------|-------------------|-------------------|


   E  E  E  E   E  E  E  E      E  E  E  E   E  E  E  E   
--16-----------18-----------|--19-----------23-----------|
----------------------------|----------------------------|
----------------------------|----------------------------|
----------------------------|----------------------------|
----------------------------|----------------------------|
----------------------------|----------------------------|


   E  E  E  E  E  E  E  E      E  E  E  E  E  E  E  E   
--19-----------------------|--16-----------------------|
---------------------------|---------------------------|
---------------------------|---------------------------|
---------------------------|---------------------------|
---------------------------|---------------------------|
---------------------------|---------------------------|


   E  E  E  E  E  E  E  E      E  E  E  E  E  E  E  E     W                 
---------------------------|---------------------------|-------------------|
--17-----------------------|--16-----------------------|-------------------|
---------------------------|---------------------------|-------------------|
---------------------------|---------------------------|-------------------|
---------------------------|---------------------------|-------------------|
---------------------------|---------------------------|-------------------|


  W                    E  E  E  E   E  E  E  E      E  E  E  E   E  E  E  E   
-------------------|--16-----------18-----------|--19-----------23-----------|
-------------------|----------------------------|----------------------------|
-------------------|----------------------------|----------------------------|
-------------------|----------------------------|----------------------------|
-------------------|----------------------------|----------------------------|
-------------------|----------------------------|----------------------------|


   E  E  E  E  E  E  E  E      E  E  E  E  E  E  E  E   
--19-----------------------|--16-----------------------|
---------------------------|---------------------------|
---------------------------|---------------------------|
---------------------------|---------------------------|
---------------------------|---------------------------|
---------------------------|---------------------------|


   E  E  E  E  E  E  E  E      E  E  E  E  E  E  E  E     W                 
---------------------------|---------------------------|-------------------|
--17-----------------------|--16-----------------------|-------------------|
---------------------------|---------------------------|-------------------|
---------------------------|---------------------------|-------------------|
---------------------------|---------------------------|-------------------|
---------------------------|---------------------------|-------------------|


  W                   Q    Q    Q    Q       E  E  E  E  E  E  E  E   
-------------------|----------------------|--------------------------|
-------------------|----------------------|--------------------------|
-------------------|--4----4----4----4----|--4-----------------------|
-------------------|--4----4----4----4----|--4-----------------------|
-------------------|--4----4----4----4----|--4-----------------------|
-------------------|--4----4----4----4----|--4-----------------------|


  E  E  E  E  E  E  E  E     E  E  E  E  E  E  E  E   
--------------------------|--------------------------|
--------------------------|--------------------------|
--------------------------|--------------------------|
--6--6--6--6--6--6--6--6--|--9--9--9--9--9--9--9--9--|
--6--6--6--6--6--6--6--6--|--9--9--9--9--9--9--9--9--|
--6--6--6--6--6--6--6--6--|--9--9--9--9--9--9--9--9--|


  E  E  E  E  E  E  E  E     E  E  E  E  E  E  E  E   
--------------------------|--------------------------|
--------------------------|--------------------------|
--9--9--9--9--9--9--9--9--|--9--9--9--9--9--9--9--9--|
--9--9--9--9--9--9--9--9--|--9--9--9--9--9--9--9--9--|
--7--7--7--7--7--7--7--7--|--7--7--7--7--7--7--7--7--|
--------------------------|--------------------------|


  E  E  E  E  E  E  E  E     E  E  E  E  E  E  E  E   
--------------------------|--------------------------|
--------------------------|--------------------------|
--------------------------|--------------------------|
--6--6--6--6--6--6--6--6--|--9--9--9--9--9--9--9--9--|
--6--6--6--6--6--6--6--6--|--9--9--9--9--9--9--9--9--|
--6--6--6--6--6--6--6--6--|--9--9--9--9--9--9--9--9--|


  E  E  E  E  E  E  E  E     E  E  E  E  E  E  E  E   
--------------------------|--------------------------|
--------------------------|--------------------------|
--9--9--9--9--9--9--9--9--|--9--9--9--9--9--9--9--9--|
--9--9--9--9--9--9--9--9--|--9--9--9--9--9--9--9--9--|
--7--7--7--7--7--7--7--7--|--7--7--7--7--7--7--7--7--|
--------------------------|--------------------------|


  E  E  E  E  E  E  E  E     E  E  E  E  E  E  E  E     Q    E  E  E  Q    E   
--------------------------|--------------------------|------------------------|
--------------------------|--------------------------|------------------------|
--------------------------|--------------------------|--9----9--9--9--9----9--|
--6--6--6--6--6-----------|--9--9--9--9--9-----------|--9----9--9--9--9----9--|
--6--6--6--6--6-----------|--9--9--9--9--9-----------|--7----7--7--7--7----7--|
--6--6--6--6--6-----------|--9--9--9--9--9-----------|------------------------|


  Q    E  E  E  E  E  E     E  E  E  E  E  E  E  E     E  E  E  E  E  E  E  E   
-------------------------|--------------------------|--------------------------|
-------------------------|--------------------------|--------------------------|
--9----9--9--9--9--9--9--|--6--6--6--6--6--6--6--6--|--6--6--6--6--6--6--6--6--|
--9----9--9--9--9--9--9--|--6--6--6--6--6--6--6--6--|--6--6--6--6--6--6--6--6--|
--7----7--7--7--7--7--7--|--4--4--4--4--4--4--4--4--|--4--4--4--4--4--4--4--4--|
-------------------------|--------------------------|--------------------------|


  E  E  E  E  E  E  E  E      E   E   E   E   E  E  E  E     W                 
--------------------------|-------------------------------|-------------------|
--------------------------|-------------------------------|-------------------|
--9--9--9--9--9--9--9--9--|--11--11--11--11--11-----------|-------------------|
--9--9--9--9--9--9--9--9--|--11--11--11--11--11-----------|--9----------------|
--7--7--7--7--7--7--7--7--|---9---9---9---9---9-----------|--6----------------|
--------------------------|-------------------------------|--6----------------|


  W                   W                   W                   W                 
-------------------|-------------------|-------------------|-------------------|
-------------------|-------------------|-------------------|--7----------------|
-------------------|-------------------|-------------------|--6----------------|
--L----------------|--9----------------|--L----------------|--4----------------|
--L----------------|--9----------------|--L----------------|--4----------------|
--L----------------|--9----------------|--L----------------|--4----------------|


  W                   W                   E  Q    E  E  E  E  E   
-------------------|-------------------|-------------------------|
--L----------------|--5----------------|----------5--------------|
--L----------------|--4----------------|--4----------4-----------|
--L----------------|--2----------------|-----2----------2--------|
--L----------------|--2----------------|-------------------2-----|
--L----------------|--2----------------|----------------------2--|


  W                   W                   W                   W                 
-------------------|-------------------|-------------------|-------------------|
-------------------|-------------------|-------------------|-------------------|
--1----------------|--L----------------|--4----------------|--L----------------|
--2----------------|--L----------------|--4----------------|--L----------------|
--2----------------|--L----------------|--4----------------|--L----------------|
--2----------------|--L----------------|--4----------------|--L----------------|


  W                   W                   E  E  E  E  E  E  E  E   
-------------------|-------------------|--------------------------|
-------------------|-------------------|--------------------------|
--1----------------|--L----------------|--4--4--4--4--4--4--4--4--|
--2----------------|--L----------------|--4--4--4--4--4--4--4--4--|
--2----------------|--L----------------|--4--4--4--4--4--4--4--4--|
--2----------------|--L----------------|--4--4--4--4--4--4--4--4--|


  E  E  E  E  E  E  E  E     E  E  E  E  E  E  E  E   
--------------------------|--------------------------|
--------------------------|--------------------------|
--4--4--4--4--4-----------|--------------------------|
--4--4--4--4--4-----------|--8--8--8--8--8--8--8--8--|
--4--4--4--4--4-----------|--8--8--8--8--8--8--8--8--|
--4--4--4--4--4-----------|--8--8--8--8--8--8--8--8--|


   E   E   E   E   E   E   E   E      E   E   E   E   E   E   E   E   
----------------------------------|----------------------------------|
----------------------------------|----------------------------------|
----------------------------------|--11--11--11--11--11--11--11--11--|
--11--11--11--11--11--11--11--11--|--11--11--11--11--11--11--11--11--|
--11--11--11--11--11--11--11--11--|---9---9---9---9---9---9---9---9--|
--11--11--11--11--11--11--11--11--|----------------------------------|


   E   E   E   E   E   E   E   E     E  E  E  E  E  E  E  E   
----------------------------------|--------------------------|
----------------------------------|--------------------------|
--11--11--11--11--11--11--11--11--|--------------------------|
--11--11--11--11--11--11--11--11--|--8--8--8--8--8--8--8--8--|
---9---9---9---9---9---9---9---9--|--8--8--8--8--8--8--8--8--|
----------------------------------|--8--8--8--8--8--8--8--8--|


   E   E   E   E   E   E   E   E      E   E   E   E   E   E   E   E   
----------------------------------|----------------------------------|
----------------------------------|----------------------------------|
----------------------------------|--11--11--11--11--11--11--11--11--|
--11--11--11--11--11--11--11--11--|--11--11--11--11--11--11--11--11--|
--11--11--11--11--11--11--11--11--|---9---9---9---9---9---9---9---9--|
--11--11--11--11--11--11--11--11--|----------------------------------|


   E   E   E   E   E   E   E   E     E  E  E  E  E  E  E  E   
----------------------------------|--------------------------|
----------------------------------|--------------------------|
--11--11--11--11--11--11--11--11--|--------------------------|
--11--11--11--11--11--11--11--11--|--8--8--8--8--8-----------|
---9---9---9---9---9---9---9---9--|--8--8--8--8--8-----------|
----------------------------------|--8--8--8--8--8-----------|


   E   E   E   E   E  E  E  E      Q     E   E   E   Q     E   
-------------------------------|------------------------------|
-------------------------------|------------------------------|
-------------------------------|--11----11--11--11--11----11--|
--11--11--11--11--11-----------|--11----11--11--11--11----11--|
--11--11--11--11--11-----------|---9-----9---9---9---9-----9--|
--11--11--11--11--11-----------|------------------------------|


   Q     E   E   E   E   E   E     E  E  E  E  E  E  E  E   
--------------------------------|--------------------------|
--------------------------------|--------------------------|
--11----11--11--11--11--11--11--|--8--8--8--8--8--8--8--8--|
--11----11--11--11--11--11--11--|--8--8--8--8--8--8--8--8--|
---9-----9---9---9---9---9---9--|--6--6--6--6--6--6--6--6--|
--------------------------------|--------------------------|


  E  E  E  E  E  E  E  E      E   E   E   E   E   E   E   E   
--------------------------|----------------------------------|
--------------------------|----------------------------------|
--8--8--8--8--8--8--8--8--|--11--11--11--11--11--11--11--11--|
--8--8--8--8--8--8--8--8--|--11--11--11--11--11--11--11--11--|
--6--6--6--6--6--6--6--6--|---9---9---9---9---9---9---9---9--|
--------------------------|----------------------------------|


   E   E   E   E   E   E   E   E     E  E  E  E  E  E  E  E   
----------------------------------|--------------------------|
----------------------------------|--------------------------|
--13--13--13--13--13--13--13--13--|--------------------------|
--13--13--13--13--13--13--13--13--|--8--8--8--8--8--8--8--8--|
--11--11--11--11--11--11--11--11--|--8--8--8--8--8--8--8--8--|
----------------------------------|--8--8--8--8--8--8--8--8--|


   E   E   E   E   E   E   E   E      E   E   E   E   E   E   E   E   
----------------------------------|----------------------------------|
----------------------------------|----------------------------------|
----------------------------------|--11--11--11--11--11--11--11--11--|
--11--11--11--11--11--11--11--11--|--11--11--11--11--11--11--11--11--|
--11--11--11--11--11--11--11--11--|---9---9---9---9---9---9---9---9--|
--11--11--11--11--11--11--11--11--|----------------------------------|


   E   E   E   E   E   E   E   E     E  E  E  E  E  E  E  E   
----------------------------------|--------------------------|
----------------------------------|--------------------------|
--11--11--11--11--11--11--11--11--|--------------------------|
--11--11--11--11--11--11--11--11--|--8--8--8--8--8--8--8--8--|
---9---9---9---9---9---9---9---9--|--8--8--8--8--8--8--8--8--|
----------------------------------|--8--8--8--8--8--8--8--8--|


   E   E   E   E   E   E   E   E      E   E   E   E   E   E   E   E   
----------------------------------|----------------------------------|
----------------------------------|----------------------------------|
----------------------------------|--11--11--11--11--11--11--11--11--|
--11--11--11--11--11--11--11--11--|--11--11--11--11--11--11--11--11--|
--11--11--11--11--11--11--11--11--|---9---9---9---9---9---9---9---9--|
--11--11--11--11--11--11--11--11--|----------------------------------|


   E   E   E   E   E   E   E   E     E  E  E  E  E  E  E  E   
----------------------------------|--------------------------|
----------------------------------|--------------------------|
--11--11--11--11--11--11--11--11--|--------------------------|
--11--11--11--11--11--11--11--11--|--8--8--8--8--8-----------|
---9---9---9---9---9---9---9---9--|--8--8--8--8--8-----------|
----------------------------------|--8--8--8--8--8-----------|


   E   E   E   E   E  E  E  E      Q     E   E   E   Q     E   
-------------------------------|------------------------------|
-------------------------------|------------------------------|
-------------------------------|--11----11--11--11--11----11--|
--11--11--11--11--11-----------|--11----11--11--11--11----11--|
--11--11--11--11--11-----------|---9-----9---9---9---9-----9--|
--11--11--11--11--11-----------|------------------------------|


   Q     E   E   E   E   E   E     E  E  E  E  E  E  E  E   
--------------------------------|--------------------------|
--------------------------------|--------------------------|
--11----11--11--11--11--11--11--|--8--8--8--8--8--8--8--8--|
--11----11--11--11--11--11--11--|--8--8--8--8--8--8--8--8--|
---9-----9---9---9---9---9---9--|--6--6--6--6--6--6--6--6--|
--------------------------------|--------------------------|


  E  E  E  E  E  E  E  E      E   E   E   E   E   E   E   E   
--------------------------|----------------------------------|
--------------------------|----------------------------------|
--8--8--8--8--8--8--8--8--|--11--11--11--11--11--11--11--11--|
--8--8--8--8--8--8--8--8--|--11--11--11--11--11--11--11--11--|
--6--6--6--6--6--6--6--6--|---9---9---9---9---9---9---9---9--|
--------------------------|----------------------------------|


   E   E   E   E   E   E   E   E     E  E  E  E  E  E  E  E   
----------------------------------|--------------------------|
----------------------------------|--------------------------|
--11--11--11--11--11--11--11--11--|--8--8--8--8--8--8--8--8--|
--11--11--11--11--11--11--11--11--|--8--8--8--8--8--8--8--8--|
---9---9---9---9---9---9---9---9--|--6--6--6--6--6--6--6--6--|
----------------------------------|--------------------------|


  E  E  E  E  E  E  E  E      E   E   E   E   E   E   E   E   
--------------------------|----------------------------------|
--------------------------|----------------------------------|
--8--8--8--8--8--8--8--8--|--11--11--11--11--11--11--11--11--|
--8--8--8--8--8--8--8--8--|--11--11--11--11--11--11--11--11--|
--6--6--6--6--6--6--6--6--|---9---9---9---9---9---9---9---9--|
--------------------------|----------------------------------|


   E   E  E  E   E   E  E  E      W                   W                 
------------------------------|--------------------|-------------------|
------------------------------|--------------------|-------------------|
--13--13--------13--13--------|--------------------|-------------------|
--13--13--------13--13--------|--11----------------|--L----------------|
--11--11--------11--11--------|---8----------------|--L----------------|
------------------------------|---8----------------|--L----------------|


  W                   W                  
-------------------|-------------------||
-------------------|-------------------||
-------------------|-------------------||
--L----------------|--L----------------||
--L----------------|--L----------------||
--L----------------|--L----------------||


Guitar 2



D||-------|-------|-------|-------|-------|-------|-------|-------|-------|
A||-------|-------|-------|-------|-------|-------|-------|-------|-------|
F||-------|-------|-------|-------|-------|-------|-------|-------|-------|
C||-------|-------|-------|-------|-------|-------|-------|-------|-------|
G||-------|-------|-------|-------|-------|-------|-------|-------|-------|
C||-------|-------|-------|-------|-------|-------|-------|-------|-------|


   E  E   E  E   E  E   E  E     W                 
--16-----16-----16-----16-----|-------------------|
------------------------------|-------------------|
------------------------------|-------------------|
------------------------------|-------------------|
------------------------------|-------------------|
------------------------------|-------------------|


   E  E   E  E   E  E   E  E      E  E   E  E   E  E   E  E   
------------------------------|------------------------------|
--19-----19-----19-----19-----|------------------------------|
------------------------------|--18-----18-----18-----18-----|
------------------------------|------------------------------|
------------------------------|------------------------------|
------------------------------|------------------------------|


   E  E   E  E   E  E   E  E            E  E   E  E   E  E   E  E   
------------------------------|-----|------------------------------|
------------------------------|-----|------------------------------|
------------------------------|-----|--16-----16-----16-----16-----|
--18-----18-----18-----18-----|-----|------------------------------|
------------------------------|-----|------------------------------|
------------------------------|-----|------------------------------|


   E  E   E  E   E  E   E  E      E  E   E  E   E  E   E  E   
------------------------------|--16-----16-----16-----16-----|
------------------------------|------------------------------|
--15-----15-----15-----15-----|------------------------------|
------------------------------|------------------------------|
------------------------------|------------------------------|
------------------------------|------------------------------|


  W                    E  E   E  E   E  E   E  E   
-------------------|------------------------------|
-------------------|--19-----19-----19-----19-----|
-------------------|------------------------------|
-------------------|------------------------------|
-------------------|------------------------------|
-------------------|------------------------------|


   E  E   E  E   E  E   E  E      E  E   E  E   E  E   E  E         
------------------------------|------------------------------|-----|
------------------------------|------------------------------|-----|
--18-----18-----18-----18-----|------------------------------|-----|
------------------------------|--18-----18-----18-----18-----|-----|
------------------------------|------------------------------|-----|
------------------------------|------------------------------|-----|


   E  E   E  E   E  E   E  E      E  E   E  E   E  E   E  E   
------------------------------|------------------------------|
------------------------------|------------------------------|
--16-----16-----16-----16-----|--15-----15-----15-----15-----|
------------------------------|------------------------------|
------------------------------|------------------------------|
------------------------------|------------------------------|


           T          T          T          T  
  S  S  S  S S  S  S  S S  S  S  S S  S  S  S  
----------------------------------------------|
----------------------------------------------|
--9-11-13-16-9-11-13-16-9-11-13-16-9-11-13-16-|
----------------------------------------------|
----------------------------------------------|
----------------------------------------------|


           T          T          T          T  
  S  S  S  S S  S  S  S S  S  S  S S  S  S  S  
----------------------------------------------|
----------------------------------------------|
--9-11-13-16-9-11-13-16-9-11-13-16-9-11-13-16-|
----------------------------------------------|
----------------------------------------------|
----------------------------------------------|


          T         T         T         T  
  S S  S  S S S  S  S S S  S  S S S  S  S  
------------------------------------------|
--7-9-11-14-7-9-11-14-7-9-11-14-7-9-11-14-|
------------------------------------------|
------------------------------------------|
------------------------------------------|
------------------------------------------|


          T         T         T         T  
  S S  S  S S S  S  S S S  S  S S S  S  S  
------------------------------------------|
--7-9-11-14-7-9-11-14-7-9-11-14-7-9-11-14-|
------------------------------------------|
------------------------------------------|
------------------------------------------|
------------------------------------------|


            T           T           T           T  
   S  S  S  S  S  S  S  S  S  S  S  S  S  S  S  S  
--12-14-16-19-12-14-16-19-12-14-16-19-12-14-16-19-|
--------------------------------------------------|
--------------------------------------------------|
--------------------------------------------------|
--------------------------------------------------|
--------------------------------------------------|


            T           T           T           T  
   S  S  S  S  S  S  S  S  S  S  S  S  S  S  S  S  
--12-14-16-19-12-14-16-19-12-14-16-19-12-14-16-19-|
--------------------------------------------------|
--------------------------------------------------|
--------------------------------------------------|
--------------------------------------------------|
--------------------------------------------------|


            T           T           T           T  
   S  S  S  S  S  S  S  S  S  S  S  S  S  S  S  S  
--14-16-18-21-14-16-18-21-14-16-18-21-14-16-18-21-|
--------------------------------------------------|
--------------------------------------------------|
--------------------------------------------------|
--------------------------------------------------|
--------------------------------------------------|


   T       T       T       T       T       T       T       T       
   S   S   S   S   S   S   S   S   S   S   S   S   S   S   S   S   
--23-(11)-23-(11)-23-(11)-23-(11)-23-(11)-23-(11)-23-(11)-23-(11)-|
------------------------------------------------------------------|
------------------------------------------------------------------|
------------------------------------------------------------------|
------------------------------------------------------------------|
------------------------------------------------------------------|


  E  E  E  E  E  E   E   E      E  E  E  E  E  E  E  E   
----------------------------|---------------------------|
----------------------------|---------------------------|
--------------------11--11--|--11-----------------------|
--9--8--8--9--8--9----------|------9--8--9--8--8--9--9--|
----------------------------|---------------------------|
----------------------------|---------------------------|


  E  E  E  E  E  E   E   E      E  E  E  E  E  E  E   E   
----------------------------|----------------------------|
----------------------------|----------------------------|
--------------------11--11--|--11------------------------|
--9--8--8--9--8--9----------|------9--8--8--8--9--8------|
----------------------------|------------------------11--|
----------------------------|----------------------------|


  E  E  E  E  E  E   E   E      E  E  E  E  E  E  E  E   
----------------------------|---------------------------|
----------------------------|---------------------------|
--------------------11--11--|--11-----------------------|
--9--8--8--9--8--9----------|------9--8--9--8--8--9--9--|
----------------------------|---------------------------|
----------------------------|---------------------------|


  E  E  E  E  E  E   E   E      E  E  E  E  E  E  E   E   
----------------------------|----------------------------|
----------------------------|----------------------------|
--------------------11--11--|--11------------------------|
--9--8--8--9--8--9----------|------9--8--8--8--9--8------|
----------------------------|------------------------11--|
----------------------------|----------------------------|


  E  E  E  E  E  E   E   E      E  E  E  E  E  E  E  E   
----------------------------|---------------------------|
----------------------------|---------------------------|
--------------------11--11--|--11-----------------------|
--9--8--8--9--8--9----------|------9--8--9--8--8--9--9--|
----------------------------|---------------------------|
----------------------------|---------------------------|


  E  E  E  E  E  E   E   E      E  E  E  E  E  E  E   E   
----------------------------|----------------------------|
----------------------------|----------------------------|
--------------------11--11--|--11------------------------|
--9--8--8--9--8--9----------|------9--8--8--8--9--8------|
----------------------------|------------------------11--|
----------------------------|----------------------------|


  E  E  E  E  E  E   E   E      E  E  E  E  E  E  E  E   
----------------------------|---------------------------|
----------------------------|---------------------------|
--------------------11--11--|--11-----------------------|
--9--8--8--9--8--9----------|------9--8--9--8--8--9--9--|
----------------------------|---------------------------|
----------------------------|---------------------------|


  E  E  E  E  E  E   E   E      E   E   E   E   E   E   E   E   
----------------------------|----------------------------------|
----------------------------|--11--11--11--11--12--11----------|
--------------------11--11--|--------------------------13--11--|
--9--8--8--9--8--9----------|----------------------------------|
----------------------------|----------------------------------|
----------------------------|----------------------------------|


   W                   W                 
--------------------|-------------------|
--------------------|-------------------|
--13----------------|--L----------------|
--------------------|-------------------|
--------------------|-------------------|
--------------------|-------------------|


  S S  S S S  S S S  S S S  S S S  S S    S  S S S  S S S  S S S  S S S  S S S  
---------------------------------------|---------------------------------------|
---------------------------------------|---------------------------------------|
---------------------------------------|---------------------------------------|
--6-9-13-6-9-13-6-9-13-6-9-13-6-9-13-6-|--9-13-6-9-13-6-9-13-6-9-13-6-9-13-6-9-|
---------------------------------------|---------------------------------------|
---------------------------------------|---------------------------------------|


  S S  S S S  S S S  S S S  S S S  S S    S S S S S S S S S S S S S S S S  
---------------------------------------|----------------------------------|
---------------------------------------|--4-7-9-4-7-9-4-7-9-4-7-9-4-7-9-4-|
--4-8-11-4-8-11-4-8-11-4-8-11-4-8-11-4-|----------------------------------|
---------------------------------------|----------------------------------|
---------------------------------------|----------------------------------|
---------------------------------------|----------------------------------|


  S S  S S S  S S S  S S S  S S S  S S    S  S S S  S S S  S S S  S S S  S S S  
---------------------------------------|---------------------------------------|
---------------------------------------|---------------------------------------|
--4-8-11-4-8-11-4-8-11-4-8-11-4-8-11-4-|--8-11-4-8-11-4-8-11-4-8-11-4-8-11-4-8-|
---------------------------------------|---------------------------------------|
---------------------------------------|---------------------------------------|
---------------------------------------|---------------------------------------|


  S S S S S S S S S S S S S S S S    S S S S S S S S S S S S S S S S  
----------------------------------|----------------------------------|
--4-7-9-4-7-9-4-7-9-4-7-9-4-7-9-4-|--7-9-4-7-9-4-7-9-4-7-9-4-7-9-4-7-|
----------------------------------|----------------------------------|
----------------------------------|----------------------------------|
----------------------------------|----------------------------------|
----------------------------------|----------------------------------|


  S S  S S S  S S S  S S S  S S S  S S    S  S S S  S S S  S S S  S S S  S S S  
---------------------------------------|---------------------------------------|
---------------------------------------|---------------------------------------|
---------------------------------------|---------------------------------------|
--6-9-13-6-9-13-6-9-13-6-9-13-6-9-13-6-|--9-13-6-9-13-6-9-13-6-9-13-6-9-13-6-9-|
---------------------------------------|---------------------------------------|
---------------------------------------|---------------------------------------|


  S S  S S S  S S S  S S S  S S S  S S    S S S S S S S S S S S S S S S S  
---------------------------------------|----------------------------------|
---------------------------------------|--4-7-9-4-7-9-4-7-9-4-7-9-4-7-9-4-|
--4-8-11-4-8-11-4-8-11-4-8-11-4-8-11-4-|----------------------------------|
---------------------------------------|----------------------------------|
---------------------------------------|----------------------------------|
---------------------------------------|----------------------------------|


  S S  S S S  S S S  S S S  S S S  S S    S  S S S  S S S  S S S  S S S  S S S  
---------------------------------------|---------------------------------------|
---------------------------------------|---------------------------------------|
--4-8-11-4-8-11-4-8-11-4-8-11-4-8-11-4-|--8-11-4-8-11-4-8-11-4-8-11-4-8-11-4-8-|
---------------------------------------|---------------------------------------|
---------------------------------------|---------------------------------------|
---------------------------------------|---------------------------------------|


  S S S S S S S S S S S S S S S S    S S S S S S S S S S S S S S S S  
----------------------------------|----------------------------------|
--4-7-9-4-7-9-4-7-9-4-7-9-4-7-9-4-|--7-9-4-7-9-4-7-9-4-7-9-4-7-9-4-7-|
----------------------------------|----------------------------------|
----------------------------------|----------------------------------|
----------------------------------|----------------------------------|
----------------------------------|----------------------------------|


           T          T          T          T  
  S  S  S  S S  S  S  S S  S  S  S S  S  S  S  
----------------------------------------------|
----------------------------------------------|
--9-11-13-16-9-11-13-16-9-11-13-16-9-11-13-16-|
----------------------------------------------|
----------------------------------------------|
----------------------------------------------|


           T          T          T          T  
  S  S  S  S S  S  S  S S  S  S  S S  S  S  S  
----------------------------------------------|
----------------------------------------------|
--9-11-13-16-9-11-13-16-9-11-13-16-9-11-13-16-|
----------------------------------------------|
----------------------------------------------|
----------------------------------------------|


          T         T         T         T            T         T           
  S S  S  S S S  S  S S S  S  S S S  S  S    S S  S  S S S  S  S H         
------------------------------------------|-------------------------------|
--7-9-11-14-7-9-11-14-7-9-11-14-7-9-11-14-|--7-9-11-14-7-9-11-14----------|
------------------------------------------|-------------------------------|
------------------------------------------|-------------------------------|
------------------------------------------|-------------------------------|
------------------------------------------|-------------------------------|


  E  E  E  E  E  E   E   E      E  E  E  E  E  E  E  E   
----------------------------|---------------------------|
----------------------------|---------------------------|
--------------------11--11--|--11-----------------------|
--9--8--8--9--8--9----------|------9--8--9--8--8--9--9--|
----------------------------|---------------------------|
----------------------------|---------------------------|


  E  E  E  E  E  E   E   E      E  E  E  E  E  E  E   E   
----------------------------|----------------------------|
----------------------------|----------------------------|
--------------------11--11--|--11------------------------|
--9--8--8--9--8--9----------|------9--8--8--8--9--8------|
----------------------------|------------------------11--|
----------------------------|----------------------------|


  E  E  E  E  E  E   E   E      E  E  E  E  E  E  E  E   
----------------------------|---------------------------|
----------------------------|---------------------------|
--------------------11--11--|--11-----------------------|
--9--8--8--9--8--9----------|------9--8--9--8--8--9--9--|
----------------------------|---------------------------|
----------------------------|---------------------------|


  E  E  E  E  E  E   E   E      E  E  E  E  E  E  E   E   
----------------------------|----------------------------|
----------------------------|----------------------------|
--------------------11--11--|--11------------------------|
--9--8--8--9--8--9----------|------9--8--8--8--9--8------|
----------------------------|------------------------11--|
----------------------------|----------------------------|


  E  E  E  E  E  E   E   E      E  E  E  E  E  E  E  E   
----------------------------|---------------------------|
----------------------------|---------------------------|
--------------------11--11--|--11-----------------------|
--9--8--8--9--8--9----------|------9--8--9--8--8--9--9--|
----------------------------|---------------------------|
----------------------------|---------------------------|


  E  E  E  E  E  E   E   E      E  E  E  E  E  E  E   E   
----------------------------|----------------------------|
----------------------------|----------------------------|
--------------------11--11--|--11------------------------|
--9--8--8--9--8--9----------|------9--8--8--8--9--8------|
----------------------------|------------------------11--|
----------------------------|----------------------------|


  E  E  E  E  E  E   E   E      E  E  E  E  E  E  E  E   
----------------------------|---------------------------|
----------------------------|---------------------------|
--------------------11--11--|--11-----------------------|
--9--8--8--9--8--9----------|------9--8--9--8--8--9--9--|
----------------------------|---------------------------|
----------------------------|---------------------------|


  E  E  E  E  E  E   E   E      E   E   E   E   E   E   E   E   
----------------------------|----------------------------------|
----------------------------|--11--11--11--11--12--11----------|
--------------------11--11--|--------------------------13--11--|
--9--8--8--9--8--9----------|----------------------------------|
----------------------------|----------------------------------|
----------------------------|----------------------------------|


   |--3--|  |--3--|  |--3--|  |--3--|  |--3--|  |--3--|  |--3--|  |--3--|  
   S  S  S  S  S  S  S  S  S  S  S  S  S  S  S  S  S  S  S  S  S  S  S  S  
--19-19-19-19-19-19-19-19-19-19-19-19-19-19-19-19-19-19-19-19-19-19-19-19-|
--------------------------------------------------------------------------|
--------------------------------------------------------------------------|
--------------------------------------------------------------------------|
--------------------------------------------------------------------------|
--------------------------------------------------------------------------|


   |--3--|  |--3--|  |--3--|  |--3--|  |--3--|  |--3--|  |--3--|  |--3--|  
   S  S  S  S  S  S  S  S  S  S  S  S  S  S  S  S  S  S  S  S  S  S  S  S  
--19-19-19-19-19-19-19-19-19-19-19-19-19-19-19-19-19-19-19-19-19-19-19-19-|
--------------------------------------------------------------------------|
--------------------------------------------------------------------------|
--------------------------------------------------------------------------|
--------------------------------------------------------------------------|
--------------------------------------------------------------------------|


   |--3--|  |--3--|  |--3--|  |--3--|  |--3--|  |--3--|  |--3--|  |--3--|  
   S  S  S  S  S  S  S  S  S  S  S  S  S  S  S  S  S  S  S  S  S  S  S  S  
--18-18-18-18-18-18-18-18-18-18-18-18-18-18-18-18-18-18-18-18-18-18-18-18-|
--------------------------------------------------------------------------|
--------------------------------------------------------------------------|
--------------------------------------------------------------------------|
--------------------------------------------------------------------------|
--------------------------------------------------------------------------|


   |--3--|  |--3--|  |--3--|  |--3--|  |--3--|  |--3--|  |--3--|  |--3--|  
   S  S  S  S  S  S  S  S  S  S  S  S  S  S  S  S  S  S  S  S  S  S  S  S  
--------------------------------------------------------------------------|
--19-19-19-19-19-19-19-19-19-19-19-19-19-19-19-19-19-19-19-19-19-19-19-19-|
--------------------------------------------------------------------------|
--------------------------------------------------------------------------|
--------------------------------------------------------------------------|
--------------------------------------------------------------------------|


   |--3--|  |--3--|  |--3--|  |--3--|  |--3--|  |--3--|  |--3--|  |--3--|  
   S  S  S  S  S  S  S  S  S  S  S  S  S  S  S  S  S  S  S  S  S  S  S  S  
--------------------------------------------------------------------------|
--------------------------------------------------------------------------|
--16-16-16-16-16-16-16-16-16-16-16-16-16-16-16-16-16-16-16-16-16-16-16-16-|
--------------------------------------------------------------------------|
--------------------------------------------------------------------------|
--------------------------------------------------------------------------|


   |--3--|  |--3--|  |--3--|  |--3--|  |--3--|  |--3--|  |--3--|  |--3--|  
   S  S  S  S  S  S  S  S  S  S  S  S  S  S  S  S  S  S  S  S  S  S  S  S  
--------------------------------------------------------------------------|
--------------------------------------------------------------------------|
--16-16-16-16-16-16-16-16-16-16-16-16-16-16-16-16-16-16-16-16-16-16-16-16-|
--------------------------------------------------------------------------|
--------------------------------------------------------------------------|
--------------------------------------------------------------------------|


   |--3--|  |--3--|  |--3--|  |--3--|  |--3--|  |--3--|  |--3--|  |--3--|  
   S  S  S  S  S  S  S  S  S  S  S  S  S  S  S  S  S  S  S  S  S  S  S  S  
--------------------------------------------------------------------------|
--------------------------------------------------------------------------|
--15-15-15-15-15-15-15-15-15-15-15-15-15-15-15-15-15-15-15-15-15-15-15-15-|
--------------------------------------------------------------------------|
--------------------------------------------------------------------------|
--------------------------------------------------------------------------|


   |--3--|  |--3--|  |---3---|   |---3---|   |---3---|   |---3---|   |---3---|  
   S  S  S  S  S  S  S   S   S   S   S   S   S   S   S   S   S   S   S   S   S  
--------------------------------------------------------------------------------
--------------------------------------------------------------------------------
--18-18-18-18-18-18-18b-18b-18b-18b-18b-18b-18b-18b-18b-18b-18b-18b-18b-18b-18b-
--------------------------------------------------------------------------------
--------------------------------------------------------------------------------
--------------------------------------------------------------------------------


   W                    W                 
---------------------|-------------------|
---------------------|-------------------|
--18b----------------|--L----------------|
---------------------|-------------------|
---------------------|-------------------|
---------------------|-------------------|


          T         T         T         T  
  S S  S  S S S  S  S S S  S  S S S  S  S  
------------------------------------------|
--7-9-11-14-7-9-11-14-7-9-11-14-7-9-11-14-|
------------------------------------------|
------------------------------------------|
------------------------------------------|
------------------------------------------|


          T         T         T         T  
  S S  S  S S S  S  S S S  S  S S S  S  S  
------------------------------------------|
--7-9-11-14-7-9-11-14-7-9-11-14-7-9-11-14-|
------------------------------------------|
------------------------------------------|
------------------------------------------|
------------------------------------------|


            T           T           T           T  
   S  S  S  S  S  S  S  S  S  S  S  S  S  S  S  S  
--12-14-16-19-12-14-16-19-12-14-16-19-12-14-16-19-|
--------------------------------------------------|
--------------------------------------------------|
--------------------------------------------------|
--------------------------------------------------|
--------------------------------------------------|


            T           T           T           T  
   S  S  S  S  S  S  S  S  S  S  S  S  S  S  S  S  
--12-14-16-19-12-14-16-19-12-14-16-19-12-14-16-19-|
--------------------------------------------------|
--------------------------------------------------|
--------------------------------------------------|
--------------------------------------------------|
--------------------------------------------------|


            T           T           T           T  
   S  S  S  S  S  S  S  S  S  S  S  S  S  S  S  S  
--14-16-18-21-14-16-18-21-14-16-18-21-14-16-18-21-|
--------------------------------------------------|
--------------------------------------------------|
--------------------------------------------------|
--------------------------------------------------|
--------------------------------------------------|


   T       T       T       T       T       T       T       T       
   S   S   S   S   S   S   S   S   S   S   S   S   S   S   S   S   
--23-(11)-23-(11)-23-(11)-23-(11)-23-(11)-23-(11)-23-(11)-23-(11)-|
------------------------------------------------------------------|
------------------------------------------------------------------|
------------------------------------------------------------------|
------------------------------------------------------------------|
------------------------------------------------------------------|


   E   E   E   E   E   E   E   E      E   E   E   E   E   E   E   E   
----------------------------------|----------------------------------|
----------------------------------|----------------------------------|
--------------------------13--13--|--13------------------------------|
--11--10--10--11--10--11----------|------11--10--11--10--10--11--11--|
----------------------------------|----------------------------------|
----------------------------------|----------------------------------|


   E   E   E   E   E   E   E   E      E   E   E   E   E   E   E   E   
----------------------------------|----------------------------------|
----------------------------------|----------------------------------|
--------------------------13--13--|--13------------------------------|
--11--10--10--11--10--11----------|------11--10--10--10--11--10------|
----------------------------------|------------------------------13--|
----------------------------------|----------------------------------|


   E   E   E   E   E   E   E   E      E   E   E   E   E   E   E   E   
----------------------------------|----------------------------------|
----------------------------------|----------------------------------|
--------------------------13--13--|--13------------------------------|
--11--10--10--11--10--11----------|------11--10--11--10--10--11--11--|
----------------------------------|----------------------------------|
----------------------------------|----------------------------------|


   E   E   E   E   E   E   E   E      E   E   E   E   E   E   E   E   
----------------------------------|----------------------------------|
----------------------------------|----------------------------------|
--------------------------13--13--|--13------------------------------|
--11--10--10--11--10--11----------|------11--10--10--10--11--10------|
----------------------------------|------------------------------13--|
----------------------------------|----------------------------------|


   E   E   E   E   E   E   E   E      E   E   E   E   E   E   E   E   
----------------------------------|----------------------------------|
----------------------------------|----------------------------------|
--------------------------13--13--|--13------------------------------|
--11--10--10--11--10--11----------|------11--10--11--10--10--11--11--|
----------------------------------|----------------------------------|
----------------------------------|----------------------------------|


   E   E   E   E   E   E   E   E      E   E   E   E   E   E   E   E   
----------------------------------|----------------------------------|
----------------------------------|----------------------------------|
--------------------------13--13--|--13------------------------------|
--11--10--10--11--10--11----------|------11--10--10--10--11--10------|
----------------------------------|------------------------------13--|
----------------------------------|----------------------------------|


   E   E   E   E   E   E   E   E      E   E   E   E   E   E   E   E   
----------------------------------|----------------------------------|
----------------------------------|----------------------------------|
--------------------------13--13--|--13------------------------------|
--11--10--10--11--10--11----------|------11--10--11--10--10--11--11--|
----------------------------------|----------------------------------|
----------------------------------|----------------------------------|


   E   E   E   E   E   E   E   E      E   E   E   E   E   E   E   E   
----------------------------------|----------------------------------|
----------------------------------|--13--13--13--13--14--13----------|
--------------------------13--13--|--------------------------15--13--|
--11--10--10--11--10--11----------|----------------------------------|
----------------------------------|----------------------------------|
----------------------------------|----------------------------------|


   E   E   E   E   E   E   E   E      E   E   E   E   E   E   E   E   
----------------------------------|----------------------------------|
----------------------------------|----------------------------------|
--------------------------13--13--|--13------------------------------|
--11--10--10--11--10--11----------|------11--10--11--10--10--11--11--|
----------------------------------|----------------------------------|
----------------------------------|----------------------------------|


   E   E   E   E   E   E   E   E      E   E   E   E   E   E   E   E   
----------------------------------|----------------------------------|
----------------------------------|----------------------------------|
--------------------------13--13--|--13------------------------------|
--11--10--10--11--10--11----------|------11--10--10--10--11--10------|
----------------------------------|------------------------------13--|
----------------------------------|----------------------------------|


   E   E   E   E   E   E   E   E      E   E   E   E   E   E   E   E   
----------------------------------|----------------------------------|
----------------------------------|----------------------------------|
--------------------------13--13--|--13------------------------------|
--11--10--10--11--10--11----------|------11--10--11--10--10--11--11--|
----------------------------------|----------------------------------|
----------------------------------|----------------------------------|


   E   E   E   E   E   E   E   E      E   E   E   E   E   E   E   E   
----------------------------------|----------------------------------|
----------------------------------|----------------------------------|
--------------------------13--13--|--13------------------------------|
--11--10--10--11--10--11----------|------11--10--10--10--11--10------|
----------------------------------|------------------------------13--|
----------------------------------|----------------------------------|


   E   E   E   E   E   E   E   E      E   E   E   E   E   E   E   E   
----------------------------------|----------------------------------|
----------------------------------|----------------------------------|
--------------------------13--13--|--13------------------------------|
--11--10--10--11--10--11----------|------11--10--11--10--10--11--11--|
----------------------------------|----------------------------------|
----------------------------------|----------------------------------|


   E   E   E   E   E   E   E   E      E   E   E   E   E   E   E   E   
----------------------------------|----------------------------------|
----------------------------------|----------------------------------|
--------------------------13--13--|--13------------------------------|
--11--10--10--11--10--11----------|------11--10--10--10--11--10------|
----------------------------------|------------------------------13--|
----------------------------------|----------------------------------|


   E   E   E   E   E   E   E   E      E   E   E   E   E   E   E   E   
----------------------------------|----------------------------------|
----------------------------------|----------------------------------|
--------------------------13--13--|--13------------------------------|
--11--10--10--11--10--11----------|------11--10--11--10--10--11--11--|
----------------------------------|----------------------------------|
----------------------------------|----------------------------------|


   E   E   E   E   E   E   E   E      E   E   E   E   E   E   E   E   
----------------------------------|----------------------------------|
----------------------------------|----------------------------------|
--------------------------13--13--|--13------------------------------|
--11--10--10--11--10--11----------|------11--10--10--10--11--10------|
----------------------------------|------------------------------13--|
----------------------------------|----------------------------------|


   E   E   E   E   E   E   E   E      E   E   E   E   E   E   E   E   
----------------------------------|----------------------------------|
----------------------------------|----------------------------------|
--------------------------13--13--|--13------------------------------|
--11--10--10--11--10--11----------|------11--10--11--10--10--11--11--|
----------------------------------|----------------------------------|
----------------------------------|----------------------------------|


   E   E   E   E   E   E   E   E      E   E   E   E   E   E   E   E   
----------------------------------|----------------------------------|
----------------------------------|--13--13--13--13--14--13----------|
--------------------------13--13--|--------------------------15--13--|
--11--10--10--11--10--11----------|----------------------------------|
----------------------------------|----------------------------------|
----------------------------------|----------------------------------|


   W                   W                   W                 
--------------------|-------------------|-------------------|
--------------------|-------------------|-------------------|
--15----------------|--L----------------|--L----------------|
--------------------|-------------------|-------------------|
--------------------|-------------------|-------------------|
--------------------|-------------------|-------------------|


  W                  
-------------------||
-------------------||
--L----------------||
-------------------||
-------------------||
-------------------||


Guitar 3


E||-------|-------|-------|-------|-------|-------|-------|-------|-------|
B||-------|-------|-------|-------|-------|-------|-------|-------|-------|
G||-------|-------|-------|-------|-------|-------|-------|-------|-------|
D||-------|-------|-------|-------|-------|-------|-------|-------|-------|
A||-------|-------|-------|-------|-------|-------|-------|-------|-------|
E||-------|-------|-------|-------|-------|-------|-------|-------|-------|


  Q    E  E  Q    E  E     E  E  E  E  Q    E  E     Q    E  E  Q    E  E   
--2----2--2--2----2--2--|--L--2--2--2--2----2--2--|--0----0--0--0----0--0--|
--2----2--2--2----2--2--|--L--2--2--2--2----2--2--|--2----2--2--2----2--2--|
--2----2--2--2----2--2--|--L--2--2--2--2----2--2--|--2----2--2--2----2--2--|
--4----4--4--4----4--4--|--L--4--4--4--4----4--4--|--2----2--2--2----2--2--|
--4----4--4--4----4--4--|--L--4--4--4--4----4--4--|--0----0--0--0----0--0--|
------------------------|-------------------------|------------------------|


  E  E  E  E  Q    E  E     Q    E  E  Q    E  E     E  E  E  E  Q    E  E   
--L--0--0--0--0----0--0--|--0----0--0--0----0--0--|--L--0--0--0--0----0--0--|
--L--2--2--2--2----2--2--|--0----0--0--0----0--0--|--L--0--0--0--0----0--0--|
--L--2--2--2--2----2--2--|--4----4--4--4----4--4--|--L--4--4--4--4----4--4--|
--L--2--2--2--2----2--2--|--4----4--4--4----4--4--|--L--4--4--4--4----4--4--|
--L--0--0--0--0----0--0--|------------------------|-------------------------|
-------------------------|------------------------|-------------------------|


  Q    E  E  Q    E  E     E  E  E  E  Q    E  E     Q    E  E  Q    E  E   
--0----0--0--0----0--0--|--L--0--0--0--0----0--0--|--2----2--2--2----2--2--|
--3----3--3--3----3--2--|--L--2--2--2--2----2--2--|--2----2--2--2----2--2--|
--4----4--4--4----4--4--|--L--4--4--4--4----4--4--|--2----2--2--2----2--2--|
--4----4--4--4----4--4--|--L--4--4--4--4----4--4--|--4----4--4--4----4--4--|
------------------------|-------------------------|--4----4--4--4----4--4--|
------------------------|-------------------------|------------------------|


  E  E  E  E  Q    E  E     Q    E  E  Q    E  E     E  E  E  E  Q    E  E   
--L--2--2--2--2----2--2--|--0----0--0--0----0--0--|--L--0--0--0--0----0--0--|
--L--2--2--2--2----2--2--|--2----2--2--2----2--2--|--L--2--2--2--2----2--2--|
--L--2--2--2--2----2--2--|--2----2--2--2----2--2--|--L--2--2--2--2----2--2--|
--L--4--4--4--4----4--4--|--2----2--2--2----2--2--|--L--2--2--2--2----2--2--|
--L--4--4--4--4----4--4--|--0----0--0--0----0--0--|--L--0--0--0--0----0--0--|
-------------------------|------------------------|-------------------------|


  Q    E  E  Q    E  E     E  E  E  E  Q    E  E     Q    E  E  Q    E  E   
--0----0--0--0----0--0--|--L--0--0--0--0----0--0--|--0----0--0--0----0--0--|
--0----0--0--0----0--0--|--L--0--0--0--0----0--0--|--3----3--3--3----3--2--|
--4----4--4--4----4--4--|--L--4--4--4--4----4--4--|--4----4--4--4----4--4--|
--4----4--4--4----4--4--|--L--4--4--4--4----4--4--|--4----4--4--4----4--4--|
------------------------|-------------------------|------------------------|
------------------------|-------------------------|------------------------|


  E  E  E  E  Q    E  E     Q    E  E  Q    E  E     E  E  E  E  Q    E  E   
--L--0--0--0--0----0--0--|--2----2--2--2----2--2--|--L--2--2--2--2----2--2--|
--L--2--2--2--2----2--2--|--3----3--3--3----3--3--|--L--3--3--3--3----3--3--|
--L--4--4--4--4----4--4--|--2----2--2--2----2--2--|--L--2--2--2--2----2--2--|
--L--4--4--4--4----4--4--|--0----0--0--0----0--0--|--L--0--0--0--0----0--0--|
-------------------------|--0----0--0--0----0--0--|--L--0--0--0--0----0--0--|
-------------------------|------------------------|-------------------------|


  Q    E  E  Q    E  E     E  E  E  E  Q    E  E     Q    E  E  Q    E  E   
--0----0--0--0----0--0--|--L--0--0--0--0----0--0--|--2----2--2--2----2--2--|
--0----0--0--0----0--0--|--L--0--0--0--0----0--0--|--3----3--3--3----3--3--|
--1----1--1--1----1--1--|--L--1--1--1--1----1--1--|--2----2--2--2----2--2--|
--2----2--2--2----2--2--|--L--2--2--2--2----2--2--|--0----0--0--0----0--0--|
--2----2--2--2----2--2--|--L--2--2--2--2----2--2--|--0----0--0--0----0--0--|
--0----0--0--0----0--0--|--L--0--0--0--0----0--0--|------------------------|


  E  E  E  E  Q    E  E     Q    Q    Q    Q       E  E  E  E  E  E  E  E   
--L--2--2--2--2----2--2--|--0----0----0----0----|--0-----------------------|
--L--3--3--3--3----3--3--|--0----0----0----0----|--0-----------------------|
--L--2--2--2--2----2--2--|--1----1----1----1----|--1-----------------------|
--L--0--0--0--0----0--0--|--2----2----2----2----|--2-----------------------|
--L--0--0--0--0----0--0--|--2----2----2----2----|--2-----------------------|
-------------------------|--0----0----0----0----|--0-----------------------|


  E  E  E  E  E  E  E  E     E  E  E  E  E  E  E  E   
--2--2--2--2--2--2--2--2--|--0--0--0--0--0--0--0--0--|
--2--2--2--2--2--2--2--2--|--0--0--0--0--0--0--0--0--|
--2--2--2--2--2--2--2--2--|--2--2--2--2--2--2--2--2--|
--4--4--4--4--4--4--4--4--|--2--2--2--2--2--2--2--2--|
--4--4--4--4--4--4--4--4--|--0--0--0--0--0--0--0--0--|
--------------------------|--------------------------|


  E  E  E  E  E  E  E  E     E  E  E  E  E  E  E  E   
--0--0--0--0--0--0--0--0--|--0--0--0--0--0--0--0--0--|
--3--3--3--3--3--3--3--3--|--3--3--3--3--3--3--3--3--|
--2--2--2--2--2--2--2--2--|--2--2--2--2--2--2--2--2--|
--0--0--0--0--0--0--0--0--|--0--0--0--0--0--0--0--0--|
--0--0--0--0--0--0--0--0--|--0--0--0--0--0--0--0--0--|
--------------------------|--------------------------|


  E  E  E  E  E  E  E  E     E  E  E  E  E  E  E  E   
--2--2--2--2--2--2--2--2--|--0--0--0--0--0--0--0--0--|
--2--2--2--2--2--2--2--2--|--0--0--0--0--0--0--0--0--|
--2--2--2--2--2--2--2--2--|--2--2--2--2--2--2--2--2--|
--4--4--4--4--4--4--4--4--|--2--2--2--2--2--2--2--2--|
--4--4--4--4--4--4--4--4--|--0--0--0--0--0--0--0--0--|
--------------------------|--------------------------|


  E  E  E  E  E  E  E  E     E  E  E  E  E  E  E  E   
--0--0--0--0--0--0--0--0--|--0--0--0--0--0--0--0--0--|
--3--3--3--3--3--3--3--3--|--3--3--3--3--3--3--3--3--|
--2--2--2--2--2--2--2--2--|--2--2--2--2--2--2--2--2--|
--0--0--0--0--0--0--0--0--|--0--0--0--0--0--0--0--0--|
--0--0--0--0--0--0--0--0--|--0--0--0--0--0--0--0--0--|
--------------------------|--------------------------|


  E  E  E  E  E  E  E  E     E  E  E  E  E  E  E  E     Q    E  E  E  Q    E   
--2--2--2--2--2-----------|--0--0--0--0--0-----------|--0----0--0--0--0----0--|
--2--2--2--2--2-----------|--0--0--0--0--0-----------|--3----3--3--3--3----3--|
--2--2--2--2--2-----------|--2--2--2--2--2-----------|--2----2--2--2--2----2--|
--4--4--4--4--4-----------|--2--2--2--2--2-----------|--0----0--0--0--0----0--|
--4--4--4--4--4-----------|--0--0--0--0--0-----------|--0----0--0--0--0----0--|
--------------------------|--------------------------|------------------------|


  Q    E  E  E  E  E  E     E  E  E  E  E  E  E  E     E  E  E  E  E  E  E  E   
--0----0--0--0--0--0--0--|--0--0--0--0--0--0--0--0--|--0--0--0--0--0--0--0--0--|
--3----3--3--3--3--3--3--|--0--0--0--0--0--0--0--0--|--0--0--0--0--0--0--0--0--|
--2----2--2--2--2--2--2--|--4--4--4--4--4--4--4--4--|--4--4--4--4--4--4--4--4--|
--0----0--0--0--0--0--0--|--4--4--4--4--4--4--4--4--|--4--4--4--4--4--4--4--4--|
--0----0--0--0--0--0--0--|--------------------------|--------------------------|
-------------------------|--------------------------|--------------------------|


  E  E  E  E  E  E  E  E     E  E  E  E  E  E  E  E     W                 
--0--0--0--0--0--0--0--0--|--0--0--0--0--0-----------|--2----------------|
--3--3--3--3--3--3--3--3--|--0--0--0--0--0-----------|--2----------------|
--2--2--2--2--2--2--2--2--|--1--1--1--1--1-----------|--2----------------|
--0--0--0--0--0--0--0--0--|--2--2--2--2--2-----------|--4----------------|
--0--0--0--0--0--0--0--0--|--2--2--2--2--2-----------|--4----------------|
--------------------------|--0--0--0--0--0-----------|-------------------|


  W                   Q    E  E  Q    E  E     E  E  E  E  Q    E  E   
--L----------------|--2----2--2--2----2--2--|--L--2--2--2--2----2--2--|
--L----------------|--2----2--2--2----2--2--|--L--2--2--2--2----2--2--|
--L----------------|--2----2--2--2----2--2--|--L--2--2--2--2----2--2--|
--L----------------|--4----4--4--4----4--4--|--L--4--4--4--4----4--4--|
--L----------------|--4----4--4--4----4--4--|--L--4--4--4--4----4--4--|
-------------------|------------------------|-------------------------|


  Q    E  E  Q    E  E     E  E  E  E  Q    E  E     Q    E  E  Q    E  E   
--0----0--0--0----0--0--|--L--0--0--0--0----0--0--|--0----0--0--0----0--0--|
--2----2--2--2----2--2--|--L--2--2--2--2----2--2--|--0----0--0--0----0--0--|
--2----2--2--2----2--2--|--L--2--2--2--2----2--2--|--4----4--4--4----4--4--|
--2----2--2--2----2--2--|--L--2--2--2--2----2--2--|--4----4--4--4----4--4--|
--0----0--0--0----0--0--|--L--0--0--0--0----0--0--|------------------------|
------------------------|-------------------------|------------------------|


  E  E  E  E  Q    E  E     Q    E  E  Q    E  E     E  E  E  E  Q    E  E   
--L--0--0--0--0----0--0--|--0----0--0--0----0--0--|--L--0--0--0--0----0--0--|
--L--0--0--0--0----0--0--|--3----3--3--3----3--2--|--L--2--2--2--2----2--2--|
--L--4--4--4--4----4--4--|--4----4--4--4----4--4--|--L--4--4--4--4----4--4--|
--L--4--4--4--4----4--4--|--4----4--4--4----4--4--|--L--4--4--4--4----4--4--|
-------------------------|------------------------|-------------------------|
-------------------------|------------------------|-------------------------|


  Q    E  E  Q    E  E     E  E  E  E  Q    E  E     Q    E  E  Q    E  E   
--2----2--2--2----2--2--|--L--2--2--2--2----2--2--|--0----0--0--0----0--0--|
--2----2--2--2----2--2--|--L--2--2--2--2----2--2--|--2----2--2--2----2--2--|
--2----2--2--2----2--2--|--L--2--2--2--2----2--2--|--2----2--2--2----2--2--|
--4----4--4--4----4--4--|--L--4--4--4--4----4--4--|--2----2--2--2----2--2--|
--4----4--4--4----4--4--|--L--4--4--4--4----4--4--|--0----0--0--0----0--0--|
------------------------|-------------------------|------------------------|


  E  E  E  E  Q    E  E     Q    E  E  Q    E  E     E  E  E  E  Q    E  E   
--L--0--0--0--0----0--0--|--0----0--0--0----0--0--|--L--0--0--0--0----0--0--|
--L--2--2--2--2----2--2--|--0----0--0--0----0--0--|--L--0--0--0--0----0--0--|
--L--2--2--2--2----2--2--|--4----4--4--4----4--4--|--L--4--4--4--4----4--4--|
--L--2--2--2--2----2--2--|--4----4--4--4----4--4--|--L--4--4--4--4----4--4--|
--L--0--0--0--0----0--0--|------------------------|-------------------------|
-------------------------|------------------------|-------------------------|


  Q    E  E  Q    E  E     E  E  E  E  Q    E  E     Q    E  E  Q    E  E   
--0----0--0--0----0--0--|--L--0--0--0--0----0--0--|--2----2--2--2----2--2--|
--3----3--3--3----3--2--|--L--2--2--2--2----2--2--|--3----3--3--3----3--3--|
--4----4--4--4----4--4--|--L--4--4--4--4----4--4--|--2----2--2--2----2--2--|
--4----4--4--4----4--4--|--L--4--4--4--4----4--4--|--0----0--0--0----0--0--|
------------------------|-------------------------|--0----0--0--0----0--0--|
------------------------|-------------------------|------------------------|


  E  E  E  E  Q    E  E     Q    Q    Q    Q       E  E  E  E  E  E  E  E   
--L--2--2--2--2----2--2--|--0----0----0----0----|--0-----------------------|
--L--3--3--3--3----3--3--|--0----0----0----0----|--0-----------------------|
--L--2--2--2--2----2--2--|--1----1----1----1----|--1-----------------------|
--L--0--0--0--0----0--0--|--2----2----2----2----|--2-----------------------|
--L--0--0--0--0----0--0--|--2----2----2----2----|--2-----------------------|
-------------------------|--0----0----0----0----|--0-----------------------|


  E  E  E  E  E  E  E  E     E  E  E  E  E  E  E  E   
--2--2--2--2--2--2--2--2--|--0--0--0--0--0--0--0--0--|
--2--2--2--2--2--2--2--2--|--0--0--0--0--0--0--0--0--|
--2--2--2--2--2--2--2--2--|--2--2--2--2--2--2--2--2--|
--4--4--4--4--4--4--4--4--|--2--2--2--2--2--2--2--2--|
--4--4--4--4--4--4--4--4--|--0--0--0--0--0--0--0--0--|
--------------------------|--------------------------|


  E  E  E  E  E  E  E  E     E  E  E  E  E  E  E  E   
--0--0--0--0--0--0--0--0--|--0--0--0--0--0--0--0--0--|
--3--3--3--3--3--3--3--3--|--3--3--3--3--3--3--3--3--|
--2--2--2--2--2--2--2--2--|--2--2--2--2--2--2--2--2--|
--0--0--0--0--0--0--0--0--|--0--0--0--0--0--0--0--0--|
--0--0--0--0--0--0--0--0--|--0--0--0--0--0--0--0--0--|
--------------------------|--------------------------|


  E  E  E  E  E  E  E  E     E  E  E  E  E  E  E  E   
--2--2--2--2--2--2--2--2--|--0--0--0--0--0--0--0--0--|
--2--2--2--2--2--2--2--2--|--0--0--0--0--0--0--0--0--|
--2--2--2--2--2--2--2--2--|--2--2--2--2--2--2--2--2--|
--4--4--4--4--4--4--4--4--|--2--2--2--2--2--2--2--2--|
--4--4--4--4--4--4--4--4--|--0--0--0--0--0--0--0--0--|
--------------------------|--------------------------|


  E  E  E  E  E  E  E  E     E  E  E  E  E  E  E  E   
--0--0--0--0--0--0--0--0--|--0--0--0--0--0--0--0--0--|
--3--3--3--3--3--3--3--3--|--3--3--3--3--3--3--3--3--|
--2--2--2--2--2--2--2--2--|--2--2--2--2--2--2--2--2--|
--0--0--0--0--0--0--0--0--|--0--0--0--0--0--0--0--0--|
--0--0--0--0--0--0--0--0--|--0--0--0--0--0--0--0--0--|
--------------------------|--------------------------|


  E  E  E  E  E  E  E  E     E  E  E  E  E  E  E  E     Q    E  E  E  Q    E   
--2--2--2--2--2-----------|--0--0--0--0--0-----------|--0----0--0--0--0----0--|
--2--2--2--2--2-----------|--0--0--0--0--0-----------|--3----3--3--3--3----3--|
--2--2--2--2--2-----------|--2--2--2--2--2-----------|--2----2--2--2--2----2--|
--4--4--4--4--4-----------|--2--2--2--2--2-----------|--0----0--0--0--0----0--|
--4--4--4--4--4-----------|--0--0--0--0--0-----------|--0----0--0--0--0----0--|
--------------------------|--------------------------|------------------------|


  Q    E  E  E  E  E  E     E  E  E  E  E  E  E  E     E  E  E  E  E  E  E  E   
--0----0--0--0--0--0--0--|--0--0--0--0--0--0--0--0--|--0--0--0--0--0--0--0--0--|
--3----3--3--3--3--3--3--|--0--0--0--0--0--0--0--0--|--0--0--0--0--0--0--0--0--|
--2----2--2--2--2--2--2--|--4--4--4--4--4--4--4--4--|--4--4--4--4--4--4--4--4--|
--0----0--0--0--0--0--0--|--4--4--4--4--4--4--4--4--|--4--4--4--4--4--4--4--4--|
--0----0--0--0--0--0--0--|--------------------------|--------------------------|
-------------------------|--------------------------|--------------------------|


  E  E  E  E  E  E  E  E     E  E  E  E  E  E  E  E     W                 
--0--0--0--0--0--0--0--0--|--0--0--0--0--0-----------|--2----------------|
--3--3--3--3--3--3--3--3--|--0--0--0--0--0-----------|--2----------------|
--2--2--2--2--2--2--2--2--|--1--1--1--1--1-----------|--2----------------|
--0--0--0--0--0--0--0--0--|--2--2--2--2--2-----------|--4----------------|
--0--0--0--0--0--0--0--0--|--2--2--2--2--2-----------|--4----------------|
--------------------------|--0--0--0--0--0-----------|-------------------|


  W                   W                   W                   W                 
--L----------------|--0----------------|--L----------------|--0----------------|
--L----------------|--2----------------|--L----------------|--0----------------|
--L----------------|--2----------------|--L----------------|--4----------------|
--L----------------|--2----------------|--L----------------|--4----------------|
--L----------------|--0----------------|--L----------------|-------------------|
-------------------|-------------------|-------------------|-------------------|


  W                   W                   W                 
--L----------------|--0----------------|--L----------------|
--L----------------|--2----------------|--L----------------|
--L----------------|--4----------------|--L----------------|
--L----------------|--4----------------|--L----------------|
-------------------|-------------------|-------------------|
-------------------|-------------------|-------------------|


  Q    E  E  E  E  E  E     E  E  E  E  E  E  E  E     Q    E  E  E  E  E  E   
--2----2--2--2--2-----2--|--L--2--2--2--2--2--2--2--|--0----0--0--0--0-----0--|
--3----3--3--3--3-----3--|--L--3--3--3--3--3--3--3--|--0----0--0--0--0-----0--|
--2----2--2--2--2-----2--|--L--2--2--2--2--2--2--2--|--1----1--1--1--1-----1--|
--0----0--0--0--0-----0--|--L--0--0--0--0--0--0--0--|--2----2--2--2--2-----2--|
--0----0--0--0--0-----0--|--L--0--0--0--0--0--0--0--|--2----2--2--2--2-----2--|
-------------------------|--------------------------|--0----0--0--0--0-----0--|


  E  E  E  E  E  E  E  E     Q    E  E  E  E  E  E     E  E  E  E  E  E  E  E   
--L--0--0--0--0--0--0--0--|--2----2--2--2--2-----2--|--L--2--2--2--2--2--2--2--|
--L--0--0--0--0--0--0--0--|--3----3--3--3--3-----3--|--L--3--3--3--3--3--3--3--|
--L--1--1--1--1--1--1--1--|--2----2--2--2--2-----2--|--L--2--2--2--2--2--2--2--|
--L--2--2--2--2--2--2--2--|--0----0--0--0--0-----0--|--L--0--0--0--0--0--0--0--|
--L--2--2--2--2--2--2--2--|--0----0--0--0--0-----0--|--L--0--0--0--0--0--0--0--|
--L--0--0--0--0--0--0--0--|-------------------------|--------------------------|


  E  E  E  E  E  E  E  E     E  E  E  E  E  E  E  E   
--0--0--0--0--0--0--0--0--|--0--0--0--0--0-----------|
--0--0--0--0--0--0--0--0--|--0--0--0--0--0-----------|
--1--1--1--1--1--1--1--1--|--1--1--1--1--1-----------|
--2--2--2--2--2--2--2--2--|--2--2--2--2--2-----------|
--2--2--2--2--2--2--2--2--|--2--2--2--2--2-----------|
--0--0--0--0--0--0--0--0--|--0--0--0--0--0-----------|


(Increase tuning to F# B  E  A  C# F#)
  E  E  E  E  E  E  E  E     E  E  E  E  E  E  E  E   
--2--2--2--2--2--2--2--2--|--0--0--0--0--0--0--0--0--|
--2--2--2--2--2--2--2--2--|--0--0--0--0--0--0--0--0--|
--2--2--2--2--2--2--2--2--|--2--2--2--2--2--2--2--2--|
--4--4--4--4--4--4--4--4--|--2--2--2--2--2--2--2--2--|
--4--4--4--4--4--4--4--4--|--0--0--0--0--0--0--0--0--|
--------------------------|--------------------------|


  E  E  E  E  E  E  E  E     E  E  E  E  E  E  E  E   
--0--0--0--0--0--0--0--0--|--0--0--0--0--0--0--0--0--|
--3--3--3--3--3--3--3--3--|--3--3--3--3--3--3--3--3--|
--2--2--2--2--2--2--2--2--|--2--2--2--2--2--2--2--2--|
--0--0--0--0--0--0--0--0--|--0--0--0--0--0--0--0--0--|
--0--0--0--0--0--0--0--0--|--0--0--0--0--0--0--0--0--|
--------------------------|--------------------------|


  E  E  E  E  E  E  E  E     E  E  E  E  E  E  E  E   
--2--2--2--2--2--2--2--2--|--0--0--0--0--0--0--0--0--|
--2--2--2--2--2--2--2--2--|--0--0--0--0--0--0--0--0--|
--2--2--2--2--2--2--2--2--|--2--2--2--2--2--2--2--2--|
--4--4--4--4--4--4--4--4--|--2--2--2--2--2--2--2--2--|
--4--4--4--4--4--4--4--4--|--0--0--0--0--0--0--0--0--|
--------------------------|--------------------------|


  E  E  E  E  E  E  E  E     E  E  E  E  E  E  E  E   
--0--0--0--0--0--0--0--0--|--0--0--0--0--0--0--0--0--|
--3--3--3--3--3--3--3--3--|--3--3--3--3--3--3--3--3--|
--2--2--2--2--2--2--2--2--|--2--2--2--2--2--2--2--2--|
--0--0--0--0--0--0--0--0--|--0--0--0--0--0--0--0--0--|
--0--0--0--0--0--0--0--0--|--0--0--0--0--0--0--0--0--|
--------------------------|--------------------------|


  E  E  E  E  E  E  E  E     E  E  E  E  E  E  E  E     Q    E  E  E  Q    E   
--2--2--2--2--2-----------|--0--0--0--0--0-----------|--0----0--0--0--0----0--|
--2--2--2--2--2-----------|--0--0--0--0--0-----------|--3----3--3--3--3----3--|
--2--2--2--2--2-----------|--2--2--2--2--2-----------|--2----2--2--2--2----2--|
--4--4--4--4--4-----------|--2--2--2--2--2-----------|--0----0--0--0--0----0--|
--4--4--4--4--4-----------|--0--0--0--0--0-----------|--0----0--0--0--0----0--|
--------------------------|--------------------------|------------------------|


  Q    E  E  E  E  E  E     E  E  E  E  E  E  E  E     E  E  E  E  E  E  E  E   
--0----0--0--0--0--0--0--|--0--0--0--0--0--0--0--0--|--0--0--0--0--0--0--0--0--|
--3----3--3--3--3--3--3--|--0--0--0--0--0--0--0--0--|--0--0--0--0--0--0--0--0--|
--2----2--2--2--2--2--2--|--4--4--4--4--4--4--4--4--|--4--4--4--4--4--4--4--4--|
--0----0--0--0--0--0--0--|--4--4--4--4--4--4--4--4--|--4--4--4--4--4--4--4--4--|
--0----0--0--0--0--0--0--|--------------------------|--------------------------|
-------------------------|--------------------------|--------------------------|


  E  E  E  E  E  E  E  E     E  E  E  E  E  E  E  E   
--0--0--0--0--0--0--0--0--|--0--0--0--0--0--0--0--0--|
--3--3--3--3--3--3--3--3--|--0--0--0--0--0--0--0--0--|
--2--2--2--2--2--2--2--2--|--1--1--1--1--1--1--1--1--|
--0--0--0--0--0--0--0--0--|--2--2--2--2--2--2--2--2--|
--0--0--0--0--0--0--0--0--|--2--2--2--2--2--2--2--2--|
--------------------------|--0--0--0--0--0--0--0--0--|


  E  E  E  E  E  E  E  E     E  E  E  E  E  E  E  E   
--2--2--2--2--2--2--2--2--|--0--0--0--0--0--0--0--0--|
--2--2--2--2--2--2--2--2--|--0--0--0--0--0--0--0--0--|
--2--2--2--2--2--2--2--2--|--2--2--2--2--2--2--2--2--|
--4--4--4--4--4--4--4--4--|--2--2--2--2--2--2--2--2--|
--4--4--4--4--4--4--4--4--|--0--0--0--0--0--0--0--0--|
--------------------------|--------------------------|


  E  E  E  E  E  E  E  E     E  E  E  E  E  E  E  E   
--0--0--0--0--0--0--0--0--|--0--0--0--0--0--0--0--0--|
--3--3--3--3--3--3--3--3--|--3--3--3--3--3--3--3--3--|
--2--2--2--2--2--2--2--2--|--2--2--2--2--2--2--2--2--|
--0--0--0--0--0--0--0--0--|--0--0--0--0--0--0--0--0--|
--0--0--0--0--0--0--0--0--|--0--0--0--0--0--0--0--0--|
--------------------------|--------------------------|


  E  E  E  E  E  E  E  E     E  E  E  E  E  E  E  E   
--2--2--2--2--2--2--2--2--|--0--0--0--0--0--0--0--0--|
--2--2--2--2--2--2--2--2--|--0--0--0--0--0--0--0--0--|
--2--2--2--2--2--2--2--2--|--2--2--2--2--2--2--2--2--|
--4--4--4--4--4--4--4--4--|--2--2--2--2--2--2--2--2--|
--4--4--4--4--4--4--4--4--|--0--0--0--0--0--0--0--0--|
--------------------------|--------------------------|


  E  E  E  E  E  E  E  E     E  E  E  E  E  E  E  E   
--0--0--0--0--0--0--0--0--|--0--0--0--0--0--0--0--0--|
--3--3--3--3--3--3--3--3--|--3--3--3--3--3--3--3--3--|
--2--2--2--2--2--2--2--2--|--2--2--2--2--2--2--2--2--|
--0--0--0--0--0--0--0--0--|--0--0--0--0--0--0--0--0--|
--0--0--0--0--0--0--0--0--|--0--0--0--0--0--0--0--0--|
--------------------------|--------------------------|


  E  E  E  E  E  E  E  E     E  E  E  E  E  E  E  E     Q    E  E  E  Q    E   
--2--2--2--2--2-----------|--0--0--0--0--0-----------|--0----0--0--0--0----0--|
--2--2--2--2--2-----------|--0--0--0--0--0-----------|--3----3--3--3--3----3--|
--2--2--2--2--2-----------|--2--2--2--2--2-----------|--2----2--2--2--2----2--|
--4--4--4--4--4-----------|--2--2--2--2--2-----------|--0----0--0--0--0----0--|
--4--4--4--4--4-----------|--0--0--0--0--0-----------|--0----0--0--0--0----0--|
--------------------------|--------------------------|------------------------|


  Q    E  E  E  E  E  E     E  E  E  E  E  E  E  E     E  E  E  E  E  E  E  E   
--0----0--0--0--0--0--0--|--0--0--0--0--0--0--0--0--|--0--0--0--0--0--0--0--0--|
--3----3--3--3--3--3--3--|--0--0--0--0--0--0--0--0--|--0--0--0--0--0--0--0--0--|
--2----2--2--2--2--2--2--|--4--4--4--4--4--4--4--4--|--4--4--4--4--4--4--4--4--|
--0----0--0--0--0--0--0--|--4--4--4--4--4--4--4--4--|--4--4--4--4--4--4--4--4--|
--0----0--0--0--0--0--0--|--------------------------|--------------------------|
-------------------------|--------------------------|--------------------------|


  E  E  E  E  E  E  E  E     E  E  E  E  E  E  E  E   
--0--0--0--0--0--0--0--0--|--0--0--0--0--0--0--0--0--|
--3--3--3--3--3--3--3--3--|--3--3--3--3--3--3--3--3--|
--2--2--2--2--2--2--2--2--|--2--2--2--2--2--2--2--2--|
--0--0--0--0--0--0--0--0--|--0--0--0--0--0--0--0--0--|
--0--0--0--0--0--0--0--0--|--0--0--0--0--0--0--0--0--|
--------------------------|--------------------------|


  E  E  E  E  E  E  E  E     E  E  E  E  E  E  E  E   
--0--0--0--0--0--0--0--0--|--0--0--0--0--0--0--0--0--|
--0--0--0--0--0--0--0--0--|--0--0--0--0--0--0--0--0--|
--4--4--4--4--4--4--4--4--|--4--4--4--4--4--4--4--4--|
--4--4--4--4--4--4--4--4--|--4--4--4--4--4--4--4--4--|
--------------------------|--------------------------|
--------------------------|--------------------------|


  E  E  E  E  E  E  E  E     E  E  E  E  E  E  E  E     W                 
--0--0--0--0--0--0--0--0--|--0--0--------0--0--------|--2----------------|
--3--3--3--3--3--3--3--3--|--0--0--------0--0--------|--2----------------|
--2--2--2--2--2--2--2--2--|--1--1--------1--1--------|--2----------------|
--0--0--0--0--0--0--0--0--|--2--2--------2--2--------|--4----------------|
--0--0--0--0--0--0--0--0--|--2--2--------2--2--------|--4----------------|
--------------------------|--0--0--------0--0--------|-------------------|


  W                   W                   W                  
--L----------------|--L----------------|--L----------------||
--L----------------|--L----------------|--L----------------||
--L----------------|--L----------------|--L----------------||
--L----------------|--L----------------|--L----------------||
--L----------------|--L----------------|--L----------------||
-------------------|-------------------|-------------------||


Duration Legend
---------------
W - whole
H - half
Q - quarter
E - 8th
S - 16th
T - 32nd
X - 64th
. - note dotted
|-n-|  - n-tuplets


Tablature Legend
----------------
L - tied note
x - dead note
g - grace note
(n) - ghost note
> - accentuded note
NH - natural harmonic
AH - artificial harmonic
TH - tapped harmonic
SH - semi harmonic
PH - pitch harmonic
h - hammer on
p - pull off
b - bend
br - bendRelease
pb - preBend
pbr - preBendRelease
brb - bendReleaseBend
\n/ - tremolo bar dip
\n - tremolo bar dive
-/n - tremolo bar Release up
/n\ - tremolo bar inverted dip
/n - tremolo bar return
-\n - tremolo bar Release down
S - shift slide
s - legato slide
/ -  slide into from below or out of upwards
\ -  slide into from above or out of downwards
~ - vibrato
W - wide vibrato
tr - trill
TP - tremolo picking
T - tapping
S - slap
P - pop
< - fade in
^ - brush up
v - brush down


That is all! I hope this helped, and be sure to check out my cover if you are
having problems with the tab. Thanks, oh and one last thing... ROCK OUT!!!!
comments
We did not receive enough feedback on this tab! Please rate:
print report bad tab
1 2 3 4 5
I want to post or [tab]
guest
You may want to rate the tab now too:
select rating
Please do not post tabs as comments. Select "correction" instead!