Oops, an error
Loading. Please wait.

Nothing You Didnt Deserve Tab

ver1
ver1

Album

Whole song

More versions @911Tabs.com
487 views 6 this week
no commentswrite comment
1 2 3 4 5
please rate
Autoscroll
+/-
esc
set tempo
stop
Contributor
Difficulty
intermediate
WARNING: You are trying to view
                                    content from Ultimate-Guitar.com
                                    in an unauthorized application,
                                    which is prohibited.

                                    Please use an official Ultimate
                                    Guitar Tabs application for iPhone,
                                    iPad or Android to access legitimate
                                    chords, guitar, bass, and drum tabs
                                    from Ultimate-Guitar.com database.

                                    Type "ultimate guitar tabs" in Apple
                                    App Store's or Android Market's
                                    search to find the application.
----------------------------------------------------------------------------
                     Nothing You Didn’t Deserve EP
                             Heartist
----------------------------------------------------------------------------

“Nothing You Didn’t Deserve” is hands down the greatest debut EP of all time in my
books. Even though power behind the lyrics are viewed as the driving force behind Heartist,
the instrumentals are more complex and interesting than most people think. For one, the 
drums are difficult to play and are complicated. The guitar parts are so fun to play and
have a way to sticking in your brain. And of course, the lyrics are beyond anything I 
have ever heard. Enjoy!

Username: dkm817 (same on X box live)
Youtube Cover: http://www.youtube.com/watch?v=93s2wkeR7PY
Email: guitardrums@rockfan.com


============================================================================
============================================================================


----------------------------------------------------------------------------
                           Disconnected
                             Heartist
----------------------------------------------------------------------------


Guitar 1 Rhythmic (C G C F A D)
Guitar 2 Lead     (C G C F A D)

NOTE: This was exported off of guitar pro.


Guitar 1

                         PM        PM
             Q     E  E  E   E  E  E     E  E  Q    Q    Q
D||-------|---------------------------|-----------------------|
A||-------|-------10--------10--------|-----------------------|
F||-------|---------------------------|-----------------------|
C||-------|-----------7---------7-----|--7--8-----------------|
G||-------|--------------0---------0--|-----------------------|
C||-------|---------------------------|-----------------------|


             PM                                                 PM        PM
  Q    E  E  E  E  E  E     E  E  Q    Q    Q       Q     E  E  E   E  E  E
-------5-----------5--6--|-----------------------|---------------------------|
----------------8--------|--8--------------------|-------10--------10--------|
----------0--0-----------|-----------------------|---------------------------|
-------------------------|-----------------------|-----------7---------7-----|
-------------------------|-----------------------|--------------0---------0--|
-------------------------|-----------------------|---------------------------|


                                       PM
  E  E   E  E  Q    Q       Q    E  E  E  E  E  E     E  E  E  E  E  E  E  E
-------------------------|-------5--------5--------|--------------------------|
--------11---------------|-------------------------|--------------------------|
-------------------------|----------0--0-----0-----|--------------------------|
--7--8-------------------|-------------------------|-----------------------0--|
-------------------------|-------------------------|-----------------------0--|
-------------------------|-------------------------|--0--8--5--0--7--3--0--0--|


     PM PM PM PM PM
  E  E  E  E  E  E  E  E     E  E  E  E  E  E  E  E
--------------------------|--------------------------|
--------------------------|--------------------------|
--------------------------|--------------------------|
--0--0--0--0--0--0--------|-----------------------0--|
--0--0--0--0--0--0--------|-----------------------0--|
--0--0--0--0--0--0--5--7--|--0--8--5--0--7--3--0--0--|


     PM PM PM PM PM
  E  E  E  E  E  E  E  E     E  E  E  E  E  E  E  E
--------------------------|--------------------------|
--------------------------|--------------------------|
--------------------------|--------------------------|
--0--0--0--0--0--0--------|-----------------------0--|
--0--0--0--0--0--0--------|-----------------------0--|
--0--0--0--0--0--0--3--5--|--0--8--5--0--7--3--0--0--|


     PM PM PM PM PM                                        PM PM PM PM PM
  E  E  E  E  E  E  E  E     E  E  E  E  E  E  E  E     E  E  E  E  E  E  Q
--------------------------|--------------------------|-------------------------|
--------------------------|--------------------------|-------------------------|
--------------------------|--------------------------|-------------------------|
--0--0--0--0--0--0--------|-----------------------0--|--0--0--0--0--0--0--7----|
--0--0--0--0--0--0--------|-----------------------0--|--0--0--0--0--0--0--4----|
--0--0--0--0--0--0--5--7--|--0--8--5--0--7--3--0--0--|--0--0--0--0--0--0-------|


     PM PM    PM PM    PM    PM    PM PM    PM     PM
  E  E  E  E  E  E  E  E     E  E  E  E  E  E   E  E
--------------------------|---------------------------|
--------------------------|---------------------------|
--------------------------|---------------------------|
--------------------------|---------------------------|
--------------------------|-----1--------------10-----|
--0--0--0--3--0--0--0--0--|--0-----0--0--0--0------0--|


     PM PM    PM PM    PM    PM    PM PM    PM     PM
  E  E  E  E  E  E  E  E     E  E  E  E  E  E   E  E
--------------------------|---------------------------|
--------------------------|---------------------------|
--------------------------|---------------------------|
--------------------------|--------------------10-----|
--------------------------|-----1---------------------|
--0--0--0--3--0--0--0--0--|--0-----0--0--0--0------0--|


     PM PM    PM PM    PM    PM    PM PM    PM     PM
  E  E  E  E  E  E  E  E     E  E  E  E  E  E   E  E
--------------------------|---------------------------|
--------------------------|---------------------------|
--------------------------|---------------------------|
--------------------------|---------------------------|
--------------------------|-----1--------------10-----|
--0--0--0--3--0--0--0--0--|--0-----0--0--0--0------0--|


     PM PM    PM PM    PM    PM    PM PM    PM     PM
  E  E  E  E  E  E  E  E     E  E  E  E  E  E   E  E
--------------------------|---------------------------|
--------------------------|---------------------------|
--------------------------|---------------------------|
--------------------------|--------------------10-----|
--------------------------|-----1---------------------|
--0--0--0--3--0--0--0--0--|--0-----0--0--0--0------0--|


  E  E  E  E  E  E  E  E     E  E  E  E  E  E  E  E
--------------------------|--------------------------|
--------------------------|--------------------------|
--7--7--7--7--7--7--7--7--|--7--7--7--7--7--7--7--7--|
--7--7--7--7--7--7--7--7--|--7--7--7--7--7--7--7--7--|
--0--0--0--0--0--0--0--0--|--0--0--0--0--0--0--0--0--|
--0--0--0--0--0--0--0--0--|--0--0--0--0--0--0--0--0--|


  PM PM       PM PM PM PM          PM PM PM PM PM PM
  E  E  E  E  E  E  E  E     E  E  E  E  E  E  E  E
--------------------------|--------------------------|
--------------------------|--------------------------|
--------------------------|--------------------------|
--0--0--------0--0--0--0--|--------0--0--0--0--0--0--|
--0--0--------0--0--0--0--|--------0--0--0--0--0--0--|
--0--0--------0--0--0--0--|--------0--0--0--0--0--0--|


  PM PM       PM PM PM PM                PM PM PM PM
  E  E  E  E  E  E  E  E     E  E  E  E  E  E  E  E
--------------------------|--------------------------|
--------------------------|--------------------------|
--------------------------|--------------------------|
--0--0--------0--0--0--0--|--------------0--0--0--0--|
--0--0--------0--0--0--0--|--------------0--0--0--0--|
--0--0--------0--0--0--0--|--------------0--0--0--0--|


  PM PM       PM PM PM PM          PM PM PM PM PM PM
  E  E  E  E  E  E  E  E     E  E  E  E  E  E  E  E
--------------------------|--------------------------|
--------------------------|--------------------------|
--------------------------|--------------------------|
--0--0--------0--0--0--0--|--------0--0--0--0--0--0--|
--0--0--------0--0--0--0--|--------0--0--0--0--0--0--|
--0--0--------0--0--0--0--|--------0--0--0--0--0--0--|


  PM PM       PM PM PM PM
  E  E  E  E  E  E  E  E     W                   E  E  E  E  E  E  E  E
--------------------------|-------------------|--------------------------|
--------------------------|-------------------|--------------------------|
--------------------------|-------------------|--------------------------|
--0--0--------0--0--0--0--|-------------------|--7--3--------------3--2--|
--0--0--------0--0--0--0--|-------------------|--------------1--0--------|
--0--0--------0--0--0--0--|-------------------|--------------------------|


  E  E  E  E  E  E  E  E     E  E  E  E  E  E  E  E
--------------------------|--------------------------|
--------------------------|--------------------------|
--------------------------|--------------------------|
--------------5--2--------|--7--3--------------3--2--|
--------1--0--------3--0--|--------------1--0--------|
--------------------------|--------------------------|


  E  E  E  E  E  E  E  E     E  E  E  E  E  E  E  E
--------------------------|--------------------------|
--------------------------|--------------------------|
--------------------------|--------------------------|
--------------3--2--5--2--|--7--3--------------3--2--|
--------1--0--------------|--------------1--0--------|
--------------------------|--------------------------|


  E  E  E  E  E  E  E  E     E  E  E  E  E  E  E  E
--------------------------|--------------------------|
--------------------------|--------------------------|
--------------------------|--------------------------|
--------------5--2--------|--7--3--------------3--2--|
--------1--0--------3--0--|--------------1--0--------|
--------------------------|--------------------------|


  E  E  E  E  E  E  E  E     W                   W
--------------------------|-------------------|-------------------|
--------------------------|-------------------|-------------------|
--------------------------|-------------------|-------------------|
--------------5-----------|--0----------------|--L----------------|
--------1--0--------------|--0----------------|--L----------------|
--------------------------|--0----------------|--L----------------|


                           PM   PM PM PM PM
  W                   Q    Q    E  E  E  E     E  E  E  E  E  E  E  E
-------------------|------------------------|--------------------------|
-------------------|------------------------|--------------------------|
--3----------------|------------------------|--3--3--3--3--3--3--3--3--|
--3----------------|--3----0----0--0--0--0--|--3--3--3--3--3--3--3--3--|
--1----------------|--3----0----0--0--0--0--|--1--1--1--1--1--1--1--1--|
-------------------|--3----0----0--0--0--0--|--------------------------|


  E  E  E  E  E  E  E  E     E  E  E  E  E  E  E  E
--------------------------|--------------------------|
--------------------------|--------------------------|
--3--3--3--3--3--3--3--3--|--5--5--5--5--5--5--5--5--|
--3--3--3--3--3--3--3--3--|--5--5--5--5--5--5--5--5--|
--1--1--1--1--1--1--1--1--|--3--3--3--3--3--3--3--3--|
--------------------------|--------------------------|


  E  E  E  E  E  E  E  E     E  E  E  E  E  E  E  E
--------------------------|--------------------------|
--------------------------|--------------------------|
--5--5--5--5--5--5--5--5--|--------------------------|
--5--5--5--5--5--5--5--5--|--0--0--0--0--0--0--0--0--|
--3--3--3--3--3--3--3--3--|--0--0--0--0--0--0--0--0--|
--------------------------|--0--0--0--0--0--0--0--0--|


  E  E  E  E  E  E  E  E     E  E  E  E  E  E  E  E
--------------------------|--------------------------|
--------------------------|--------------------------|
--------------------------|--------------------------|
--0--0--0--0--0--0--0--0--|--0--0--0--0--0--0--0--0--|
--0--0--0--0--0--0--0--0--|--0--0--0--0--0--0--0--0--|
--0--0--0--0--0--0--0--0--|--0--0--0--0--0--0--0--0--|


  E  E  E  E  E  E  E  E     E  E  E  E  E  E  E  E
--------------------------|--------------------------|
--------------------------|--------------------------|
--------------------------|--3--3--3--3--3--3--3--3--|
--0--0--0--0--0--0--0--0--|--3--3--3--3--3--3--3--3--|
--0--0--0--0--0--0--0--0--|--1--1--1--1--1--1--1--1--|
--0--0--0--0--0--0--0--0--|--------------------------|


  E  E  E  E  E  E  E  E     E  E  E  E  E  E  E  E
--------------------------|--------------------------|
--------------------------|--------------------------|
--3--3--3--3--3--3--3--3--|--5--5--5--5--5--5--5--5--|
--3--3--3--3--3--3--3--3--|--5--5--5--5--5--5--5--5--|
--1--1--1--1--1--1--1--1--|--3--3--3--3--3--3--3--3--|
--------------------------|--------------------------|


  E  E  E  E  E  E  E  E     E  E  E  E  E  E  E  E
--------------------------|--------------------------|
--------------------------|--------------------------|
--5--5--5--5--5--5--5--5--|--------------------------|
--5--5--5--5--5--5--5--5--|--0--0--0--0--0--0--0--0--|
--3--3--3--3--3--3--3--3--|--0--0--0--0--0--0--0--0--|
--------------------------|--0--0--0--0--0--0--0--0--|


  E  E  E  E  E  E  E  E     E  E  E  E  E  E  E  E
--------------------------|--------------------------|
--------------------------|--------------------------|
--------------------------|--------------------------|
--0--0--0--0--0--0--0--0--|--0--0--0--0--0--0--0--0--|
--0--0--0--0--0--0--0--0--|--0--0--0--0--0--0--0--0--|
--0--0--0--0--0--0--0--0--|--0--0--0--0--0--0--0--0--|


  E  E  E  E  E  E  E  E     E  E  E  E  E  E  E  E
--------------------------|--------------------------|
--------------------------|--------------------------|
--------------------------|--------------------------|
--0--0--0--0--0--0--0--0--|-----------------------0--|
--0--0--0--0--0--0--0--0--|-----------------------0--|
--0--0--0--0--0--0--0--0--|--0--8--5--0--7--3--0--0--|


     PM PM PM PM PM
  E  E  E  E  E  E  E  E     E  E  E  E  E  E  E  E
--------------------------|--------------------------|
--------------------------|--------------------------|
--------------------------|--------------------------|
--0--0--0--0--0--0--------|-----------------------0--|
--0--0--0--0--0--0--------|-----------------------0--|
--0--0--0--0--0--0--5--7--|--0--8--5--0--7--3--0--0--|


     PM PM PM PM PM
  E  E  E  E  E  E  E  E     E  E  E  E  E  E  E  E
--------------------------|--------------------------|
--------------------------|--------------------------|
--------------------------|--------------------------|
--0--0--0--0--0--0--------|-----------------------0--|
--0--0--0--0--0--0--------|-----------------------0--|
--0--0--0--0--0--0--3--5--|--0--8--5--0--7--3--0--0--|


     PM PM PM PM PM                                        PM PM PM
  E  E  E  E  E  E  E  E     E  E  E  E  E  E  E  E     E  E  E  E  H
--------------------------|--------------------------|------------------------|
--------------------------|--------------------------|------------------------|
--------------------------|--------------------------|------------------------|
--0--0--0--0--0--0--------|-----------------------0--|--0--0--0--0--0/--------|
--0--0--0--0--0--0--------|-----------------------0--|--0--0--0--0------------|
--0--0--0--0--0--0--5--7--|--0--8--5--0--7--3--0--0--|--0--0--0--0------------|


     PM PM    PM PM    PM    PM    PM PM    PM     PM
  E  E  E  E  E  E  E  E     E  E  E  E  E  E   E  E
--------------------------|---------------------------|
--------------------------|---------------------------|
--------------------------|---------------------------|
--------------------------|---------------------------|
--------------------------|-----1--------------10-----|
--0--0--0--3--0--0--0--0--|--0-----0--0--0--0------0--|


     PM PM    PM PM    PM    PM    PM PM    PM     PM
  E  E  E  E  E  E  E  E     E  E  E  E  E  E   E  E
--------------------------|---------------------------|
--------------------------|---------------------------|
--------------------------|---------------------------|
--------------------------|--------------------10-----|
--------------------------|-----1---------------------|
--0--0--0--3--0--0--0--0--|--0-----0--0--0--0------0--|


     PM PM    PM PM    PM    PM    PM PM    PM     PM
  E  E  E  E  E  E  E  E     E  E  E  E  E  E   E  E
--------------------------|---------------------------|
--------------------------|---------------------------|
--------------------------|---------------------------|
--------------------------|---------------------------|
--------------------------|-----1--------------10-----|
--0--0--0--3--0--0--0--0--|--0-----0--0--0--0------0--|


  S S S S S S S S S S S S S S S S    S S S S S S S S E  E  E  E
----------------------------------|------------------------------|
--6-6-6-6-6-6-6-6-6-6-6-6-6-6-6-6-|--6-6-6-6-6-6-6-6-------------|
--x-x-x-x-x-x-x-x-x-x-x-x-x-x-x-x-|--x-x-x-x-x-x-x-x-------------|
--3-3-3-3-3-3-3-3-3-3-3-3-3-3-3-3-|--3-3-3-3-3-3-3-3-------------|
--5-5-5-5-5-5-5-5-5-5-5-5-5-5-5-5-|--5-5-5-5-5-5-5-5-------------|
----------------------------------|------------------------------|


  PM PM       PM PM PM PM          PM PM PM PM PM PM
  E  E  E  E  E  E  E  E     E  E  E  E  E  E  E  E
--------------------------|--------------------------|
--------------------------|--------------------------|
--------------------------|--------------------------|
--0--0--L--L--0--0--0--0--|--L--L--0--0--0--0--0--0--|
--0--0--L--L--0--0--0--0--|--L--L--0--0--0--0--0--0--|
--0--0--L--L--0--0--0--0--|--L--L--0--0--0--0--0--0--|


  PM PM       PM PM PM PM                PM PM PM PM PM
  E  E  E  E  E  E  E  E     E  E  E  E  S  S  E  E  E
--------------------------|-----------------------------|
--------------------------|-----------------------------|
--------------------------|-----------------------------|
--0--0--L--L--0--0--0--0--|--L--L--L--L--0--0--0--0--0--|
--0--0--L--L--0--0--0--0--|--L--L--L--L--0--0--0--0--0--|
--0--0--L--L--0--0--0--0--|--L--L--L--L--0--0--0--0--0--|


  PM PM PM       PM PM PM PM          PM PM PM PM PM PM
  S  S  E  E  E  E  E  E  E     E  E  E  E  E  E  E  E
-----------------------------|--------------------------|
-----------------------------|--------------------------|
-----------------------------|--------------------------|
--0--0--0--------0--0--0--0--|--------0--0--0--0--0--0--|
--0--0--0--------0--0--0--0--|--------0--0--0--0--0--0--|
--0--0--0--------0--0--0--0--|--------0--0--0--0--0--0--|


  PM PM       PM PM PM PM                PM PM PM PM
  E  E  E  E  E  E  E  E     E  E  E  E  E  E  E  E
--------------------------|--------------------------|
--------------------------|--------------------------|
--------------------------|--------------------------|
--0--0--------0--0--0--0--|--------------0--0--0--0--|
--0--0--------0--0--0--0--|--------------0--0--0--0--|
--0--0--------0--0--0--0--|--------------0--0--0--0--|


  E  E  E  E  E  E  E  E     E  E  E  E  E  E  E  E
--------------------------|--------------------------|
--------------------------|--------------------------|
--------------------------|--------------------------|
--7--3--------------3--2--|--------------5--2--------|
--------------1--0--------|--------1--0--------3--0--|
--------------------------|--------------------------|


  E  E  E  E  E  E  E  E     E  E  E  E  E  E  E  E
--------------------------|--------------------------|
--------------------------|--------------------------|
--------------------------|--------------------------|
--7--3--------------3--2--|--------------3--2--5--2--|
--------------1--0--------|--------1--0--------------|
--------------------------|--------------------------|


  E  E  E  E  E  E  E  E     E  E  E  E  E  E  E  E
--------------------------|--------------------------|
--------------------------|--------------------------|
--------------------------|--------------------------|
--7--3--------------3--2--|--------------5--2--------|
--------------1--0--------|--------1--0--------3--0--|
--------------------------|--------------------------|


  E  E  E  E  E  E  E  E     E  E  E  E  E  E  E  E
--------------------------|--------------------------|
--------------------------|--------------------------|
--------------------------|--------------------------|
--7--3--------------3--2--|--------------5-----------|
--------------1--0--------|--------1--0--------------|
--------------------------|--------------------------|


  E  E  E  E  E  E  E  E     E  E  E  E  E  E  E  E
--------------------------|--------------------------|
--------------------------|--------------------------|
--3--3--3--3--3--3--3--3--|--3--3--3--3--3--3--3--3--|
--3--3--3--3--3--3--3--3--|--3--3--3--3--3--3--3--3--|
--1--1--1--1--1--1--1--1--|--1--1--1--1--1--1--1--1--|
--------------------------|--------------------------|


  E  E  E  E  E  E  E  E     E  E  E  E  E  E  E  E
--------------------------|--------------------------|
--------------------------|--------------------------|
--5--5--5--5--5--5--5--5--|--5--5--5--5--5--5--5--5--|
--5--5--5--5--5--5--5--5--|--5--5--5--5--5--5--5--5--|
--3--3--3--3--3--3--3--3--|--3--3--3--3--3--3--3--3--|
--------------------------|--------------------------|


  E  E  E  E  E  E  E  E     E  E  E  E  E  E  E  E
--------------------------|--------------------------|
--------------------------|--------------------------|
--------------------------|--------------------------|
--0--0--0--0--0--0--0--0--|--0--0--0--0--0--0--0--0--|
--0--0--0--0--0--0--0--0--|--0--0--0--0--0--0--0--0--|
--0--0--0--0--0--0--0--0--|--0--0--0--0--0--0--0--0--|


  E  E  E  E  E  E  E  E     E  E  E  E  E  E  E  E
--------------------------|--------------------------|
--------------------------|--------------------------|
--------------------------|--------------------------|
--0--0--0--0--0--0--0--0--|--0--0--0--0--0--0--0--0--|
--0--0--0--0--0--0--0--0--|--0--0--0--0--0--0--0--0--|
--0--0--0--0--0--0--0--0--|--0--0--0--0--0--0--0--0--|


  E  E  E  E  E  E  E  E     E  E  E  E  E  E  E  E
--------------------------|--------------------------|
--------------------------|--------------------------|
--3--3--3--3--3--3--3--3--|--3--3--3--3--3--3--3--3--|
--3--3--3--3--3--3--3--3--|--3--3--3--3--3--3--3--3--|
--1--1--1--1--1--1--1--1--|--1--1--1--1--1--1--1--1--|
--------------------------|--------------------------|


  E  E  E  E  E  E  E  E     E  E  E  E  E  E  E  E
--------------------------|--------------------------|
--------------------------|--------------------------|
--5--5--5--5--5--5--5--5--|--5--5--5--5--5--5--5--5--|
--5--5--5--5--5--5--5--5--|--5--5--5--5--5--5--5--5--|
--3--3--3--3--3--3--3--3--|--3--3--3--3--3--3--3--3--|
--------------------------|--------------------------|


  E  E  E  E  E  E  E  E     E  E  E  E  E  E  E  E
--------------------------|--------------------------|
--------------------------|--------------------------|
--------------------------|--------------------------|
--0--0--0--0--0--0--0--0--|--0--0--0--0--0--0--0--0--|
--0--0--0--0--0--0--0--0--|--0--0--0--0--0--0--0--0--|
--0--0--0--0--0--0--0--0--|--0--0--0--0--0--0--0--0--|


  E  E  E  E  E  E  E  E     E  E  E  E  E  E  E  E
--------------------------|--------------------------|
--------------------------|--------------------------|
--------------------------|--------------------------|
--0--0--0--0--0--0--0--0--|--0--0--0--0--0--0--0--0--|
--0--0--0--0--0--0--0--0--|--0--0--0--0--0--0--0--0--|
--0--0--0--0--0--0--0--0--|--0--0--0--0--0--0--0--0--|


  E  E  E  E  E  E  E  E     E  E  E  E  E  E  E  E
--------------------------|--------------------------|
--------------------------|--------------------------|
--3--3--3--3--3--3--3--3--|--3--3--3--3--3--3--3--3--|
--3--3--3--3--3--3--3--3--|--3--3--3--3--3--3--3--3--|
--1--1--1--1--1--1--1--1--|--1--1--1--1--1--1--1--1--|
--------------------------|--------------------------|


  E  E  E  E  E  E  E  E     E  E  E  E  E  E  E  E     Q    S Q    S Q    E
--------------------------|--------------------------|------------------------|
--------------------------|--------------------------|------------------------|
--------------------------|--------------------------|---------7----L-6----3--|
--5--5--5--5--5--5--5--5--|--5--5--5--5--5--5--5--5--|--0----L-7----L-6----3--|
--5--5--5--5--5--5--5--5--|--5--5--5--5--5--5--5--5--|--0----L-5----L-4----1--|
--5--5--5--5--5--5--5--5--|--5--5--5--5--5--5--5--5--|--0----L----------------|


  H        H           W                   W
--------------------|-------------------|-------------------|
--------------------|-------------------|-------------------|
--L--------6--------|-------------------|-------------------|
--L--------6--------|--0----------------|--L----------------|
--L--------4--------|--0----------------|--L----------------|
--------------------|--0----------------|--L----------------|


  W                   W                   W                   W
-------------------|-------------------|-------------------|-------------------|
-------------------|-------------------|-------------------|-------------------|
-------------------|-------------------|-------------------|-------------------|
--L----------------|--L----------------|--0----------------|--L----------------|
--L----------------|--L----------------|--0----------------|--L----------------|
--L----------------|--L----------------|--0----------------|--L----------------|


  W                   W                   E  E  E  E  E  E  E  E
-------------------|-------------------|--------------------------|
-------------------|-------------------|--------------------------|
-------------------|-------------------|--3--3--3--3--3--3--3--3--|
--L----------------|--L----------------|--3--3--3--3--3--3--3--3--|
--L----------------|--L----------------|--1--1--1--1--1--1--1--1--|
--L----------------|--L----------------|--------------------------|


  E  E  E  E  E  E  E  E     E  E  E  E  E  E  E  E
--------------------------|--------------------------|
--------------------------|--------------------------|
--3--3--3--3--3--3--3--3--|--3--3--3--3--3--3--3--3--|
--3--3--3--3--3--3--3--3--|--3--3--3--3--3--3--3--3--|
--1--1--1--1--1--1--1--1--|--1--1--1--1--1--1--1--1--|
--------------------------|--------------------------|


  E  E  E  E  E  E  E  E     E  E  E  E  E  E  E  E
--------------------------|--------------------------|
--------------------------|--------------------------|
--3--3--3--3--3--3--3--3--|--------------------------|
--3--3--3--3--3--3--3--3--|--5--5--5--5--5--5--5--5--|
--1--1--1--1--1--1--1--1--|--5--5--5--5--5--5--5--5--|
--------------------------|--5--5--5--5--5--5--5--5--|


  E  E  E  E  E  E  E  E     E  E  E  E  E  E  E  E
--------------------------|--------------------------|
--------------------------|--------------------------|
--------------------------|--------------------------|
--5--5--5--5--5--5--5--5--|--5--5--5--5--5--5--5--5--|
--5--5--5--5--5--5--5--5--|--5--5--5--5--5--5--5--5--|
--5--5--5--5--5--5--5--5--|--5--5--5--5--5--5--5--5--|


                             PM
  E  E  E  E  E  E  E  E     W                   W
--------------------------|-------------------|-------------------|
--------------------------|-------------------|-------------------|
--------------------------|-------------------|-------------------|
--5--5--5--5--5--5--5--5--|--0----------------|--L----------------|
--5--5--5--5--5--5--5--5--|--0----------------|--L----------------|
--5--5--5--5--5--5--5--5--|--0----------------|--L----------------|


  PM PM PM PM PM PM     PM PM   PM   PM   PM
  S  S  S  S  S  S  S S S  S  S S  S S  S S
---------------------------------------------|
---------------------------------------------|
---------------------------------------------|
--0--0--0--0--0--0------0--0----0--L-0--L-0--|
--0--0--0--0--0--0------0--0----0--L-0--L-0--|
--0--0--0--0--0--0------0--0----0--L-0--L-0--|


    PM PM PM PM PM     PM PM PM PM   PM   PM
  S S  S  S  S  S  S S S  S  S  S  S S  S S
---------------------------------------------|
---------------------------------------------|
---------------------------------------------|
--L-0--0--0--0--0------0--0--0--0--L-0--L-0--|
--L-0--0--0--0--0------0--0--0--0--L-0--L-0--|
--L-0--0--0--0--0------0--0--0--0--L-0--L-0--|


    PM PM PM PM PM     PM PM PM PM   PM   PM
  S S  S  S  S  S  S S S  S  S  S  S S  S S
---------------------------------------------|
---------------------------------------------|
---------------------------------------------|
--L-0--0--0--0--0------0--0--0--0--L-0--L-0--|
--L-0--0--0--0--0------0--0--0--0--L-0--L-0--|
--L-0--0--0--0--0------0--0--0--0--L-0--L-0--|


    PM   PM PM PM PM PM PM PM PM PM PM PM PM PM
  S S  S S  S  S  S  S  S  S  S  S  S  S  S  S
------------------------------------------------|
------------------------------------------------|
------------------------------------------------|
--L-0--L-0--0--0--0--0--0--0--0--0--0--0--0--0--|
--L-0--L-0--0--0--0--0--0--0--0--0--0--0--0--0--|
--L-0--L-0--0--0--0--0--0--0--0--0--0--0--0--0--|


      PM PM PM PM     PM PM   PM   PM   PM
  S S S  S  S  S  S S S  S  S S  S S  S S
-------------------------------------------|
-------------------------------------------|
-------------------------------------------|
------0--0--0--0------0--0----0--L-0--L-0--|
------0--0--0--0------0--0----0--L-0--L-0--|
------0--0--0--0------0--0----0--L-0--L-0--|


    PM PM PM PM PM     PM PM PM PM   PM   PM
  S S  S  S  S  S  S S S  S  S  S  S S  S S
---------------------------------------------|
---------------------------------------------|
---------------------------------------------|
--L-0--0--0--0--0------0--0--0--0--L-0--L-0--|
--L-0--0--0--0--0------0--0--0--0--L-0--L-0--|
--L-0--0--0--0--0------0--0--0--0--L-0--L-0--|


    PM PM PM PM PM     PM PM PM PM   PM   PM
  S S  S  S  S  S  S S S  S  S  S  S S  S S
---------------------------------------------|
---------------------------------------------|
---------------------------------------------|
--L-0--0--0--0--0------0--0--0--0--L-0--L-0--|
--L-0--0--0--0--0------0--0--0--0--L-0--L-0--|
--L-0--0--0--0--0------0--0--0--0--L-0--L-0--|


    PM   PM PM PM PM PM PM PM PM PM PM PM PM PM                  PM PM PM
  S S  S S  S  S  S  S  S  S  S  S  S  S  S  S     H        Q    S  S  E
------------------------------------------------|-------------------------|
------------------------------------------------|-------------------------|
------------------------------------------------|-------------------------|
--L-0--L-0--0--0--0--0--0--0--0--0--0--0--0--0--|----------------0--0--0--|
--L-0--L-0--0--0--0--0--0--0--0--0--0--0--0--0--|----------------0--0--0--|
--L-0--L-0--0--0--0--0--0--0--0--0--0--0--0--0--|----------------0--0--0--|


                          PM PM PM PM     PM PM PM PM     PM PM
  W                   S S S  S  S  S  S S S  S  S  S  S S S  S
-------------------|--------------------------------------------|
-------------------|--------------------------------------------|
-------------------|--------------------------------------------|
-------------------|------0--0--0--0------0--0--0--0------0--0--|
-------------------|------0--0--0--0------0--0--0--0------0--0--|
-------------------|------0--0--0--0------0--0--0--0------0--0--|


  PM PM     PM PM PM PM     PM PM PM PM PM PM
  S  S  S S S  S  S  S  S S S  S  S  S  S  S
----------------------------------------------|
----------------------------------------------|
----------------------------------------------|
--0--0------0--0--0--0------0--0--0--0--0--0--|
--0--0------0--0--0--0------0--0--0--0--0--0--|
--0--0------0--0--0--0------0--0--0--0--0--0--|


      PM PM PM PM     PM PM PM PM     PM PM
  S S S  S  S  S  S S S  S  S  S  S S S  S
--------------------------------------------|
--------------------------------------------|
--------------------------------------------|
------0--0--0--0------0--0--0--0------0--0--|
------0--0--0--0------0--0--0--0------0--0--|
------0--0--0--0------0--0--0--0------0--0--|


  PM PM     PM PM PM PM
  S  S  S S S  S  S  S  E   S E  S E     E   S E  S E
--------------------------------------|----------------|
--------------------------------------|----------------|
--------------------------------------|----------------|
--0--0------0--0--0--0----------------|----------------|
--0--0------0--0--0--0----------------|----------------|
--0--0------0--0--0--0--5b--L-5--L-3--|--5b--L-5--L-3--|


      PM PM PM PM     PM PM PM PM     PM PM
  S S S  S  S  S  S S S  S  S  S  S S S  S
--------------------------------------------|
--------------------------------------------|
--------------------------------------------|
------0--0--0--0--L-L-0--0--0--0--L-L-0--0--|
------0--0--0--0--L-L-0--0--0--0--L-L-0--0--|
--L-L-0--0--0--0--L-L-0--0--0--0--L-L-0--0--|


  PM PM     PM PM PM PM
  S  S  S S S  S  S  S  S S S S S S S S
----------------------------------------|
----------------------------------------|
----------------------------------------|
--0--0--L-L-0--0--0--0--L-L-L-L-L-L-L-L-|
--0--0--L-L-0--0--0--0--L-L-L-L-L-L-L-L-|
--0--0--L-L-0--0--0--0--L-L-L-L-L-L-L-L-|


      PM PM PM PM     PM PM PM PM     PM PM
  S S S  S  S  S  S S S  S  S  S  S S S  S
--------------------------------------------|
--------------------------------------------|
--------------------------------------------|
--L-L-0--0--0--0--L-L-0--0--0--0--L-L-0--0--|
--L-L-0--0--0--0--L-L-0--0--0--0--L-L-0--0--|
--L-L-0--0--0--0--L-L-0--0--0--0--L-L-0--0--|


  PM PM     PM PM PM PM
  S  S  S S S  S  S  S  E   S E  S E
--------------------------------------|
--------------------------------------|
--------------------------------------|
--0--0--L-L-0--0--0--0----------------|
--0--0--L-L-0--0--0--0----------------|
--0--0--L-L-0--0--0--0--5b--L-5--L-3--|


      PM PM PM PM     PM PM PM PM     PM PM
  S S S  S  S  S  S S S  S  S  S  S S S  S
--------------------------------------------|
--------------------------------------------|
--------------------------------------------|
------0--0--0--0--L-L-0--0--0--0--L-L-0--0--|
------0--0--0--0--L-L-0--0--0--0--L-L-0--0--|
--L-L-0--0--0--0--L-L-0--0--0--0--L-L-0--0--|


  PM PM     PM PM PM PM
  S  S  S S S  S  S  S  S S S S S S S S
----------------------------------------|
----------------------------------------|
----------------------------------------|
--0--0--L-L-0--0--0--0--L-L-L-L-L-L-L-L-|
--0--0--L-L-0--0--0--0--L-L-L-L-L-L-L-L-|
--0--0--L-L-0--0--0--0--L-L-L-L-L-L-L-L-|


      PM PM PM PM     PM PM PM PM     PM PM
  S S S  S  S  S  S S S  S  S  S  S S S  S
--------------------------------------------|
--------------------------------------------|
--------------------------------------------|
--L-L-0--0--0--0--L-L-0--0--0--0--L-L-0--0--|
--L-L-0--0--0--0--L-L-0--0--0--0--L-L-0--0--|
--L-L-0--0--0--0--L-L-0--0--0--0--L-L-0--0--|


  PM PM     PM PM PM PM
  S  S  S S S  S  S  S  E   S E  S E     E   S E  S E
--------------------------------------|----------------|
--------------------------------------|----------------|
--------------------------------------|----------------|
--0--0--L-L-0--0--0--0----------------|----------------|
--0--0--L-L-0--0--0--0----------------|----------------|
--0--0--L-L-0--0--0--0--5b--L-5--L-3--|--5b--L-5--L-3--|


  E  E  E  E  E  E  E  E     E  E  E  E  E  E  E  E
--5--5--5--5--5--5--5--5--|--5--5--5--5--5--5--5--5--|
--3--3--3--3--3--3--3--3--|--3--3--3--3--3--3--3--3--|
--2--2--2--2--2--2--2--2--|--2--2--2--2--2--2--2--2--|
--0--0--0--0--0--0--0--0--|--0--0--0--0--0--0--0--0--|
--0--0--0--0--0--0--0--0--|--0--0--0--0--0--0--0--0--|
--0--0--0--0--0--0--0--0--|--0--0--0--0--0--0--0--0--|


  E  E  E  E  E  E  E  E     E  E  E  E  E  E  E  E
--5--5--5--5--5--5--5--5--|--5--5--5--5--5--5--------|
--3--3--3--3--3--3--3--3--|--3--3--3--3--3--3--------|
--2--2--2--2--2--2--2--2--|--2--2--2--2--2--2--------|
--0--0--0--0--0--0--0--0--|--0--0--0--0--0--0--------|
--0--0--0--0--0--0--0--0--|--0--0--0--0--0--0--------|
--0--0--0--0--0--0--0--0--|--0--0--0--0--0--0--------|


   E   Q     E   Q     E   E     E   E   Q     E   E   Q
------------------------------|-----------------------------|
--15--18----15--17----15--18--|--L--15--17----17--18--17----|
------------------------------|-----------------------------|
------------------------------|-----------------------------|
------------------------------|-----------------------------|
------------------------------|-----------------------------|


   E   Q     E   Q     E   E     E   E   E   E   E   E   E   E
------17--------15------------|-----------------17--15----------|
--15--------15--------15--18--|--L--15--17--18----------18--17--|
------------------------------|---------------------------------|
------------------------------|---------------------------------|
------------------------------|---------------------------------|
------------------------------|---------------------------------|


  E  E  E  E  E  E  E  E     E  E  E  E  E  E  E  E
--------------------------|--------------------------|
--------------------------|--------------------------|
--------------------------|--------------------------|
--0--0--0--0--0--0--0--0--|--0--0--0--0--0--0--0--0--|
--0--0--0--0--0--0--0--0--|--0--0--0--0--0--0--0--0--|
--0--0--0--0--0--0--0--0--|--0--0--0--0--0--0--0--0--|


  E  E  E  E  E  E  E  E     E  E  E  E  E  E  E  E
--------------------------|--------------------------|
--------------------------|--------------------------|
--------------------------|--------------------------|
--0--0--0--0--0--0--0--0--|--0--0--0--0--0--0--0--0--|
--0--0--0--0--0--0--0--0--|--0--0--0--0--0--0--0--0--|
--0--0--0--0--0--0--0--0--|--0--0--0--0--0--0--0--0--|


  E  E  E  E  E  E  E  E     E  E  E  E  E  E  E  E
--------------------------|--------------------------|
--------------------------|--------------------------|
--3--3--3--3--3--3--3--3--|--3--3--3--3--3--3--3--3--|
--3--3--3--3--3--3--3--3--|--3--3--3--3--3--3--3--3--|
--1--1--1--1--1--1--1--1--|--1--1--1--1--1--1--1--1--|
--------------------------|--------------------------|


  E  E  E  E  E  E  E  E     E  E  E  E  E  E  E  E
--------------------------|--------------------------|
--------------------------|--------------------------|
--5--5--5--5--5--5--5--5--|--5--5--5--5--5--5--5--5--|
--5--5--5--5--5--5--5--5--|--5--5--5--5--5--5--5--5--|
--3--3--3--3--3--3--3--3--|--3--3--3--3--3--3--3--3--|
--------------------------|--------------------------|


  E  E  E  E  E  E  E  E     E  E  E  E  E  E  E  E
--------------------------|--------------------------|
--------------------------|--------------------------|
--------------------------|--------------------------|
--0--0--0--0--0--0--0--0--|--0--0--0--0--0--0--0--0--|
--0--0--0--0--0--0--0--0--|--0--0--0--0--0--0--0--0--|
--0--0--0--0--0--0--0--0--|--0--0--0--0--0--0--0--0--|


  E  E  E  E  E  E  E  E     E  E  E  E  E  E  E  E
--------------------------|--------------------------|
--------------------------|--------------------------|
--------------------------|--------------------------|
--0--0--0--0--0--0--0--0--|--0--0--0--0--0--0--0--0--|
--0--0--0--0--0--0--0--0--|--0--0--0--0--0--0--0--0--|
--0--0--0--0--0--0--0--0--|--0--0--0--0--0--0--0--0--|


  E  E  E  E  E  E  E  E     E  E  E  E  E  E  E  E
--------------------------|--------------------------|
--------------------------|--------------------------|
--3--3--3--3--3--3--3--3--|--3--3--3--3--3--3--3--3--|
--3--3--3--3--3--3--3--3--|--3--3--3--3--3--3--3--3--|
--1--1--1--1--1--1--1--1--|--1--1--1--1--1--1--1--1--|
--------------------------|--------------------------|


  E  E  E  E  E  E  E  E     E  E  E  E  E  E  E  E
--------------------------|--------------------------|
--------------------------|--------------------------|
--5--5--5--5--5--5--5--5--|--5--5--5--5--5--5--5--5--|
--5--5--5--5--5--5--5--5--|--5--5--5--5--5--5--5--5--|
--3--3--3--3--3--3--3--3--|--3--3--3--3--3--3--3--3--|
--------------------------|--------------------------|


  E  E  E  E  E  E  E  E     E  E  E  E  E  E  E  E
--------------------------|--------------------------|
--------------------------|--------------------------|
--------------------------|--------------------------|
--0--0--0--0--0--0--0--0--|--0--0--0--0--0--0--0--0--|
--0--0--0--0--0--0--0--0--|--0--0--0--0--0--0--0--0--|
--0--0--0--0--0--0--0--0--|--0--0--0--0--0--0--0--0--|


  E  E  E  E  E  E  E  E     E  E  E  E  E  E  E  E
--------------------------|--------------------------|
--------------------------|--------------------------|
--------------------------|--------------------------|
--0--0--0--0--0--0--0--0--|--0--0--0--0--0--0--0--0--|
--0--0--0--0--0--0--0--0--|--0--0--0--0--0--0--0--0--|
--0--0--0--0--0--0--0--0--|--0--0--0--0--0--0--0--0--|


  E  E  E  E  E  E  E  E     E  E  E  E  E  E  E  E
--------------------------|--------------------------|
--------------------------|--------------------------|
--3--3--3--3--3--3--3--3--|--3--3--3--3--3--3--3--3--|
--3--3--3--3--3--3--3--3--|--3--3--3--3--3--3--3--3--|
--1--1--1--1--1--1--1--1--|--1--1--1--1--1--1--1--1--|
--------------------------|--------------------------|


  E  E  E  E  E  E  E  E     E  E  E  E  E  E  E  E
--------------------------|--------------------------|
--------------------------|--------------------------|
--5--5--5--5--5--5--5--5--|--5--5--5--5--5--5--5--5--|
--5--5--5--5--5--5--5--5--|--5--5--5--5--5--5--5--5--|
--3--3--3--3--3--3--3--3--|--3--3--3--3--3--3--3--3--|
--------------------------|--------------------------|


  E  E  E  E  E  E  E  E     E  E  E  E  E  E  E  E
--------------------------|--------------------------|
--------------------------|--------------------------|
--------------------------|--------------------------|
--0--0--0--0--0--0--0--0--|--0--0--0--0--0--0--0--0--|
--0--0--0--0--0--0--0--0--|--0--0--0--0--0--0--0--0--|
--0--0--0--0--0--0--0--0--|--0--0--0--0--0--0--0--0--|


  E  E  E  E  E  E  E  E     E  E  E  E  E  E  E  E
--------------------------|--------------------------|-----|-----|-----|-----|
--------------------------|--------------------------|-----|-----|-----|-----|
--------------------------|--------------------------|-----|-----|-----|-----|
--0--0--0--0--0--0--0--0--|--0--0--0--0--0--0--0--0--|-----|-----|-----|-----|
--0--0--0--0--0--0--0--0--|--0--0--0--0--0--0--0--0--|-----|-----|-----|-----|
--0--0--0--0--0--0--0--0--|--0--0--0--0--0--0--0--0--|-----|-----|-----|-----|


                                      PM      PM PM PM PM PM PM
                                      Q    E  E  S  S  S  S  E  E
-----|-----|-----|-----|-----|-----|-------------------------------|
-----|-----|-----|-----|-----|-----|-------------------------------|
-----|-----|-----|-----|-----|-----|-------------------------------|
-----|-----|-----|-----|-----|-----|--0----L--0--0--0--0--0--0--L--|
-----|-----|-----|-----|-----|-----|--0----L--0--0--0--0--0--0--L--|
-----|-----|-----|-----|-----|-----|--0----L--0--0--0--0--0--0--L--|


     PM   PM PM PM PM PM PM       PM      PM PM PM PM PM PM
  E  Q    E  S  S  S  S  E  E     Q    E  E  S  S  S  S  E  E
-------------------------------|-------------------------------|
-------------------------------|-------------------------------|
-------------------------------|-------------------------------|
--L--0----0--0--0--0--0--0--L--|--0----L--0--0--0--0--0--0--L--|
--L--0----0--0--0--0--0--0--L--|--0----L--0--0--0--0--0--0--L--|
--L--0----0--0--0--0--0--0--L--|--0----L--0--0--0--0--0--0--L--|


                               PH                PM PM PM PM PM
   |--3--|
   S  S  S E  E  E  E  E  E    E      Q    E  E  S  S  S  S  E  E
-----------------------------------|-------------------------------|
-----------------------------------|-------------------------------|
-----------------------------------|-------------------------------|
--10-12-10-0--7--------7--5--<>6b--|-------------0--0--0--0--0--L--|
-----------------8--5--------------|-------------0--0--0--0--0--L--|
-----------------------------------|-------------0--0--0--0--0--L--|


     PM   PM PM PM PM PM PM       PM      PM PM PM PM PM PM
  E  Q    E  S  S  S  S  E  E     Q    E  E  S  S  S  S  E  E
-------------------------------|-------------------------------|
-------------------------------|-------------------------------|
-------------------------------|-------------------------------|
--L--0----0--0--0--0--0--0--L--|--0----L--0--0--0--0--0--0--L--|
--L--0----0--0--0--0--0--0--L--|--0----L--0--0--0--0--0--0--L--|
--L--0----0--0--0--0--0--0--L--|--0----L--0--0--0--0--0--0--L--|


                          PM PM
   |--3--|
   S  S  S E  E  E  E  E  E  E     W
--------------------------------|-------------------||
--------------------------------|-------------------||
--------------------------------|-------------------||
--10-12-10-0--7--------7--0--0--|-------------------||
-----------------8--5-----0--0--|-------------------||
--------------------------0--0--|-------------------||


Guitar 2

      S  S  S  S  S   S   S  S  S  S  S  S  S  S   S    S
D||--------------------------------------------------------|
A||--15-15-15-15-15-(15)-15-15-15-15-15-15-15-15-(15)-(15)-|
F||--------------------------------------------------------|
C||--------------------------------------------------------|
G||--------------------------------------------------------|
C||--------------------------------------------------------|


   S  S  S  S  S   S   S  S  S  S  S  S  S  S   S    S
--------------------------------------------------------|
--10-10-10-10-10-(10)-10-10-10-10-10-10-10-10-(10)-(10)-|
--------------------------------------------------------|
--------------------------------------------------------|
--------------------------------------------------------|
--------------------------------------------------------|


   S  S  S  S  S   S   S  S  S  S  S  S  S  S   S    S
--------------------------------------------------------|
--11-11-11-11-11-(11)-11-11-11-11-11-11-11-11-(11)-(11)-|
--------------------------------------------------------|
--------------------------------------------------------|
--------------------------------------------------------|
--------------------------------------------------------|


   S  S  S  S  S   S   S  S  S  S  S  S  S  S   S    S
--------------------------------------------------------|
--------------------------------------------------------|
--12-12-12-12-12-(12)-12-12-12-12-12-12-12-12-(12)-(12)-|
--------------------------------------------------------|
--------------------------------------------------------|
--------------------------------------------------------|


   S  S  S  S  S   S   S  S  S  S  S  S  S  S   S    S
--------------------------------------------------------|
--15-15-15-15-15-(15)-15-15-15-15-15-15-15-15-(15)-(15)-|
--------------------------------------------------------|
--------------------------------------------------------|
--------------------------------------------------------|
--------------------------------------------------------|


   S  S  S  S  S   S   S  S  S  S  S  S  S  S   S    S
--------------------------------------------------------|
--10-10-10-10-10-(10)-10-10-10-10-10-10-10-10-(10)-(10)-|
--------------------------------------------------------|
--------------------------------------------------------|
--------------------------------------------------------|
--------------------------------------------------------|


   S  S  S  S  S   S   S  S  S  S  S  S  S  S   S    S
--------------------------------------------------------|
--11-11-11-11-11-(11)-11-11-11-11-11-11-11-11-(11)-(11)-|
--------------------------------------------------------|
--------------------------------------------------------|
--------------------------------------------------------|
--------------------------------------------------------|


   S  S  S  S  S   S   S  S  S  S  S  S  S  S   S    S
--------------------------------------------------------|
--------------------------------------------------------|
--12-12-12-12-12-(12)-12-12-12-12-12-12-12-12-(12)-(12)-|
--------------------------------------------------------|
--------------------------------------------------------|
--------------------------------------------------------|


   S  S  S  S  S  S  S  S  S  S  S  S  S  S  S  S
--22-22-22-22-22-22-22-22-22-22-22-22-22-22-22-22-|
--------------------------------------------------|
--------------------------------------------------|
--------------------------------------------------|
--------------------------------------------------|
--------------------------------------------------|


   S  S  S  S  S  S  S  S  S  S  S  S  S  S  S  S
--------------------------------------------------|
--22-22-22-22-22-22-22-22-22-22-22-22-22-22-22-22-|
--------------------------------------------------|
--------------------------------------------------|
--------------------------------------------------|
--------------------------------------------------|


   S  S  S  S  S  S  S  S  S  S  S  S  S  S  S  S
--------------------------------------------------|
--23-23-23-23-23-23-23-23-23-23-23-23-23-23-23-23-|
--------------------------------------------------|
--------------------------------------------------|
--------------------------------------------------|
--------------------------------------------------|


   S  S  S  S  S  S  S  S  S  S  S  S  S  S  S  S
--------------------------------------------------|
--20-20-20-20-20-20-20-20-20-20-20-20-20-20-20-20-|
--------------------------------------------------|
--------------------------------------------------|
--------------------------------------------------|
--------------------------------------------------|


   S  S  S  S  S  S  S  S  S  S  S  S  S  S  S  S
--22-22-22-22-22-22-22-22-22-22-22-22-22-22-22-22-|
--------------------------------------------------|
--------------------------------------------------|
--------------------------------------------------|
--------------------------------------------------|
--------------------------------------------------|


   S  S  S  S  S  S  S  S  S  S  S  S  S  S  S  S
--------------------------------------------------|
--22-22-22-22-22-22-22-22-22-22-22-22-22-22-22-22-|
--------------------------------------------------|
--------------------------------------------------|
--------------------------------------------------|
--------------------------------------------------|


   S  S  S  S  S  S  S  S  S  S  S  S  S  S  S  S
--------------------------------------------------|
--23-23-23-23-23-23-23-23-23-23-23-23-23-23-23-23-|
--------------------------------------------------|
--------------------------------------------------|
--------------------------------------------------|
--------------------------------------------------|


                                                        PM PM    PM PM    PM
   S  S  S  S  S  S  S  S  S  S  S  S  S  S  S  S    E  E  E  E  E  E  E  E
--------------------------------------------------|--------------------------|
--20-20-20-20-20-20-20-20-20-20-20-20-20-20-20-20-|--------------------------|
--------------------------------------------------|--------------------------|
--------------------------------------------------|--------------------------|
--------------------------------------------------|--------------------------|
--------------------------------------------------|--0--0--0--3--0--0--0--0--|


  PM    PM PM    PM    PM       PM PM    PM PM    PM
  E  E  E  E  E  E  E  E     E  E  E  E  E  E  E  E
--------------------------|--------------------------|
--------------------------|--------------------------|
--------------------------|--------------------------|
--------------------------|--------------------------|
-----1--------------7-----|--------------------------|
--0-----0--0--0--0-----0--|--0--0--0--3--0--0--0--0--|


  PM    PM PM    PM    PM       PM PM    PM PM    PM
  E  E  E  E  E  E  E  E     E  E  E  E  E  E  E  E
--------------------------|--------------------------|
--------------------------|--------------------------|
--------------------------|--------------------------|
--------------------5-----|--------------------------|
-----1--------------------|--------------------------|
--0-----0--0--0--0-----0--|--0--0--0--3--0--0--0--0--|


  PM    PM PM    PM    PM       PM PM    PM PM    PM
  E  E  E  E  E  E  E  E     E  E  E  E  E  E  E  E
--------------------------|--------------------------|
--------------------------|--------------------------|
--------------------------|--------------------------|
--------------------------|--------------------------|
-----1--------------7-----|--------------------------|
--0-----0--0--0--0-----0--|--0--0--0--3--0--0--0--0--|


  PM    PM PM    PM    PM
  E  E  E  E  E  E  E  E     E  E  E  E  E  E  E  E
--------------------------|--------------------------|
--------------------------|--------------------------|
--------------------------|--------------7--7--7--7--|
--------------------5-----|--------------7--7--7--7--|
-----1--------------------|--------------0--0--0--0--|
--0-----0--0--0--0-----0--|--------------0--0--0--0--|


  E  E  E  E  E  E  E  E      E   E   E   E   E   E   E   E
--------------------------|----------------------------------|
--------------------------|--10--10--10--10--10--10--10--10--|
--7--7--7--7--7--7--7--7--|---7---7---7---7---7---7---7---7--|
--7--7--7--7--7--7--7--7--|---7---7---7---7---7---7---7---7--|
--0--0--0--0--0--0--0--0--|----------------------------------|
--0--0--0--0--0--0--0--0--|----------------------------------|


   E   E   E   E   E   E   E   E     E  E  E  E  E  E  E  E
----------------------------------|--------------------------|
--10--10--10--10--10--10--10--10--|--------------------------|
---7---7---7---7---7---7---7---7--|--9-----9-----9-----9-----|
---7---7---7---7---7---7---7---7--|-----7-----7-----7-----7--|
----------------------------------|--------------------------|
----------------------------------|--------------------------|


  E  E  E  E  E  E  E  E      E   E   E   E   E   E   E   E
--------------------------|----------------------------------|
--------------------------|--10--10--10--10--10--10--10--10--|
--9-----9-----9-----9-----|--10--10--10--10--10--10--10--10--|
-----7-----7-----7-----7--|---7---7---7---7---7---7---7---7--|
--------------------------|----------------------------------|
--------------------------|----------------------------------|


   E   E   E   E   E   E   E   E     E  E  E  E  E  E  E  E
----------------------------------|--------------------------|
--10--10--10--10--10--10--10--10--|--------------------------|
--10--10--10--10--10--10--10--10--|--9-----9-----9-----9-----|
---7---7---7---7---7---7---7---7--|-----7-----7-----7-----7--|
----------------------------------|--------------------------|
----------------------------------|--------------------------|


  E  E  E  E  E  E  E  E      E   E   E   E   E   E   E   E
--------------------------|----------------------------------|
--------------------------|--10--10--10--10--10--10--10--10--|
--9-----9-----9-----9-----|---7---7---7---7---7---7---7---7--|
-----7-----7-----7-----7--|---7---7---7---7---7---7---7---7--|
--------------------------|----------------------------------|
--------------------------|----------------------------------|


   E   E   E   E   E   E   E   E     E  E  E  E  E  E  E  E
----------------------------------|--------------------------|
--10--10--10--10--10--10--10--10--|--------------------------|
---7---7---7---7---7---7---7---7--|--9-----9-----9-----9-----|
---7---7---7---7---7---7---7---7--|-----7-----7-----7-----7--|
----------------------------------|--------------------------|
----------------------------------|--------------------------|


  E  E  E  E  E  E  E  E     E  E  E  E  E  E  E  E
--------------------------|--------------------------|
--------------------------|--------------------------|
--9-----9-----9-----9-----|--------------------------|
-----7-----7-----7-----7--|--7--3--------------3--2--|
--------------------------|--------------1--0--------|
--------------------------|--------------------------|


  E  E  E  E  E  E  E  E     E  E  E  E  E  E  E  E
--------------------------|--------------------------|
--------------------------|--------------------------|
--------------------------|--------------------------|
--------------5--2--------|--7--3--------------3--2--|
--------1--0--------3--0--|--------------1--0--------|
--------------------------|--------------------------|


  E  E  E  E  E  E  E  E     W                   W
--------------------------|-------------------|-------------------|
--------------------------|--6----------------|--L----------------|
--------------------------|--x----------------|-------------------|
--------------5-----------|--3----------------|--L----------------|
--------1--0--------------|-------------------|-------------------|
--------------------------|-------------------|-------------------|


  W                   W                    E   E   E   E   E   E   E   E
-------------------|-------------------|--------------12--13--12----------|
--8----------------|-------------------|----------15--------------15------|
--x----------------|--5----------------|--14--12----------------------12--|
--5----------------|--x----------------|----------------------------------|
-------------------|--3----------------|----------------------------------|
-------------------|-------------------|----------------------------------|


   E   E   E   E   E   E   E   E      E   E   E   E   E   E   E   E
--------------12--13--12----------|----------------------------------|
----------15--------------15------|--17--13----------------------13--|
--14--12----------------------12--|----------14--------------14------|
----------------------------------|--------------15--14--15----------|
----------------------------------|----------------------------------|
----------------------------------|----------------------------------|


   E   E   E   E   E   E   E   E      E   E   E   E   E   E   E   E
----------------------------------|--13--10--------------------------|
--17--13----------------------13--|----------10----------------------|
----------14--------------14------|--------------10--------------10--|
--------------15--14--15----------|------------------12--10--12------|
----------------------------------|----------------------------------|
----------------------------------|----------------------------------|


   E   E   E   E   E   E   E   E      E   E   E   E   E   E   E   E
--13--10--------------------------|----------------------------------|
----------10----------------------|----------------------------------|
--------------10--------------10--|--14--10--------------------------|
------------------12--10--12------|----------12--------------10--12--|
----------------------------------|--------------12--10--12----------|
----------------------------------|----------------------------------|


   E   E   E   E   E   E   E   E      E   E   E   E   E   E   E   E
----------------------------------|----------------------------------|
----------------------------------|--15--13--------------------------|
--17--12------------------12--14--|----------14----------------------|
----------14------12--14----------|--------------15--14--12--14--15--|
--------------15------------------|----------------------------------|
----------------------------------|----------------------------------|


   E   E   E   E   E   E   E   E      E   E   E   E   E   E   E   E
----------------------------------|----------------------------------|
------------------------------13--|--17--13--------------------------|
--14----------------------14------|----------14----------------------|
------15--14--12--14--15----------|--------------15--14--12--14--15--|
----------------------------------|----------------------------------|
----------------------------------|----------------------------------|


   E   E   E   E   E   E   E   E      E   E   E   E   E   E   E   E
----------------------------------|----------------------------------|
------------------------------13--|--18--13--------------------------|
--14----------------------14------|----------14----------------------|
------15--14--12--14--15----------|--------------15--14--12--14--15--|
----------------------------------|----------------------------------|
----------------------------------|----------------------------------|


   E   E   E   E   E   E   E   E      E   E   E   E   E   E   E   E
----------------------------------|----------------------------------|
------------------------------13--|----------------------------------|
--14----------------------14------|--14--10--------------------------|
------15--14--12--14--15----------|----------12--------------10--12--|
----------------------------------|--------------12--10--12----------|
----------------------------------|----------------------------------|


   E   E   E   E   E   E   E   E
----------------------------------|
----------------------------------|
--17--12------------------12--14--|
----------14------12--14----------|
--------------15------------------|
----------------------------------|


   S  S  S  S  S  S  S  S  S  S  S  S  S  S  S  S
--22-22-22-22-22-22-22-22-22-22-22-22-22-22-22-22-|
--------------------------------------------------|
--------------------------------------------------|
--------------------------------------------------|
--------------------------------------------------|
--------------------------------------------------|


   S  S  S  S  S  S  S  S  S  S  S  S  S  S  S  S
--------------------------------------------------|
--22-22-22-22-22-22-22-22-22-22-22-22-22-22-22-22-|
--------------------------------------------------|
--------------------------------------------------|
--------------------------------------------------|
--------------------------------------------------|


   S  S  S  S  S  S  S  S  S  S  S  S  S  S  S  S
--------------------------------------------------|
--23-23-23-23-23-23-23-23-23-23-23-23-23-23-23-23-|
--------------------------------------------------|
--------------------------------------------------|
--------------------------------------------------|
--------------------------------------------------|


   S  S  S  S  S  S  S  S  S  S  S  S  S  S  S  S
--------------------------------------------------|
--20-20-20-20-20-20-20-20-20-20-20-20-20-20-20-20-|
--------------------------------------------------|
--------------------------------------------------|
--------------------------------------------------|
--------------------------------------------------|


   S  S  S  S  S  S  S  S  S  S  S  S  S  S  S  S
--22-22-22-22-22-22-22-22-22-22-22-22-22-22-22-22-|
--------------------------------------------------|
--------------------------------------------------|
--------------------------------------------------|
--------------------------------------------------|
--------------------------------------------------|


   S  S  S  S  S  S  S  S  S  S  S  S  S  S  S  S
--------------------------------------------------|
--22-22-22-22-22-22-22-22-22-22-22-22-22-22-22-22-|
--------------------------------------------------|
--------------------------------------------------|
--------------------------------------------------|
--------------------------------------------------|


   S  S  S  S  S  S  S  S  S  S  S  S  S  S  S  S
--------------------------------------------------|
--23-23-23-23-23-23-23-23-23-23-23-23-23-23-23-23-|
--------------------------------------------------|
--------------------------------------------------|
--------------------------------------------------|
--------------------------------------------------|


                                          PM PM    PM PM    PM
   S  S  S  S  S  S  S  S H            E  E  E  E  E  E  E  E
------------------------------------|--------------------------|
--20-20-20-20-20-20-20-20-0/--------|--------------------------|
------------------------------------|--------------------------|
------------------------------------|--------------------------|
------------------------------------|--------------------------|
------------------------------------|--0--0--0--3--0--0--0--0--|


  PM    PM PM    PM    PM       PM PM    PM PM    PM
  E  E  E  E  E  E  E  E     E  E  E  E  E  E  E  E
--------------------------|--------------------------|
--------------------------|--------------------------|
--------------------------|--------------------------|
--------------------------|--------------------------|
-----1--------------7-----|--------------------------|
--0-----0--0--0--0-----0--|--0--0--0--3--0--0--0--0--|


  PM    PM PM    PM    PM       PM PM    PM PM    PM
  E  E  E  E  E  E  E  E     E  E  E  E  E  E  E  E
--------------------------|--------------------------|
--------------------------|--------------------------|
--------------------------|--------------------------|
--------------------5-----|--------------------------|
-----1--------------------|--------------------------|
--0-----0--0--0--0-----0--|--0--0--0--3--0--0--0--0--|


  PM    PM PM    PM    PM       PM PM    PM PM    PM
  E  E  E  E  E  E  E  E     E  E  E  E  E  E  E  E
--------------------------|--------------------------|
--------------------------|--------------------------|
--------------------------|--------------------------|
--------------------------|--------------------------|
-----1--------------7-----|--------------------------|
--0-----0--0--0--0-----0--|--0--0--0--3--0--0--0--0--|


  PM    PM PM                PM PM       PM PM PM PM
  E  E  E  E  E  E  E  E     E  E  E  E  E  E  E  E
--------------------------|--------------------------|
--------------------------|--------------------------|
--------------------------|--------------------------|
--------------------------|--0--0--L--L--0--0--0--0--|
-----1--------------------|--0--0--L--L--0--0--0--0--|
--0-----0--0--------------|--0--0--L--L--0--0--0--0--|


        PM PM PM PM PM PM    PM PM       PM PM PM PM
  E  E  E  E  E  E  E  E     E  E  E  E  E  E  E  E
--------------------------|--------------------------|
--------------------------|--------------------------|
--------------------------|--------------------------|
--L--L--0--0--0--0--0--0--|--0--0--L--L--0--0--0--0--|
--L--L--0--0--0--0--0--0--|--0--0--L--L--0--0--0--0--|
--L--L--0--0--0--0--0--0--|--0--0--L--L--0--0--0--0--|


              PM PM PM PM PM    PM PM PM       PM PM PM PM
  E  E  E  E  S  S  E  E  E     S  S  E  E  E  E  E  E  E
-----------------------------|-----------------------------|
-----------------------------|-----------------------------|
-----------------------------|-----------------------------|
--L--L--L--L--0--0--0--0--0--|--0--0--0--------0--0--0--0--|
--L--L--L--L--0--0--0--0--0--|--0--0--0--------0--0--0--0--|
--L--L--L--L--0--0--0--0--0--|--0--0--0--------0--0--0--0--|


        PM PM PM PM PM PM    PM PM       PM PM PM PM
  E  E  E  E  E  E  E  E     E  E  E  E  E  E  E  E
--------------------------|--------------------------|
--------------------------|--------------------------|
--------------------------|--------------------------|
--------0--0--0--0--0--0--|--0--0--------0--0--0--0--|
--------0--0--0--0--0--0--|--0--0--------0--0--0--0--|
--------0--0--0--0--0--0--|--0--0--------0--0--0--0--|


              PM PM PM PM
  E  E  E  E  E  E  E  E      E   E   E   E   E   E   E   E
--------------------------|----------------------------------|
--------------------------|--10--10--10--10--10--10--10--10--|
--------------------------|---7---7---7---7---7---7---7---7--|
--------------0--0--0--0--|---7---7---7---7---7---7---7---7--|
--------------0--0--0--0--|----------------------------------|
--------------0--0--0--0--|----------------------------------|


   E   E   E   E   E   E   E   E     E  E  E  E  E  E  E  E
----------------------------------|--------------------------|
--10--10--10--10--10--10--10--10--|--------------------------|
---7---7---7---7---7---7---7---7--|--9-----9-----9-----9-----|
---7---7---7---7---7---7---7---7--|-----7-----7-----7-----7--|
----------------------------------|--------------------------|
----------------------------------|--------------------------|


  E  E  E  E  E  E  E  E      E   E   E   E   E   E   E   E
--------------------------|----------------------------------|
--------------------------|--10--10--10--10--10--10--10--10--|
--9-----9-----9-----9-----|--10--10--10--10--10--10--10--10--|
-----7-----7-----7-----7--|---7---7---7---7---7---7---7---7--|
--------------------------|----------------------------------|
--------------------------|----------------------------------|


   E   E   E   E   E   E   E   E     E  E  E  E  E  E  E  E
----------------------------------|--------------------------|
--10--10--10--10--10--10--10--10--|--------------------------|
--10--10--10--10--10--10--10--10--|--9-----9-----9-----9-----|
---7---7---7---7---7---7---7---7--|-----7-----7-----7-----7--|
----------------------------------|--------------------------|
----------------------------------|--------------------------|


  E  E  E  E  E  E  E  E      E   E   E   E   E   E   E   E
--------------------------|--------------12--13--12----------|
--------------------------|----------15--------------15------|
--9-----9-----9-----9-----|--14--12----------------------12--|
-----7-----7-----7-----7--|----------------------------------|
--------------------------|----------------------------------|
--------------------------|----------------------------------|


   E   E   E   E   E   E   E   E      E   E   E   E   E   E   E   E
--------------12--13--12----------|----------------------------------|
----------15--------------15------|--17--13----------------------13--|
--14--12----------------------12--|----------14--------------14------|
----------------------------------|--------------15--14--15----------|
----------------------------------|----------------------------------|
----------------------------------|----------------------------------|


   E   E   E   E   E   E   E   E      E   E   E   E   E   E   E   E
----------------------------------|--13--10--------------------------|
--17--13----------------------13--|----------10----------------------|
----------14--------------14------|--------------10--------------10--|
--------------15--14--15----------|------------------12--10--12------|
----------------------------------|----------------------------------|
----------------------------------|----------------------------------|


   E   E   E   E   E   E   E   E      E   E   E   E   E   E   E   E
--13--10--------------------------|----------------------------------|
----------10----------------------|----------------------------------|
--------------10--------------10--|--14--10--------------------------|
------------------12--10--12------|----------12--------------10--12--|
----------------------------------|--------------12--10--12----------|
----------------------------------|----------------------------------|


   E   E   E   E   E   E   E   E      E   E   E   E   E   E   E   E
----------------------------------|----------------------------------|
----------------------------------|--15--13--------------------------|
--17--12------------------12--14--|----------14----------------------|
----------14------12--14----------|--------------15--14--12--14--15--|
--------------15------------------|----------------------------------|
----------------------------------|----------------------------------|


   E   E   E   E   E   E   E   E      E   E   E   E   E   E   E   E
----------------------------------|----------------------------------|
------------------------------13--|--17--13--------------------------|
--14----------------------14------|----------14----------------------|
------15--14--12--14--15----------|--------------15--14--12--14--15--|
----------------------------------|----------------------------------|
----------------------------------|----------------------------------|


   E   E   E   E   E   E   E   E      E   E   E   E   E   E   E   E
----------------------------------|----------------------------------|
------------------------------13--|--18--13--------------------------|
--14----------------------14------|----------14----------------------|
------15--14--12--14--15----------|--------------15--14--12--14--15--|
----------------------------------|----------------------------------|
----------------------------------|----------------------------------|


   E   E   E   E   E   E   E   E      E   E   E   E   E   E   E   E
----------------------------------|----------------------------------|
------------------------------13--|----------------------------------|
--14----------------------14------|--14--10--------------------------|
------15--14--12--14--15----------|----------12--------------10--12--|
----------------------------------|--------------12--10--12----------|
----------------------------------|----------------------------------|


   E   E   E   E   E   E   E   E      E   E   E   E   E   E   E   E
----------------------------------|----------------------------------|
----------------------------------|--15--13--------------------------|
--17--12------------------12--14--|----------14----------------------|
----------14------12--14----------|--------------15--14--12--14--15--|
--------------15------------------|----------------------------------|
----------------------------------|----------------------------------|


   E   E   E   E   E   E   E   E      E   E   E   E   E   E   E   E
----------------------------------|----------------------------------|
------------------------------13--|--17--13--------------------------|
--14----------------------14------|----------14----------------------|
------15--14--12--14--15----------|--------------15--14--12--14--15--|
----------------------------------|----------------------------------|
----------------------------------|----------------------------------|


   E   E   E   E   E   E   E   E     Q    S Q    S Q    E
----------------------------------|------------------------|
------------------------------13--|------------------------|
--14----------------------14------|---------7----L-6----3--|
------15--14--12--14--15----------|--0----L-7----L-6----3--|
----------------------------------|--0----L-5----L-4----1--|
----------------------------------|--0----L----------------|


  H        H
--------------------|
--------------------|
--L--------6--------|
--L--------6--------|
--L--------4--------|
--------------------|


   |--3--|  |--3--|  |--3--|  |--3--|  |--3--|  |--3--|  |--3--|  |--3--|
   S  S  S  S  S  S  S  S  S  S  S  S  S  S  S  S  S  S  S  S  S  S  S  S
--17-17-17-17-17-17-17-17-17-17-17-17-17-17-17-17-17-17-17-17-17-17-17-17-|
--------------------------------------------------------------------------|
--------------------------------------------------------------------------|
--------------------------------------------------------------------------|
--------------------------------------------------------------------------|
--------------------------------------------------------------------------|


   |--3--|  |--3--|  |--3--|  |--3--|  |--3--|  |--3--|  |--3--|  |--3--|
   S  S  S  S  S  S  S  S  S  S  S  S  S  S  S  S  S  S  S  S  S  S  S  S
--17-17-17-17-17-17-17-17-17-17-17-17-17-17-17-17-17-17-17-17-17-17-17-17-|
--------------------------------------------------------------------------|
--------------------------------------------------------------------------|
--------------------------------------------------------------------------|
--------------------------------------------------------------------------|
--------------------------------------------------------------------------|


   |--3--|  |--3--|  |--3--|  |--3--|  |--3--|  |--3--|  |--3--|  |--3--|
   S  S  S  S  S  S  S  S  S  S  S  S  S  S  S  S  S  S  S  S  S  S  S  S
--------------------------------------------------------------------------|
--18-18-18-18-18-18-18-18-18-18-18-18-18-18-18-18-18-18-18-18-18-18-18-18-|
--------------------------------------------------------------------------|
--------------------------------------------------------------------------|
--------------------------------------------------------------------------|
--------------------------------------------------------------------------|


   |--3--|  |--3--|  |--3--|  |--3--|  |--3--|  |--3--|  |--3--|  |--3--|
   S  S  S  S  S  S  S  S  S  S  S  S  S  S  S  S  S  S  S  S  S  S  S  S
--------------------------------------------------------------------------|
--18-18-18-18-18-18-18-18-18-18-18-18-18-18-18-18-18-18-18-18-18-18-18-18-|
--------------------------------------------------------------------------|
--------------------------------------------------------------------------|
--------------------------------------------------------------------------|
--------------------------------------------------------------------------|


   |--3--|  |--3--|  |--3--|  |--3--|  |--3--|  |--3--|  |--3--|  |--3--|
   S  S  S  S  S  S  S  S  S  S  S  S  S  S  S  S  S  S  S  S  S  S  S  S
--------------------------------------------------------------------------|
--17-17-17-17-17-17-17-17-17-17-17-17-17-17-17-17-17-17-17-17-17-17-17-17-|
--------------------------------------------------------------------------|
--------------------------------------------------------------------------|
--------------------------------------------------------------------------|
--------------------------------------------------------------------------|


   |--3--|  |--3--|  |--3--|  |--3--|  |--3--|  |--3--|  |--3--|  |--3--|
   S  S  S  S  S  S  S  S  S  S  S  S  S  S  S  S  S  S  S  S  S  S  S  S
--------------------------------------------------------------------------|
--17-17-17-17-17-17-17-17-17-17-17-17-17-17-17-17-17-17-17-17-17-17-17-17-|
--------------------------------------------------------------------------|
--------------------------------------------------------------------------|
--------------------------------------------------------------------------|
--------------------------------------------------------------------------|


   |--3--|  |--3--|  |--3--|  |--3--|  |--3--|  |--3--|  |--3--|  |--3--|
   S  S  S  S  S  S  S  S  S  S  S  S  S  S  S  S  S  S  S  S  S  S  S  S
--------------------------------------------------------------------------|
--15-15-15-15-15-15-15-15-15-15-15-15-15-15-15-15-15-15-15-15-15-15-15-15-|
--------------------------------------------------------------------------|
--------------------------------------------------------------------------|
--------------------------------------------------------------------------|
--------------------------------------------------------------------------|


   |--3--|  |--3--|  |--3--|  |--3--|  |--3--|  |--3--|  |--3--|  |--3--|
   S  S  S  S  S  S  S  S  S  S  S  S  S  S  S  S  S  S  S  S  S  S  S  S
--------------------------------------------------------------------------|
--15-15-15-15-15-15-15-15-15-15-15-15-15-15-15-15-15-15-15-15-15-15-15-15-|
--------------------------------------------------------------------------|
--------------------------------------------------------------------------|
--------------------------------------------------------------------------|
--------------------------------------------------------------------------|


   |--3--|  |--3--|  |--3--|  |--3--|  |--3--|  |--3--|  |--3--|  |--3--|
   S  S  S  S  S  S  S  S  S  S  S  S  S  S  S  S  S  S  S  S  S  S  S  S
--------------------------------------------------------------------------|
--------------------------------------------------------------------------|
--17-17-17-17-17-17-17-17-17-17-17-17-17-17-17-17-17-17-17-17-17-17-17-17-|
--------------------------------------------------------------------------|
--------------------------------------------------------------------------|
--------------------------------------------------------------------------|


   |--3--|  |--3--|  |--3--|  |--3--|  |--3--|  |--3--|  |--3--|  |--3--|
   S  S  S  S  S  S  S  S  S  S  S  S  S  S  S  S  S  S  S  S  S  S  S  S
--------------------------------------------------------------------------|
--------------------------------------------------------------------------|
--17-17-17-17-17-17-17-17-17-17-17-17-17-17-17-17-17-17-17-17-17-17-17-17-|
--------------------------------------------------------------------------|
--------------------------------------------------------------------------|
--------------------------------------------------------------------------|


   |--3--|  |--3--|  |--3--|  |--3--|  |--3--|  |--3--|  |--3--|  |--3--|
   S  S  S  S  S  S  S  S  S  S  S  S  S  S  S  S  S  S  S  S  S  S  S  S
--------------------------------------------------------------------------|
--15-15-15-15-15-15-15-15-15-15-15-15-15-15-15-15-15-15-15-15-15-15-15-15-|
--------------------------------------------------------------------------|
--------------------------------------------------------------------------|
--------------------------------------------------------------------------|
--------------------------------------------------------------------------|


   |--3--|  |--3--|  |--3--|  |--3--|  |--3--|  |--3--|  |--3--|  |--3--|
   S  S  S  S  S  S  S  S  S  S  S  S  S  S  S  S  S  S  S  S  S  S  S  S
--------------------------------------------------------------------------|
--15-15-15-15-15-15-15-15-15-15-15-15-15-15-15-15-15-15-15-15-15-15-15-15-|
--------------------------------------------------------------------------|
--------------------------------------------------------------------------|
--------------------------------------------------------------------------|
--------------------------------------------------------------------------|


   |--3--|  |--3--|  |--3--|  |--3--|  |--3--|  |--3--|  |--3--|  |--3--|
   S  S  S  S  S  S  S  S  S  S  S  S  S  S  S  S  S  S  S  S  S  S  S  S
--------------------------------------------------------------------------|
--17-17-17-17-17-17-17-17-17-17-17-17-17-17-17-17-17-17-17-17-17-17-17-17-|
--------------------------------------------------------------------------|
--------------------------------------------------------------------------|
--------------------------------------------------------------------------|
--------------------------------------------------------------------------|


   |--3--|  |--3--|  |--3--|  |--3--|  |--3--|  |--3--|  |--3--|  |--3--|
   S  S  S  S  S  S  S  S  S  S  S  S  S  S  S  S  S  S  S  S  S  S  S  S
--------------------------------------------------------------------------|
--17-17-17-17-17-17-17-17-17-17-17-17-17-17-17-17-17-17-17-17-17-17-17-17-|
--------------------------------------------------------------------------|
--------------------------------------------------------------------------|
--------------------------------------------------------------------------|
--------------------------------------------------------------------------|


   |--3--|  |--3--|  |--3--|  |--3--|  |--3--|  |--3--|  |--3--|  |--3--|
   S  S  S  S  S  S  S  S  S  S  S  S  S  S  S  S  S  S  S  S  S  S  S  S
--------------------------------------------------------------------------|
--18-18-18-18-18-18-18-18-18-18-18-18-18-18-18-18-18-18-18-18-18-18-18-18-|
--------------------------------------------------------------------------|
--------------------------------------------------------------------------|
--------------------------------------------------------------------------|
--------------------------------------------------------------------------|


   |--3--|  |--3--|  |--3--|  |--3--|  |--3--|  |--3--|  |--3--|  |--3--|
   S  S  S  S  S  S  S  S  S  S  S  S  S  S  S  S  S  S  S  S  S  S  S  S
--------------------------------------------------------------------------|
--20-20-20-20-20-20-20-20-20-20-20-20-20-20-20-20-20-20-20-20-20-20-20-20-|
--------------------------------------------------------------------------|
--------------------------------------------------------------------------|
--------------------------------------------------------------------------|
--------------------------------------------------------------------------|


   W                   W
--17----------------|--L----------------|
--------------------|-------------------|
--------------------|-------------------|
--------------------|-------------------|
--------------------|-------------------|
--------------------|-------------------|


  PM PM PM PM PM PM     PM PM   PM   PM   PM
  S  S  S  S  S  S  S S S  S  S S  S S  S S
---------------------------------------------|
---------------------------------------------|
---------------------------------------------|
--0--0--0--0--0--0------0--0----0--L-0--L-0--|
--0--0--0--0--0--0------0--0----0--L-0--L-0--|
--0--0--0--0--0--0------0--0----0--L-0--L-0--|


    PM PM PM PM PM     PM PM PM PM   PM   PM
  S S  S  S  S  S  S S S  S  S  S  S S  S S
---------------------------------------------|
---------------------------------------------|
---------------------------------------------|
--L-0--0--0--0--0------0--0--0--0--L-0--L-0--|
--L-0--0--0--0--0------0--0--0--0--L-0--L-0--|
--L-0--0--0--0--0------0--0--0--0--L-0--L-0--|


    PM PM PM PM PM     PM PM PM PM   PM   PM
  S S  S  S  S  S  S S S  S  S  S  S S  S S
---------------------------------------------|
---------------------------------------------|
---------------------------------------------|
--L-0--0--0--0--0------0--0--0--0--L-0--L-0--|
--L-0--0--0--0--0------0--0--0--0--L-0--L-0--|
--L-0--0--0--0--0------0--0--0--0--L-0--L-0--|


    PM   PM PM PM PM PM PM PM PM PM PM PM PM PM
  S S  S S  S  S  S  S  S  S  S  S  S  S  S  S
------------------------------------------------|
------------------------------------------------|
------------------------------------------------|
--L-0--L-0--0--0--0--0--0--0--0--0--0--0--0--0--|
--L-0--L-0--0--0--0--0--0--0--0--0--0--0--0--0--|
--L-0--L-0--0--0--0--0--0--0--0--0--0--0--0--0--|


      PM PM PM PM     PM PM   PM   PM   PM
  S S S  S  S  S  S S S  S  S S  S S  S S
-------------------------------------------|
-------------------------------------------|
-------------------------------------------|
------0--0--0--0------0--0----0--L-0--L-0--|
------0--0--0--0------0--0----0--L-0--L-0--|
------0--0--0--0------0--0----0--L-0--L-0--|


    PM PM PM PM PM     PM PM PM PM   PM   PM
  S S  S  S  S  S  S S S  S  S  S  S S  S S
---------------------------------------------|
---------------------------------------------|
---------------------------------------------|
--L-0--0--0--0--0------0--0--0--0--L-0--L-0--|
--L-0--0--0--0--0------0--0--0--0--L-0--L-0--|
--L-0--0--0--0--0------0--0--0--0--L-0--L-0--|


    PM PM PM PM PM     PM PM PM PM   PM   PM
  S S  S  S  S  S  S S S  S  S  S  S S  S S
---------------------------------------------|
---------------------------------------------|
---------------------------------------------|
--L-0--0--0--0--0------0--0--0--0--L-0--L-0--|
--L-0--0--0--0--0------0--0--0--0--L-0--L-0--|
--L-0--0--0--0--0------0--0--0--0--L-0--L-0--|


    PM   PM PM PM PM PM PM PM PM PM PM PM PM PM             PM PM PM
  S S  S S  S  S  S  S  S  S  S  S  S  S  S  S     H        S  S  E  Q
------------------------------------------------|-------------------------|
------------------------------------------------|-------------------------|
------------------------------------------------|-------------------------|
--L-0--L-0--0--0--0--0--0--0--0--0--0--0--0--0--|-----------0--0--0-------|
--L-0--L-0--0--0--0--0--0--0--0--0--0--0--0--0--|-----------0--0--0-------|
--L-0--L-0--0--0--0--0--0--0--0--0--0--0--0--0--|-----------0--0--0-------|


           S  S  S  S  S  S  S  S  S  S  S  S  S  S  S  S
-------|--22-22-22-22-22-22-22-22-22-22-22-22-22-22-22-22-|
-------|--------------------------------------------------|
-------|--------------------------------------------------|
-------|--------------------------------------------------|
-------|--------------------------------------------------|
-------|--------------------------------------------------|


   S  S  S  S  S  S  S  S  S  S  S  S  S  S  S  S
--------------------------------------------------|
--22-22-22-22-22-22-22-22-22-22-22-22-22-22-22-22-|
--------------------------------------------------|
--------------------------------------------------|
--------------------------------------------------|
--------------------------------------------------|


   S  S  S  S  S  S  S  S  S  S  S  S  S  S  S  S
--------------------------------------------------|
--23-23-23-23-23-23-23-23-23-23-23-23-23-23-23-23-|
--------------------------------------------------|
--------------------------------------------------|
--------------------------------------------------|
--------------------------------------------------|


   S  S  S  S  S  S  S  S  S  S  S  S  S  S  S  S     S  S  S  S  S  S  S  S
--------------------------------------------------|--------------------------|
--20-20-20-20-20-20-20-20-20-20-20-20-20-20-20-20-|--20-20-20-20-20-20-20-20-|
--------------------------------------------------|--------------------------|
--------------------------------------------------|--------------------------|
--------------------------------------------------|--------------------------|
--------------------------------------------------|--------------------------|


   S  S  S  S  S  S  S  S  S  S  S  S  S  S  S  S
--22-22-22-22-22-22-22-22-22-22-22-22-22-22-22-22-|
--------------------------------------------------|
--------------------------------------------------|
--------------------------------------------------|
--------------------------------------------------|
--------------------------------------------------|


   S  S  S  S  S  S  S  S  S  S  S  S  S  S  S  S
--------------------------------------------------|
--22-22-22-22-22-22-22-22-22-22-22-22-22-22-22-22-|
--------------------------------------------------|
--------------------------------------------------|
--------------------------------------------------|
--------------------------------------------------|


   S  S  S  S  S  S  S  S  S  S  S  S  S  S  S  S
--------------------------------------------------|
--23-23-23-23-23-23-23-23-23-23-23-23-23-23-23-23-|
--------------------------------------------------|
--------------------------------------------------|
--------------------------------------------------|
--------------------------------------------------|


   S  S  S  S  S  S  S  S  S  S  S  S  S  S  S  S
--------------------------------------------------|
--20-20-20-20-20-20-20-20-20-20-20-20-20-20-20-20-|
--------------------------------------------------|
--------------------------------------------------|
--------------------------------------------------|
--------------------------------------------------|


   S  S  S  S  S  S  S  S  S  S  S  S  S  S  S  S
--22-22-22-22-22-22-22-22-22-22-22-22-22-22-22-22-|
--------------------------------------------------|
--------------------------------------------------|
--------------------------------------------------|
--------------------------------------------------|
--------------------------------------------------|


   S  S  S  S  S  S  S  S  S  S  S  S  S  S  S  S
--------------------------------------------------|
--22-22-22-22-22-22-22-22-22-22-22-22-22-22-22-22-|
--------------------------------------------------|
--------------------------------------------------|
--------------------------------------------------|
--------------------------------------------------|


   S  S  S  S  S  S  S  S  S  S  S  S  S  S  S  S
--------------------------------------------------|
--23-23-23-23-23-23-23-23-23-23-23-23-23-23-23-23-|
--------------------------------------------------|
--------------------------------------------------|
--------------------------------------------------|
--------------------------------------------------|


   S  S  S  S  S  S  S  S  S  S  S  S  S  S  S  S     S  S  S  S  S  S  S  S
--------------------------------------------------|--------------------------|
--20-20-20-20-20-20-20-20-20-20-20-20-20-20-20-20-|--20-20-20-20-20-20-20-20-|
--------------------------------------------------|--------------------------|
--------------------------------------------------|--------------------------|
--------------------------------------------------|--------------------------|
--------------------------------------------------|--------------------------|


  E  E  E  E  E  E  E  E     E  E  E  E  E  E  E  E
--5--5--5--5--5--5--5--5--|--5--5--5--5--5--5--5--5--|
--3--3--3--3--3--3--3--3--|--3--3--3--3--3--3--3--3--|
--2--2--2--2--2--2--2--2--|--2--2--2--2--2--2--2--2--|
--0--0--0--0--0--0--0--0--|--0--0--0--0--0--0--0--0--|
--0--0--0--0--0--0--0--0--|--0--0--0--0--0--0--0--0--|
--0--0--0--0--0--0--0--0--|--0--0--0--0--0--0--0--0--|


  E  E  E  E  E  E  E  E     E  E  E  E  E  E  E  E
--5--5--5--5--5--5--5--5--|--5--5--5--5--5--5--------|----|----|----|----|
--3--3--3--3--3--3--3--3--|--3--3--3--3--3--3--------|----|----|----|----|
--2--2--2--2--2--2--2--2--|--2--2--2--2--2--2--------|----|----|----|----|
--0--0--0--0--0--0--0--0--|--0--0--0--0--0--0--------|----|----|----|----|
--0--0--0--0--0--0--0--0--|--0--0--0--0--0--0--------|----|----|----|----|
--0--0--0--0--0--0--0--0--|--0--0--0--0--0--0--------|----|----|----|----|


   E   E   E   E   E   E   E   E      E   E   E   E   E   E   E   E
--13--10--------------------------|--13--10--------------------------|
----------10----------------------|----------10----------------------|
--------------10--------------10--|--------------10--------------10--|
------------------12--10--12------|------------------12--10--12------|
----------------------------------|----------------------------------|
----------------------------------|----------------------------------|


   E   E   E   E   E   E   E   E      E   E   E   E   E   E   E   E
----------------------------------|----------------------------------|
----------------------------------|----------------------------------|
--14--10--------------------------|--17--12------------------12--14--|
----------12--------------10--12--|----------14------12--14----------|
--------------12--10--12----------|--------------15------------------|
----------------------------------|----------------------------------|


   E   E   E   E   E   E   E   E      E   E   E   E   E   E   E   E
----------------------------------|----------------------------------|
--15--13--------------------------|------------------------------13--|
----------14----------------------|--14----------------------14------|
--------------15--14--12--14--15--|------15--14--12--14--15----------|
----------------------------------|----------------------------------|
----------------------------------|----------------------------------|


   E   E   E   E   E   E   E   E      E   E   E   E   E   E   E   E
----------------------------------|----------------------------------|
--17--13--------------------------|------------------------------13--|
----------14----------------------|--14----------------------14------|
--------------15--14--12--14--15--|------15--14--12--14--15----------|
----------------------------------|----------------------------------|
----------------------------------|----------------------------------|


   E   E   E   E   E   E   E   E      E   E   E   E   E   E   E   E
----------------------------------|----------------------------------|
--18--13--------------------------|------------------------------13--|
----------14----------------------|--14----------------------14------|
--------------15--14--12--14--15--|------15--14--12--14--15----------|
----------------------------------|----------------------------------|
----------------------------------|----------------------------------|


   E   E   E   E   E   E   E   E      E   E   E   E   E   E   E   E
----------------------------------|----------------------------------|
----------------------------------|----------------------------------|
--14--10--------------------------|--17--12------------------12--14--|
----------12--------------10--12--|----------14------12--14----------|
--------------12--10--12----------|--------------15------------------|
----------------------------------|----------------------------------|


   E   E   E   E   E   E   E   E      E   E   E   E   E   E   E   E
--15--17--17--17--17--17--17--17--|--17------------------------------|
----------------------------------|------18--18--18--18--18--18--18--|
----------------------------------|----------------------------------|
----------------------------------|----------------------------------|
----------------------------------|----------------------------------|
----------------------------------|----------------------------------|


   E   E   E   E   E   E   E   E      E   E   E   E   E   E   E   E
----------------------------------|------15--15--15--15--15--15--15--|
--18--17--17--17--17--17--17--17--|--17------------------------------|
----------------------------------|----------------------------------|
----------------------------------|----------------------------------|
----------------------------------|----------------------------------|
----------------------------------|----------------------------------|


   E   E   E   E   E   E   E   E      E   E   E   E   E   E   E   E
--15--17--17--17--17--17--17--17--|--17------------------------------|
----------------------------------|------18--18--18--18--18--18--18--|
----------------------------------|----------------------------------|
----------------------------------|----------------------------------|
----------------------------------|----------------------------------|
----------------------------------|----------------------------------|


   E   E   E   E   E   E   E   E      E   E   E   E   E   E   E   E
------20--20--20--20--20--20--20--|--20--22--22--22--22--22--22--22--|
--18------------------------------|----------------------------------|
----------------------------------|----------------------------------|
----------------------------------|----------------------------------|
----------------------------------|----------------------------------|
----------------------------------|----------------------------------|


   E   E   E   E   E   E   E   E      E   E   E   E   E   E   E   E
--15--17--17--17--17--17--17--17--|--17------------------------------|
----------------------------------|------18--18--18--18--18--18--18--|
----------------------------------|----------------------------------|
----------------------------------|----------------------------------|
----------------------------------|----------------------------------|
----------------------------------|----------------------------------|


   E   E   E   E   E   E   E   E      E   E   E   E   E   E   E   E
----------------------------------|----------------------------------|
--18--17--17--17--17--17--17--17--|--17------------------------------|
----------------------------------|------17--17--17--17--17--17--17--|
----------------------------------|----------------------------------|
----------------------------------|----------------------------------|
----------------------------------|----------------------------------|


   E   E   E   E   E   E   E   E      E   E   E   E   E   E   E   E
----------------------------------|----------------------------------|
----------------------------------|----------------------------------|
--17--19--19--19--19--19--19--19--|--19--19--19--19--19--19--19--19--|
----------------------------------|----------------------------------|
----------------------------------|----------------------------------|
----------------------------------|----------------------------------|


   E   E   E   E   E   E   E   E      E   E   E   E   E   E   E   E
----------------------------------|----------------------------------|
----------------------------------|----------------------------------|
--19--19--19--19--19--19--19--19--|--19--19--19--19--19--19--19--19--|
----------------------------------|----------------------------------|
----------------------------------|----------------------------------|
----------------------------------|----------------------------------|


   E   E   E   E   E   E   E   E      E   E   E   E   E   E   E   E
----------------------------------|----------------------------------|
----------------------------------|----------------------------------|
--12--14--12--14--12------12--14--|--12--14--12------12--14--12--14--|
----------------------15----------|--------------15------------------|
----------------------------------|----------------------------------|
----------------------------------|----------------------------------|


   E   E   E   E   E   E   E   E      E   E   E   E   E   E   E   E
----------------------------------|----------------------------------|
----------------------------------|----------------------------------|
--12--14--12--14--12------12--14--|--12--14--12------12--14--12--14--|
----------------------15----------|--------------15------------------|
----------------------------------|----------------------------------|
----------------------------------|----------------------------------|


   E   E   E   E   E   E   E   E      E   E   E   E   E   E   E   E
----------------------------------|----------------------------------|
----------------------------------|----------------------------------|
--12--14--12--14--12------12--14--|--12--14--12------12--14--12--14--|
----------------------15----------|--------------15------------------|
----------------------------------|----------------------------------|
----------------------------------|----------------------------------|


   E   E   E   E   E   E   E   E      E   E   E   E   E   E   E   E
----------------------------------|----------------------------------|
----------------------------------|----------------------------------|
--12--14--12--14--12------12--14--|--12--14--12------12--14--12--14--|
----------------------15----------|--------------15------------------|
----------------------------------|----------------------------------|
----------------------------------|----------------------------------|


   E   E   E   E   E   E   E   E      E   E   E
----------------------------------|--------------|
----------------------------------|--------------|
--12--14--12--12--14--12--12--14--|--12--12--14--|
----------------------------------|--------------|
----------------------------------|--------------|
----------------------------------|--------------|


  PM      PM PM PM PM PM PM          PM   PM PM PM PM PM PM
  Q    E  E  S  S  S  S  E  E     E  Q    E  S  S  S  S  E  E
-------------------------------|-------------------------------|
-------------------------------|-------------------------------|
-------------------------------|-------------------------------|
--0----L--0--0--0--0--0--0--L--|--L--0----0--0--0--0--0--0--L--|
--0----L--0--0--0--0--0--0--L--|--L--0----0--0--0--0--0--0--L--|
--0----L--0--0--0--0--0--0--L--|--L--0----0--0--0--0--0--0--L--|


  PM      PM PM PM PM PM PM                                 PH
                                  |-3-|
  Q    E  E  S  S  S  S  E  E     S S S E  E  E  E  E  E    E
-------------------------------|--------------------------------|
-------------------------------|--------------------------------|
-------------------------------|--------------------------------|
--0----L--0--0--0--0--0--0--L--|--7-8-7-0--3--0-----3--2--<>6b--|
--0----L--0--0--0--0--0--0--L--|-----------------1--------------|
--0----L--0--0--0--0--0--0--L--|--------------------------------|


             PM PM PM PM PM          PM   PM PM PM PM PM PM
  Q    E  E  S  S  S  S  E  E     E  Q    E  S  S  S  S  E  E
-------------------------------|-------------------------------|
-------------------------------|-------------------------------|
-------------------------------|-------------------------------|
-------------0--0--0--0--0--L--|--L--0----0--0--0--0--0--0--L--|
-------------0--0--0--0--0--L--|--L--0----0--0--0--0--0--0--L--|
-------------0--0--0--0--0--L--|--L--0----0--0--0--0--0--0--L--|


  PM      PM PM PM PM PM PM                            PM PM
                                  |-3-|
  Q    E  E  S  S  S  S  E  E     S S S E  E  E  E  E  E  E
-------------------------------|-----------------------------|
-------------------------------|-----------------------------|
-------------------------------|-----------------------------|
--0----L--0--0--0--0--0--0--L--|--7-8-7-0--3--0-----3--0--0--|
--0----L--0--0--0--0--0--0--L--|-----------------1-----0--0--|
--0----L--0--0--0--0--0--0--L--|-----------------------0--0--|


  W
-------------------||
-------------------||
-------------------||
-------------------||
-------------------||
-------------------||


============================================================================
============================================================================


----------------------------------------------------------------------------
                            Rhinestone
                             Heartist
----------------------------------------------------------------------------


Guitar 1 Rhythmic (C G C F A D)
Guitar 2 Lead     (C G C F A D)
Guitar 3 Mixed    (C G C F A D)

NOTE: This was exported off of guitar pro.


Guitar 1

                           PM PM
     E   E  E  E  E  E  E  S  S     E  E  E  E  E  E  E  E
D||------------------------------|--------------------------|
A||------------------------------|--------------------------|
F||------------------------------|--------------------------|
C||---------7-----7--------------|--------------------3--L--|
G||------------0-----8--0--0--0--|--5--0-----7--0--7--L--7--|
C||--5S--8-----------------------|--------3-----------------|


  E   E  E  E  E  E  E  E     E  S S E  E  S S E  S S E
---------------------------|-----------------------------|
---------------------------|-----------------------------|
---------------------------|---------------9-9-9--9-9-9--|
---------5-----------7-----|---------------x-x-x--x-x-x--|
------------0--7--8-----8--|--0--8-8-8-----8-8-8--8-8-8--|
--5S--8--------------------|------------8----------------|


                        PM PM
  E   E  E  E  E  E  E  S  S     E  E  E  E  E  E  E  E
------------------------------|--------------------------|
------------------------------|--------------------------|
------------------------------|--------------------------|
---------7-----7--------------|--------------------3--L--|
------------0-----8--0--0--0--|--5--0-----7--0--7--L--7--|
--5S--8-----------------------|--------3-----------------|


                                           PM PM PM PM PM PM
  E   E  E  E  E  E  E  E     E  S S E  E  S  S  E  S  S  E
---------------------------|---------------------------------|
---------------------------|---------------------------------|
---------------------------|---------------------------------|
---------5-----------7-----|---------------0--0--0--0--0--0--|
------------0--7--8-----8--|--0--8-8-8-----0--0--0--0--0--0--|
--5S--8--------------------|------------8--0--0--0--0--0--0--|


  S  S S S E  E  E  E  E  E     E   Q     E  E  E  E  E
-----------------------------|---------------------------|
-----------------------------|---------------------------|
-----------------------------|---------------------------|
--------------------8--8--8--|-----10b----L--------------|
--------------------5--5--5--|------7b----L--7--0--8--7--|
--8-10-8-0-7--0--------------|---------------------------|


  S  S S S E  E  E  E  E  E     E   Q     E  E  E  E  E
-----------------------------|---------------------------|
-----------------------------|---------------------------|
-----------------------------|---------------------------|
--------------------8--8--8--|-----10b----L--------------|
--------------------5--5--5--|------7b----L--7--0--8--7--|
--8-10-8-0-7--0--------------|---------------------------|


  S  S S S E  E  E  E  E  E     S E  S E  S E   S  E  E  E
-----------------------------|------------------------------|
-----------------------------|------------------------------|
-----------------------------|------------------------------|
--------------------8--8--8--|------------------------------|
--------------------5--5--5--|------------------------------|
--8-10-8-0-7--0--------------|--0-0--8-8--7-7--10-10--8--7--|


  E  E  E  E  E  S S E  E     S E  S E  E   S  S  S E  S E
---------------------------|--------------------------------|
---------------------------|--------------------------------|
---------------------------|--------------------------------|
---------------------------|--------------------------------|
---------------------------|--------------------------------|
--5--------------5-5-5--7--|--8-8----------10-10-10-8--7-7--|


  PM                         PM PM     PM PM     PM PM PM PM PM PM
  E  E  E  E  E  E  E  E     S  S  S S S  S  S S S  S  S  E  S  E
--------------5--L--L--L--|----------------------------------------|
--------6--L--L--6--L--6--|----------------------------------------|
-----7--L--7--L--L--7--L--|----------------------------------------|
--0-----------------------|--0--0------0--0------0--0--0--0--0--0--|
--0-----------------------|--0--0------0--0------0--0--0--0--0--0--|
--0-----------------------|--0--0------0--0------0--0--0--0--0--0--|


  S  S S S E  E  E  E  E  E     E   Q     E  E  E  E  E
-----------------------------|---------------------------|
-----------------------------|---------------------------|
-----------------------------|---------------------------|
--------------------8--8--8--|-----10b----L--------------|
--------------------5--5--5--|------7b----L--7--0--8--7--|
--8-10-8-0-7--0--------------|---------------------------|


  S  S S S E  E  E  E  E  E     S E  S E  S E   S  E  E  E
-----------------------------|------------------------------|
-----------------------------|------------------------------|
-----------------------------|------------------------------|
--------------------8--8--8--|------------------------------|
--------------------5--5--5--|------------------------------|
--8-10-8-0-7--0--------------|--0-0--8-8--7-7--10-10--8--7--|


  E  E  E  E  E  S S E  E     S E  S E  E   S  S  S E  S E
---------------------------|--------------------------------|
---------------------------|--------------------------------|
---------------------------|--------------------------------|
---------------------------|--------------------------------|
---------------------------|--------------------------------|
--5--------------5-5-5--7--|--8-8----------10-10-10-8--7-7--|


  PM                         PM PM     PM PM     PM PM PM PM PM PM
  E  E  E  E  E  E  E  E     S  S  S S S  S  S S S  S  S  E  S  E
--------------5--L--L--L--|----------------------------------------|
--------6--L--L--6--L--6--|----------------------------------------|
-----7--L--7--L--L--7--L--|----------------------------------------|
--0-----------------------|--0--0------0--0------0--0--0--0--0--0--|
--0-----------------------|--0--0------0--0------0--0--0--0--0--0--|
--0-----------------------|--0--0------0--0------0--0--0--0--0--0--|


  E  E  E  E  E  E  E  E     E  E  E  E  E  E  E  E
--------------------------|--------------------------|
--------------------------|--------------------------|
--9--9--9--9--9--9--9--9--|--9--9--9--9--9--9--9--9--|
--x--x--x--x--x--x--x--x--|--x--x--x--x--x--x--x--x--|
--8--8--8--8--8--8--8--8--|--8--8--8--8--8--8--8--8--|
--------------------------|--------------------------|


  E  E  E  E  E  E  E  E     E  E  E  E  E  E  E  E
--------------------------|--------------------------|
--------------------------|--------------------------|
--------------------------|--------------------------|
--0--0--0--0--0--0--0--0--|--8--8--8--8--8--8--8--8--|
--0--0--0--0--0--0--0--0--|--8--8--8--8--8--8--8--8--|
--0--0--0--0--0--0--0--0--|--8--8--8--8--8--8--8--8--|


  E  E  E  E  E  E  E  E     E  E  E  E  E  E  E  E
--------------------------|--------------------------|
--------------------------|--------------------------|
--------------------------|-----------------5--5--5--|
--3--3--3--3--3--3--3--3--|--3--3--3--3--3--5--5--5--|
--3--3--3--3--3--3--3--3--|--3--3--3--3--3--3--3--3--|
--3--3--3--3--3--3--3--3--|--3--3--3--3--3-----------|


  E  E  E  E  E  E  E  E     E  E  E  E  E  E  E  E
--------------------------|--------------------------|
--------------------------|--------------------------|
--------------------------|--------------------------|
--0--0--0--0--0--0--0--0--|--8--8--8--8--8--8--8--8--|
--0--0--0--0--0--0--0--0--|--8--8--8--8--8--8--8--8--|
--0--0--0--0--0--0--0--0--|--8--8--8--8--8--8--8--8--|


  E  E  E  E  E  E  E  E     E  E  E  E  E  E  E  E
--------------------------|--------------------------|
--------------------------|--------------------------|
--------------------------|--------------------------|
--------------------------|--------------------------|
--------------------------|--------------8--8--7--7--|
--3--3--3--3--5--5--5--5--|--7--7--8--8--------------|


  E  E  E  E  E  E  E  E     E  E  E  E  E  E  E  E
--------------------------|--------------------------|
--------------------------|--------------------------|
--------------------------|--------------------------|
--0--0--0--0--0--0--0--0--|--8--8--8--8--8--8--8--8--|
--0--0--0--0--0--0--0--0--|--8--8--8--8--8--8--8--8--|
--0--0--0--0--0--0--0--0--|--8--8--8--8--8--8--8--8--|


  E  E  E  E  E  E  E  E     E  E  E  E  E  E  E  E
--------------------------|--------------------------|
--------------------------|--------------------------|
--------------------------|-----------------5--5--5--|
--3--3--3--3--3--3--3--3--|--3--3--3--3--3--5--5--5--|
--3--3--3--3--3--3--3--3--|--3--3--3--3--3--3--3--3--|
--3--3--3--3--3--3--3--3--|--3--3--3--3--3-----------|


  E  E  E  E  E  E  E  E     E  E  E  E  E  E  E  E
--------------------------|--------------------------|
--------------------------|--------------------------|
--------------------------|--------------------------|
--0--0--0--0--0--0--0--0--|--8--8--8--8--8--8--8--8--|
--0--0--0--0--0--0--0--0--|--8--8--8--8--8--8--8--8--|
--0--0--0--0--0--0--0--0--|--8--8--8--8--8--8--8--8--|


  E  E  E  E  E  E  E  E     E  E  E  E  E  E  E  E
--------------------------|--------------------------|
--------------------------|--------------------------|
--------------------------|--------------------------|
--------------------------|--------------------------|
--------------------------|--------------8--8--7--7--|
--3--3--3--3--5--5--5--5--|--7--7--8--8--------------|


                        PM PM
  E   E  E  E  E  E  E  S  S     E  E  E  E  E  E  E  E
------------------------------|--------------------------|
------------------------------|--------------------------|
------------------------------|--------------------------|
---------7-----7--------------|--------------------3--L--|
------------0-----8--0--0--0--|--5--0-----7--0--7--L--7--|
--5S--8-----------------------|--------3-----------------|


  E   E  E  E  E  E  E  E     E  S S E  E  S S E  S S E
---------------------------|-----------------------------|-----|
---------------------------|-----------------------------|-----|
---------------------------|---------------9-9-9--9-9-9--|-----|
---------5-----------7-----|---------------x-x-x--x-x-x--|-----|
------------0--7--8-----8--|--0--8-8-8-----8-8-8--8-8-8--|-----|
--5S--8--------------------|------------8----------------|-----|


  S  S S S E  E  E  E  E  E     E   Q     E  E  E  E  E
-----------------------------|---------------------------|
-----------------------------|---------------------------|
-----------------------------|---------------------------|
--------------------8--8--8--|-----10b----L--------------|
--------------------5--5--5--|------7b----L--7--0--8--7--|
--8-10-8-0-7--0--------------|---------------------------|


  S  S S S E  E  E  E  E  E     S E  S E  S E   S  E  E  E
-----------------------------|------------------------------|
-----------------------------|------------------------------|
-----------------------------|------------------------------|
--------------------8--8--8--|------------------------------|
--------------------5--5--5--|------------------------------|
--8-10-8-0-7--0--------------|--0-0--8-8--7-7--10-10--8--7--|


  E  E  E  E  E  S S E  E     S E  S E  E   S  S  S E  S E
---------------------------|--------------------------------|
---------------------------|--------------------------------|
---------------------------|--------------------------------|
---------------------------|--------------------------------|
---------------------------|--------------------------------|
--5--------------5-5-5--7--|--8-8----------10-10-10-8--7-7--|


  PM                         PM PM     PM PM     PM PM PM PM PM PM
  E  E  E  E  E  E  E  E     S  S  S S S  S  S S S  S  S  E  S  E
--------------5--L--L--L--|----------------------------------------|
--------6--L--L--6--L--6--|----------------------------------------|
-----7--L--7--L--L--7--L--|----------------------------------------|
--0-----------------------|--0--0------0--0------0--0--0--0--0--0--|
--0-----------------------|--0--0------0--0------0--0--0--0--0--0--|
--0-----------------------|--0--0------0--0------0--0--0--0--0--0--|


  S  S S S E  E  E  E  E  E     E   Q     E  E  E  E  E
-----------------------------|---------------------------|
-----------------------------|---------------------------|
-----------------------------|---------------------------|
--------------------8--8--8--|-----10b----L--------------|
--------------------5--5--5--|------7b----L--7--0--8--7--|
--8-10-8-0-7--0--------------|---------------------------|


  S  S S S E  E  E  E  E  E     S E  S E  S E   S  E  E  E
-----------------------------|------------------------------|
-----------------------------|------------------------------|
-----------------------------|------------------------------|
--------------------8--8--8--|------------------------------|
--------------------5--5--5--|------------------------------|
--8-10-8-0-7--0--------------|--0-0--8-8--7-7--10-10--8--7--|


  E  E  E  E  E  S S E  E     S E  S E  E   S  S  S E  S E
---------------------------|--------------------------------|
---------------------------|--------------------------------|
---------------------------|--------------------------------|
---------------------------|--------------------------------|
---------------------------|--------------------------------|
--5--------------5-5-5--7--|--8-8----------10-10-10-8--7-7--|


  PM                         PM PM   PM PM   PM PM   PM PM   PM
  E  E  E  E  E  E  E  E     S  S  S S  S  S S  S  S S  S  S E  E
--------------5--L--L--L--|----------------------------------------|
--------6--L--L--6--L--6--|----------------------------------------|
-----7--L--7--L--L--7--L--|----------------------------------------|
--0-----------------------|--0--0----0--0----0--0----0--0----0-----|
--0-----------------------|--0--0----0--0----0--0----0--0----0-----|
--0-----------------------|--0--0----0--0----0--0----0--0----0-----|


  E  E  E  E  E  E  E  E     E  E  E  E  E  E  E  E
--------------------------|--------------------------|
--------------------------|--------------------------|
--------------------------|--------------------------|
--0--0--0--0--0--0--0--0--|--8--8--8--8--8--8--8--8--|
--0--0--0--0--0--0--0--0--|--8--8--8--8--8--8--8--8--|
--0--0--0--0--0--0--0--0--|--8--8--8--8--8--8--8--8--|


  E  E  E  E  E  E  E  E     E  E  E  E  E  E  E  E
--------------------------|--------------------------|
--------------------------|--------------------------|
--------------------------|-----------------5--5--5--|
--3--3--3--3--3--3--3--3--|--3--3--3--3--3--5--5--5--|
--3--3--3--3--3--3--3--3--|--3--3--3--3--3--3--3--3--|
--3--3--3--3--3--3--3--3--|--3--3--3--3--3-----------|


  E  E  E  E  E  E  E  E     E  E  E  E  E  E  E  E
--------------------------|--------------------------|
--------------------------|--------------------------|
--------------------------|--------------------------|
--0--0--0--0--0--0--0--0--|--8--8--8--8--8--8--8--8--|
--0--0--0--0--0--0--0--0--|--8--8--8--8--8--8--8--8--|
--0--0--0--0--0--0--0--0--|--8--8--8--8--8--8--8--8--|


  E  E  E  E  E  E  E  E     E  E  E  E  E  E  E  E
--------------------------|--------------------------|
--------------------------|--------------------------|
--------------------------|--------------------------|
--------------------------|--------------------------|
--------------------------|--------------8--8--7--7--|
--3--3--3--3--5--5--5--5--|--7--7--8--8--------------|


  E  E  E  E  E  E  E  E     E  E  E  E  E  E  E  E
--------------------------|--------------------------|
--------------------------|--------------------------|
--------------------------|--------------------------|
--0--0--0--0--0--0--0--0--|--8--8--8--8--8--8--8--8--|
--0--0--0--0--0--0--0--0--|--8--8--8--8--8--8--8--8--|
--0--0--0--0--0--0--0--0--|--8--8--8--8--8--8--8--8--|


  E  E  E  E  E  E  E  E     E  E  E  E  E  E  E  E
--------------------------|--------------------------|
--------------------------|--------------------------|
--------------------------|-----------------5--5--5--|
--3--3--3--3--3--3--3--3--|--3--3--3--3--3--5--5--5--|
--3--3--3--3--3--3--3--3--|--3--3--3--3--3--3--3--3--|
--3--3--3--3--3--3--3--3--|--3--3--3--3--3-----------|


  E  E  E  E  E  E  E  E     E  E  E  E  E  E  E  E
--------------------------|--------------------------|
--------------------------|--------------------------|
--------------------------|--------------------------|
--0--0--0--0--0--0--0--0--|--8--8--8--8--8--8--8--8--|
--0--0--0--0--0--0--0--0--|--8--8--8--8--8--8--8--8--|
--0--0--0--0--0--0--0--0--|--8--8--8--8--8--8--8--8--|


  E  E  E  E  E  E  E  E     E  E  E  E  E  E  E  E
--------------------------|--------------------------|
--------------------------|--------------------------|
--------------------------|--------------------------|
--------------------------|--------------------------|
--------------------------|--------------8--8--7--7--|
--3--3--3--3--5--5--5--5--|--7--7--8--8--------------|


  S S S S E  E  S  S S S E  E     S S S S E  E  S S S E  S E
-------------------------------|------------------------------|
-------------------------------|------------------------------|
-------------------------------|------------------------------|
-------------------------------|------------------------------|
--7-8-7-0----------------------|------------------------------|
----------8--0--8-10-8-0-7--0--|--5-7-5-0-3--0--8-8-0-8--8-7--|


  S S S S E  E  S  S S S E  E     S S S S E  E  H
-------------------------------|-------------------------|
-------------------------------|-------------------------|
-------------------------------|-------------------------|
-------------------------------|-------------------------|
--7-8-7-0----------------------|-------------------------|
----------8--0--8-10-8-0-7--0--|--5-7-5-0-3--0-----------|


  S S S S S S S S S S S S S S S S    S S S S S S S S S S S S S S S S
----------------------------------|----------------------------------|
----------------------------------|----------------------------------|
----------------------------------|----------------------------------|
----------------------------------|----------------------------------|
----------------------------------|----------------------------------|
--1-1-1-1-1-1-1-1-1-1-1-1-1-1-1-1-|--1-1-1-1-1-1-1-1-1-1-1-1-2-2-2-2-|


  S S S S S S S S S S S S S S S S    S S S S S S S S S S S S S S S S
----------------------------------|----------------------------------|
----------------------------------|----------------------------------|
----------------------------------|----------------------------------|
----------------------------------|----------------------------------|
----------------------------------|----------------------------------|
--1-1-1-1-1-1-1-1-1-1-1-1-1-1-1-1-|--1-1-1-1-1-1-1-1-1---------------|


  PM PM PM PM PM PM    PM PM PM PM      PM PM PM PM PM PM PM PM PM PM
  S  S  S  S  E  E  E  E  E  S  S     S E  S  E  E  S  S  S  S  E  E
-----------------------------------|----------------------------------|
-----------------------------------|----------------------------------|
-----------------------------------|----------------------------------|
--0--0--0--0--0--0-----0--0--0--0--|--L-0--0--0--0--0--0--0--0--0--0--|
--0--0--0--0--0--0-----0--0--0--0--|--L-0--0--0--0--0--0--0--0--0--0--|
--0--0--0--0--0--0-----0--0--0--0--|--L-0--0--0--0--0--0--0--0--0--0--|


  PM PM PM PM PM PM    PM PM PM PM      PM PM PM PM PM PM PM PM PM PM
  S  S  S  S  E  E  E  E  E  S  S     S E  S  E  E  S  S  S  S  E  E
-----------------------------------|----------------------------------|
-----------------------------------|----------------------------------|
-----------------------------------|----------------------------------|
--0--0--0--0--0--0-----0--0--0--0--|--L-0--0--0--0--0--0--0--0--0--0--|
--0--0--0--0--0--0-----0--0--0--0--|--L-0--0--0--0--0--0--0--0--0--0--|
--0--0--0--0--0--0-----0--0--0--0--|--L-0--0--0--0--0--0--0--0--0--0--|


  PM PM PM PM PM PM    PM PM PM PM      PM PM PM PM PM PM PM PM PM PM
  S  S  S  S  E  E  E  E  E  S  S     S E  S  E  E  S  S  S  S  E  E
-----------------------------------|----------------------------------|
-----------------------------------|----------------------------------|
-----------------------------------|----------------------------------|
--0--0--0--0--0--0-----0--0--0--0--|--L-0--0--0--0--0--0--0--0--0--0--|
--0--0--0--0--0--0-----0--0--0--0--|--L-0--0--0--0--0--0--0--0--0--0--|
--0--0--0--0--0--0-----0--0--0--0--|--L-0--0--0--0--0--0--0--0--0--0--|


  PM PM PM PM PM PM    PM PM PM PM
  S  S  S  S  E  E  E  E  E  S  S
-----------------------------------|
-----------------------------------|
-----------------------------------|
--0--0--0--0--0--0-----0--0--0--0--|
--0--0--0--0--0--0-----0--0--0--0--|
--0--0--0--0--0--0-----0--0--0--0--|


    PM PM PM PM PM PM PM PM PM PM PM PM PM PM PM PM
  S E  S  E  E  S  S  S  S  T  T  T  T  T  T  T  T
----------------------------------------------------|
----------------------------------------------------|
----------------------------------------------------|
--L-0--0--0--0--0--0--0--0--------------------------|
--L-0--0--0--0--0--0--0--0--------------------------|
--L-0--0--0--0--0--0--0--0--0--0--0--0--0--0--0--0--|


  PM PM   PM PM   PM PM   PM PM   PM PM   PM
  S  S  S S  S  S S  S  S S  S  S S  S  S S
---------------------------------------------|
---------------------------------------------|
---------------------------------------------|
--0--0----0--0----0--0----0--0----0--0----0--|
--0--0----0--0----0--0----0--0----0--0----0--|
--0--0----0--0----0--0----0--0----0--0----0--|


  PM   PM PM   PM PM   PM PM PM PM PM PM PM PM    PM                   PM PM
  S  S S  S  S S  S  S S  S  S  S  S  S  S  S     E  E  E  E  E  S S S S  S  S
-----------------------------------------------|-------------------------------|
-----------------------------------------------|-------------------------------|
-----------------------------------------------|-------------------------------|
--0----0--0----0--0----0--0--0--0--0--0--0--0--|--0--------------------0--0----|
--0----0--0----0--0----0--0--0--0--0--0--0--0--|--0--------------------0--0----|
--0----0--0----0--0----0--0--0--0--0--0--0--0--|--0--------------------0--0----|


  PM PM             PM PM PM PM PM PM    PM PM PM PM PM PM    PM PM PM PM
  S  S  S S S S S S S  S  S  S  E  E     S  S  S  S  E  E  E  E  E  S  S
--------------------------------------|-----------------------------------|
--------------------------------------|-----------------------------------|
--------------------------------------|-----------------------------------|
--0--0--------------0--0--0--0--0--0--|--0--0--0--0--0--0-----0--0--0--0--|
--0--0--------------0--0--0--0--0--0--|--0--0--0--0--0--0-----0--0--0--0--|
--0--0--------------0--0--0--0--0--0--|--0--0--0--0--0--0-----0--0--0--0--|


    PM PM PM PM PM PM PM PM PM PM    PM PM PM PM PM PM    PM PM PM PM
  S E  S  E  E  S  S  S  S  E  E     S  S  S  S  E  E  E  E  E  S  S
----------------------------------|-----------------------------------|
----------------------------------|-----------------------------------|
----------------------------------|-----------------------------------|
--L-0--0--0--0--0--0--0--0--0--0--|--0--0--0--0--0--0-----0--0--0--0--|
--L-0--0--0--0--0--0--0--0--0--0--|--0--0--0--0--0--0-----0--0--0--0--|
--L-0--0--0--0--0--0--0--0--0--0--|--0--0--0--0--0--0-----0--0--0--0--|


    PM PM PM PM PM PM PM PM PM PM    PM PM PM PM PM PM PM PM
  S E  S  E  E  S  S  S  S  E  E     E  E  E  E  E  E  E  E
----------------------------------|--------------------------|
----------------------------------|--------------------------|
----------------------------------|--7--7--7--7--7--7--7--7--|
--L-0--0--0--0--0--0--0--0--0--0--|--7--7--7--7--7--7--7--7--|
--L-0--0--0--0--0--0--0--0--0--0--|--5--5--5--5--5--5--5--5--|
--L-0--0--0--0--0--0--0--0--0--0--|--------------------------|


  PM PM PM PM PM PM PM PM    PM PM PM PM PM PM PM PM
  E  E  E  E  E  E  E  E     E  E  E  E  E  E  E  E
--------------------------|--------------------------|
--------------------------|--------------------------|
--------------------------|--------------------------|
--8--8--8--8--8--8--8--8--|--3--3--3--3--3--3--3--3--|
--8--8--8--8--8--8--8--8--|--3--3--3--3--3--3--3--3--|
--8--8--8--8--8--8--8--8--|--3--3--3--3--3--3--3--3--|


  PM PM PM PM PM PM PM PM    PM PM PM PM PM PM PM PM
  E  E  E  E  E  E  E  E     E  E  E  E  E  E  E  E
--------------------------|--------------------------|
--------------------------|--------------------------|
-----------------5--5--5--|--7--7--7--7--7--7--7--7--|
--3--3--3--3--3--5--5--5--|--7--7--7--7--7--7--7--7--|
--3--3--3--3--3--3--3--3--|--5--5--5--5--5--5--5--5--|
--3--3--3--3--3-----------|--------------------------|


  PM PM PM PM PM PM PM PM
  E  E  E  E  E  E  E  E     E  E  E  E  E  E  E  E
--------------------------|--------------------------|
--------------------------|--------------------------|
--------------------------|--------------------------|
--8--8--8--8--8--8--8--8--|--------------------------|
--8--8--8--8--8--8--8--8--|--------------------------|
--8--8--8--8--8--8--8--8--|--3--3--3--3--5--5--5--5--|


  E  E  E  E  E  E  E  E     E  E  E  E  E  E  E  E
--------------------------|--------------------------|
--------------------------|--------------------------|
--------------------------|--------------------------|
--------------------------|--0--0--0--0--0--0--0--0--|
--------------8--8--7--7--|--0--0--0--0--0--0--0--0--|
--7--7--8--8--------------|--0--0--0--0--0--0--0--0--|


  E  E  E  E  E  E  E  E     E  E  E  E  E  E  E  E
--------------------------|--------------------------|
--------------------------|--------------------------|
--------------------------|--------------------------|
--8--8--8--8--8--8--8--8--|--3--3--3--3--3--3--3--3--|
--8--8--8--8--8--8--8--8--|--3--3--3--3--3--3--3--3--|
--8--8--8--8--8--8--8--8--|--3--3--3--3--3--3--3--3--|


  E  E  E  E  E  E  E  E     E  E  E  E  E  E  E  E
--------------------------|--------------------------|
--------------------------|--------------------------|
-----------------5--5--5--|--------------------------|
--3--3--3--3--3--5--5--5--|--0--0--0--0--0--0--0--0--|
--3--3--3--3--3--3--3--3--|--0--0--0--0--0--0--0--0--|
--3--3--3--3--3-----------|--0--0--0--0--0--0--0--0--|


  E  E  E  E  E  E  E  E     E  E  E  E  E  E  E  E
--------------------------|--------------------------|
--------------------------|--------------------------|
--------------------------|--------------------------|
--8--8--8--8--8--8--8--8--|--------------------------|
--8--8--8--8--8--8--8--8--|--------------------------|
--8--8--8--8--8--8--8--8--|--3--3--3--3--5--5--5--5--|


  E  E  E  E  E  E  E  E     E  E  E  E  E  E  E  E
--------------------------|--------------------------|
--------------------------|--------------------------|
--------------------------|--------------------------|
--------------------------|--0--0--0--0--0--0--0--0--|
--------------8--8--7--7--|--0--0--0--0--0--0--0--0--|
--7--7--8--8--------------|--0--0--0--0--0--0--0--0--|


  E  E  E  E  E  E  E  E     E  E  E  E  E  E  E  E
--------------------------|--------------------------|
--------------------------|--------------------------|
--------------------------|--------------------------|
--8--8--8--8--8--8--8--8--|--3--3--3--3--3--3--3--3--|
--8--8--8--8--8--8--8--8--|--3--3--3--3--3--3--3--3--|
--8--8--8--8--8--8--8--8--|--3--3--3--3--3--3--3--3--|


  E  E  E  E  E  E  E  E     E  E  E  E  E  E  E  E
--------------------------|--------------------------|
--------------------------|--------------------------|
-----------------5--5--5--|--------------------------|
--3--3--3--3--3--5--5--5--|--0--0--0--0--0--0--0--0--|
--3--3--3--3--3--3--3--3--|--0--0--0--0--0--0--0--0--|
--3--3--3--3--3-----------|--0--0--0--0--0--0--0--0--|


  E  E  E  E  E  E  E  E     E  E  E  E  E  E  E  E
--------------------------|--------------------------|
--------------------------|--------------------------|
--------------------------|--------------------------|
--8--8--8--8--8--8--8--8--|--------------------------|
--8--8--8--8--8--8--8--8--|--------------------------|
--8--8--8--8--8--8--8--8--|--3--3--3--3--5--5--5--5--|


                             PM PM PM PM PM PM    PM PM PM PM
  E  E  E  E  E  E  E  E     S  S  S  S  E  E  E  E  E  S  S
--------------------------|-----------------------------------|
--------------------------|-----------------------------------|
--------------------------|-----------------------------------|
--------------------------|--0--0--0--0--0--0-----0--0--0--0--|
--------------8--8--7--7--|--0--0--0--0--0--0-----0--0--0--0--|
--7--7--8--8--------------|--0--0--0--0--0--0-----0--0--0--0--|


    PM PM PM PM PM PM PM PM PM PM    PM PM PM PM PM PM    PM PM PM PM
  S E  S  E  E  S  S  S  S  E  E     S  S  S  S  E  E  E  E  E  S  S
----------------------------------|-----------------------------------|
----------------------------------|-----------------------------------|
----------------------------------|-----------------------------------|
--L-0--0--0--0--0--0--0--0--0--0--|--0--0--0--0--0--0-----0--0--0--0--|
--L-0--0--0--0--0--0--0--0--0--0--|--0--0--0--0--0--0-----0--0--0--0--|
--L-0--0--0--0--0--0--0--0--0--0--|--0--0--0--0--0--0-----0--0--0--0--|


    PM PM PM PM         PM PM    PM PM   PM PM   PM PM   PM PM   PM PM   PM
  S E  S  E  E  S S S S E  E     S  S  S S  S  S S  S  S S  S  S S  S  S S
------------------------------|---------------------------------------------|
------------------------------|---------------------------------------------|
------------------------------|---------------------------------------------|
--L-0--0--0--0----------0--0--|--0--0----0--0----0--0----0--0----0--0----0--|
--L-0--0--0--0----------0--0--|--0--0----0--0----0--0----0--0----0--0----0--|
--L-0--0--0--0----------0--0--|--0--0----0--0----0--0----0--0----0--0----0--|


  PM   PM PM   PM PM   PM PM PM PM PM PM PM PM
  S  S S  S  S S  S  S S  S  S  S  S  S  S  S
-----------------------------------------------|
-----------------------------------------------|
-----------------------------------------------|
--0----0--0----0--0----0--0--0--0--0--0--0--0--|
--0----0--0----0--0----0--0--0--0--0--0--0--0--|
--0----0--0----0--0----0--0--0--0--0--0--0--0--|


  PM             PM PM   PM PM      PM PM             PM PM PM PM PM PM
  E  E  E  E  E  S  S  S S  S  S    S  S  S S S S S S S  S  S  S  E  E
---------------------------------|--------------------------------------|-----||
---------------------------------|--------------------------------------|-----||
---------------------------------|--------------------------------------|-----||
--0--------------0--0----0--0----|--0--0--------------0--0--0--0--0--0--|-----||
--0--------------0--0----0--0----|--0--0--------------0--0--0--0--0--0--|-----||
--0--------------0--0----0--0----|--0--0--------------0--0--0--0--0--0--|-----||


Guitar 2

                           PM PM
     E   E  E  E  E  E  E  S  S     E  E  E  E  E  E  E  E
D||------------------------------|--------------------------|
A||------------------------------|--------------------------|
F||------------------------------|--------------------------|
C||---------7-----7--------------|--------------------3--L--|
G||------------0-----8--0--0--0--|--5--0-----7--0--7--L--7--|
C||--5S--8-----------------------|--------3-----------------|


  E   E  E  E  E  E  E  E     E  S S E  E  S S E  S S E
---------------------------|-----------------------------|
---------------------------|-----------------------------|
---------------------------|---------------9-9-9--9-9-9--|
---------5-----------7-----|---------------x-x-x--x-x-x--|
------------0--7--8-----8--|--0--8-8-8-----8-8-8--8-8-8--|
--5S--8--------------------|------------8----------------|


                        PM PM
  E   E  E  E  E  E  E  S  S     E  E  E  E  E  E  E  E
------------------------------|--------------------------|
------------------------------|--------------------------|
------------------------------|--------------------------|
---------7-----7--------------|--------------------3--L--|
------------0-----8--0--0--0--|--5--0-----7--0--7--L--7--|
--5S--8-----------------------|--------3-----------------|


                                           PM PM PM PM PM PM
  E   E  E  E  E  E  E  E     E  S S E  E  S  S  E  S  S  E
---------------------------|---------------------------------|-----|-----|
---------------------------|---------------------------------|-----|-----|
---------------------------|---------------------------------|-----|-----|
---------5-----------7-----|---------------0--0--0--0--0--0--|-----|-----|
------------0--7--8-----8--|--0--8-8-8-----0--0--0--0--0--0--|-----|-----|
--5S--8--------------------|------------8--0--0--0--0--0--0--|-----|-----|


  S  S S S E  E  E  E  E  E     E   Q     E  E  E   E  E
-----------------------------|----------------------------|
-----------------------------|----------------------------|
-----------------------------|---------------9-----10--9--|
--------------------8--8--8--|-----10b----L-----7---------|
--------------------5--5--5--|------7b----L---------------|
--8-10-8-0-7--0--------------|----------------------------|


  S  S S S E  E  E  E  E  E     S E  S E  S E   S  E  E  E
-----------------------------|------------------------------|
-----------------------------|------------------------------|
-----------------------------|------------------------------|
--------------------8--8--8--|------------------------------|
--------------------5--5--5--|------------------------------|
--8-10-8-0-7--0--------------|--0-0--8-8--7-7--10-10--8--7--|


  E  E  E  E  E  S S E  E     S E  S E  E   S  S  S E  S E
---------------------------|--------------------------------|
---------------------------|--------------------------------|
---------------------------|--------------------------------|
---------------------------|--------------------------------|
---------------------------|--------------------------------|
--5--------------5-5-5--7--|--8-8----------10-10-10-8--7-7--|


  PM                                PM PM     PM PM     PM PM PM PM PM PM
  E   E   E   E   E   E   E   E     S  S  S S S  S  S S S  S  S  E  S  E
-----------------10---L---L---L--|----------------------------------------|
---------10---L---L--10---L--10--|----------------------------------------|
-----12---L--12---L---L--12---L--|----------------------------------------|
--0------------------------------|--0--0------0--0------0--0--0--0--0--0--|
--0------------------------------|--0--0------0--0------0--0--0--0--0--0--|
--0------------------------------|--0--0------0--0------0--0--0--0--0--0--|


  S  S S S E  E  E  E  E  E     E   Q     E  E  E   E  E
-----------------------------|----------------------------|
-----------------------------|----------------------------|
-----------------------------|---------------9-----10--9--|
--------------------8--8--8--|-----10b----L-----7---------|
--------------------5--5--5--|------7b----L---------------|
--8-10-8-0-7--0--------------|----------------------------|


  S  S S S E  E  E  E  E  E     S E  S E  S E   S  E  E  E
-----------------------------|------------------------------|
-----------------------------|------------------------------|
-----------------------------|------------------------------|
--------------------8--8--8--|------------------------------|
--------------------5--5--5--|------------------------------|
--8-10-8-0-7--0--------------|--0-0--8-8--7-7--10-10--8--7--|


  E  E  E  E  E  S S E  E     S E  S E  E   S  S  S E  S E
---------------------------|--------------------------------|
---------------------------|--------------------------------|
---------------------------|--------------------------------|
---------------------------|--------------------------------|
---------------------------|--------------------------------|
--5--------------5-5-5--7--|--8-8----------10-10-10-8--7-7--|


  PM                                PM PM     PM PM     PM PM PM PM PM PM
  E   E   E   E   E   E   E   E     S  S  S S S  S  S S S  S  S  E  S  E
-----------------10---L---L---L--|----------------------------------------|
---------10---L---L--10---L--10--|----------------------------------------|
-----12---L--12---L---L--12---L--|----------------------------------------|
--0------------------------------|--0--0------0--0------0--0--0--0--0--0--|
--0------------------------------|--0--0------0--0------0--0--0--0--0--0--|
--0------------------------------|--0--0------0--0------0--0--0--0--0--0--|


  PM
  E  E  E  E  E  E  E  E            E   E   E   E   E   E   E   E
--------------------------|-----|--17------------------------------|
--------------------------|-----|------15--18--15--17--15------15--|
--------------------------|-----|--------------------------17------|
--0-----------------------|-----|----------------------------------|
--0-----------------------|-----|----------------------------------|
--0-----------------------|-----|----------------------------------|


   E   E   E   E   E   E   E   E      E   E   E   E   E   E   E   E
--17------------------------------|--18------------------------------|
------15--18--15--17--15------15--|------15--18--15--17--15------15--|
--------------------------17------|--------------------------17------|
----------------------------------|----------------------------------|
----------------------------------|----------------------------------|
----------------------------------|----------------------------------|


   E   E   E   E   E   E   E   E      E   E   E   E   E   E   E   E
--------------------------15------|--17------------------------------|
--17--15------15--18--15------15--|------15--18--15--17--15------15--|
----------17----------------------|--------------------------17------|
----------------------------------|----------------------------------|
----------------------------------|----------------------------------|
----------------------------------|----------------------------------|


   E   E   E   E   E   E   E   E      E   E   E   E   E   E   E   E
--17------------------------------|--18------------------------------|
------15--18--15--17--15------15--|------15--18--15--17--15------15--|
--------------------------17------|--------------------------17------|
----------------------------------|----------------------------------|
----------------------------------|----------------------------------|
----------------------------------|----------------------------------|


   E   E   E   E   E   E   E   E      E   E   E   E   E   E   E   E
--------------------------15------|--17------------------------------|
--17--15------15--18--15------15--|------15--18--15--17--15------15--|
----------17----------------------|--------------------------17------|
----------------------------------|----------------------------------|
----------------------------------|----------------------------------|
----------------------------------|----------------------------------|


   E   E   E   E   E   E   E   E      E   E   E   E   E   E   E   E
--17------------------------------|--18------------------------------|
------15--18--15--17--15------15--|------15--18--15--17--15------15--|
--------------------------17------|--------------------------17------|
----------------------------------|----------------------------------|
----------------------------------|----------------------------------|
----------------------------------|----------------------------------|


   E   E   E   E   E   E   E   E      E   E   E   E   E   E   E   E
--------------------------15------|--17------------------------------|
--17--15------15--18--15------15--|------15--18--15--17--15------15--|
----------17----------------------|--------------------------17------|
----------------------------------|----------------------------------|
----------------------------------|----------------------------------|
----------------------------------|----------------------------------|


   E   E   E   E   E   E   E   E      E   E   E   E   E   E   E   E
--17------------------------------|--18------------------------------|
------15--18--15--17--15------15--|------15--18--15--17--15------15--|
--------------------------17------|--------------------------17------|
----------------------------------|----------------------------------|
----------------------------------|----------------------------------|
----------------------------------|----------------------------------|


                                                           PM PM
   E   E   E   E   E   E   E   E     E   E  E  E  E  E  E  S  S
--------------------------15------|------------------------------|
--17--15------15--18--15------15--|------------------------------|
----------17----------------------|------------------------------|
----------------------------------|---------7-----7--------------|
----------------------------------|------------0-----8--0--0--0--|
----------------------------------|--5S--8-----------------------|


  E  E  E  E  E  E  E  E     E   E  E  E  E  E  E  E
--------------------------|---------------------------|
--------------------------|---------------------------|
--------------------------|---------------------------|
--------------------3--L--|---------5-----------7-----|
--5--0-----7--0--7--L--7--|------------0--7--8-----8--|
--------3-----------------|--5S--8--------------------|


  E  S S E  E  S S E  S S E           S  S S S E  E  E  E  E  E
-----------------------------|---s-|-----------------------------|
-----------------------------|-p-l-|-----------------------------|
---------------9-9-9--9-9-9--|-i-i-|-----------------------------|
---------------x-x-x--x-x-x--|-c-d-|--------------------8--8--8--|
--0--8-8-8-----8-8-8--8-8-8--|-k-e-|--------------------5--5--5--|
------------8----------------|-----|--8-10-8-0-7--0--------------|


  E   Q     E  E  E   E  E     S  S S S E  E  E  E  E  E
----------------------------|-----------------------------|
----------------------------|-----------------------------|
---------------9-----10--9--|-----------------------------|
-----10b----L-----7---------|--------------------8--8--8--|
------7b----L---------------|--------------------5--5--5--|
----------------------------|--8-10-8-0-7--0--------------|


  S E  S E  S E   S  E  E  E     E  E  E  E  E  S S E  E
------------------------------|---------------------------|
------------------------------|---------------------------|
------------------------------|---------------------------|
------------------------------|---------------------------|
------------------------------|---------------------------|
--0-0--8-8--7-7--10-10--8--7--|--5--------------5-5-5--7--|


                                   PM
  S E  S E  E   S  S  S E  S E     E   E   E   E   E   E   E   E
--------------------------------|-----------------10---L---L---L--|
--------------------------------|---------10---L---L--10---L--10--|
--------------------------------|-----12---L--12---L---L--12---L--|
--------------------------------|--0------------------------------|
--------------------------------|--0------------------------------|
--8-8----------10-10-10-8--7-7--|--0------------------------------|


  PM PM     PM PM     PM PM PM PM PM PM
  S  S  S S S  S  S S S  S  S  E  S  E     S  S S S E  E  E  E  E  E
----------------------------------------|-----------------------------|
----------------------------------------|-----------------------------|
----------------------------------------|-----------------------------|
--0--0------0--0------0--0--0--0--0--0--|--------------------8--8--8--|
--0--0------0--0------0--0--0--0--0--0--|--------------------5--5--5--|
--0--0------0--0------0--0--0--0--0--0--|--8-10-8-0-7--0--------------|


  E   Q     E  E  E   E  E     S  S S S E  E  E  E  E  E
----------------------------|-----------------------------|
----------------------------|-----------------------------|
---------------9-----10--9--|-----------------------------|
-----10b----L-----7---------|--------------------8--8--8--|
------7b----L---------------|--------------------5--5--5--|
----------------------------|--8-10-8-0-7--0--------------|


  S E  S E  S E   S  E  E  E     E  E  E  E  E  S S E  E
------------------------------|---------------------------|
------------------------------|---------------------------|
------------------------------|---------------------------|
------------------------------|---------------------------|
------------------------------|---------------------------|
--0-0--8-8--7-7--10-10--8--7--|--5--------------5-5-5--7--|


                                   PM
  S E  S E  E   S  S  S E  S E     E   E   E   E   E   E   E   E
--------------------------------|-----------------10---L---L---L--|
--------------------------------|---------10---L---L--10---L--10--|
--------------------------------|-----12---L--12---L---L--12---L--|
--------------------------------|--0------------------------------|
--------------------------------|--0------------------------------|
--8-8----------10-10-10-8--7-7--|--0------------------------------|


  PM PM   PM PM   PM PM   PM PM   PM
  S  S  S S  S  S S  S  S S  S  S E  E      E   E   E   E   E   E   E   E
----------------------------------------|--17------------------------------|
----------------------------------------|------15--18--15--17--15------15--|
----------------------------------------|--------------------------17------|
--0--0----0--0----0--0----0--0----0-----|----------------------------------|
--0--0----0--0----0--0----0--0----0-----|----------------------------------|
--0--0----0--0----0--0----0--0----0-----|----------------------------------|


   E   E   E   E   E   E   E   E      E   E   E   E   E   E   E   E
--17------------------------------|--18------------------------------|
------15--18--15--17--15------15--|------15--18--15--17--15------15--|
--------------------------17------|--------------------------17------|
----------------------------------|----------------------------------|
----------------------------------|----------------------------------|
----------------------------------|----------------------------------|


   E   E   E   E   E   E   E   E      E   E   E   E   E   E   E   E
--------------------------15------|--17------------------------------|
--17--15------15--18--15------15--|------15--18--15--17--15------15--|
----------17----------------------|--------------------------17------|
----------------------------------|----------------------------------|
----------------------------------|----------------------------------|
----------------------------------|----------------------------------|


   E   E   E   E   E   E   E   E      E   E   E   E   E   E   E   E
--17------------------------------|--18------------------------------|
------15--18--15--17--15------15--|------15--18--15--17--15------15--|
--------------------------17------|--------------------------17------|
----------------------------------|----------------------------------|
----------------------------------|----------------------------------|
----------------------------------|----------------------------------|


   E   E   E   E   E   E   E   E      E   E   E   E   E   E   E   E
--------------------------15------|--17------------------------------|
--17--15------15--18--15------15--|------15--18--15--17--15------15--|
----------17----------------------|--------------------------17------|
----------------------------------|----------------------------------|
----------------------------------|----------------------------------|
----------------------------------|----------------------------------|


   E   E   E   E   E   E   E   E      E   E   E   E   E   E   E   E
--17------------------------------|--18------------------------------|
------15--18--15--17--15------15--|------15--18--15--17--15------15--|
--------------------------17------|--------------------------17------|
----------------------------------|----------------------------------|
----------------------------------|----------------------------------|
----------------------------------|----------------------------------|


   E   E   E   E   E   E   E   E      E   E   E   E   E   E   E   E
--------------------------15------|--17------------------------------|
--17--15------15--18--15------15--|------15--18--15--17--15------15--|
----------17----------------------|--------------------------17------|
----------------------------------|----------------------------------|
----------------------------------|----------------------------------|
----------------------------------|----------------------------------|


   E   E   E   E   E   E   E   E      E   E   E   E   E   E   E   E
--17------------------------------|--18------------------------------|
------15--18--15--17--15------15--|------15--18--15--17--15------15--|
--------------------------17------|--------------------------17------|
----------------------------------|----------------------------------|
----------------------------------|----------------------------------|
----------------------------------|----------------------------------|


   E   E   E   E   E   E   E   E     S S S S E  E  S  S S S E  E
--------------------------15------|-------------------------------|
--17--15------15--18--15------15--|-------------------------------|
----------17----------------------|-------------------------------|
----------------------------------|-------------------------------|
----------------------------------|--7-8-7-0----------------------|
----------------------------------|----------8--0--8-10-8-0-7--0--|


  S S S S E  E  S S S E  S E     S S S S E  E  S  S S S E  E
------------------------------|-------------------------------|
------------------------------|-------------------------------|
------------------------------|-------------------------------|
------------------------------|-------------------------------|
------------------------------|--7-8-7-0----------------------|
--5-7-5-0-3--0--8-8-0-8--8-7--|----------8--0--8-10-8-0-7--0--|


  S S S S E  E  H           S S S S S S S S S S S S S S S S
-------------------------|----------------------------------|
-------------------------|----------------------------------|
-------------------------|----------------------------------|
-------------------------|----------------------------------|
-------------------------|----------------------------------|
--5-7-5-0-3--0-----------|--1-1-1-1-1-1-1-1-1-1-1-1-1-1-1-1-|


  S S S S S S S S S S S S S S S S    S S S S S S S S S S S S S S S S
----------------------------------|----------------------------------|
----------------------------------|----------------------------------|
----------------------------------|----------------------------------|
----------------------------------|----------------------------------|
----------------------------------|----------------------------------|
--1-1-1-1-1-1-1-1-1-1-1-1-2-2-2-2-|--1-1-1-1-1-1-1-1-1-1-1-1-1-1-1-1-|


                                     PM PM PM PM PM PM    PM PM PM PM
  S S S S S S S S S S S S S S S S    S  S  S  S  E  E  E  E  E  S  S
----------------------------------|-----------------------------------|
----------------------------------|-----------------------------------|
----------------------------------|-----------------------------------|
----------------------------------|--0--0--0--0--0--0-----0--0--0--0--|
----------------------------------|--0--0--0--0--0--0-----0--0--0--0--|
--1-1-1-1-1-1-1-1-1---------------|--0--0--0--0--0--0-----0--0--0--0--|


    PM PM PM PM PM PM PM PM PM PM    PM PM PM PM PM PM    PM PM PM PM
  S E  S  E  E  S  S  S  S  E  E     S  S  S  S  E  E  E  E  E  S  S
----------------------------------|-----------------------------------|
----------------------------------|-----------------------------------|
----------------------------------|-----------------------------------|
--L-0--0--0--0--0--0--0--0--0--0--|--0--0--0--0--0--0-----0--0--0--0--|
--L-0--0--0--0--0--0--0--0--0--0--|--0--0--0--0--0--0-----0--0--0--0--|
--L-0--0--0--0--0--0--0--0--0--0--|--0--0--0--0--0--0-----0--0--0--0--|


    PM PM PM PM PM PM PM PM PM PM    PM PM PM PM PM PM    PM PM PM PM
  S E  S  E  E  S  S  S  S  E  E     S  S  S  S  E  E  E  E  E  S  S
----------------------------------|-----------------------------------|
----------------------------------|-----------------------------------|
----------------------------------|-----------------------------------|
--L-0--0--0--0--0--0--0--0--0--0--|--0--0--0--0--0--0-----0--0--0--0--|
--L-0--0--0--0--0--0--0--0--0--0--|--0--0--0--0--0--0-----0--0--0--0--|
--L-0--0--0--0--0--0--0--0--0--0--|--0--0--0--0--0--0-----0--0--0--0--|


    PM PM PM PM PM PM PM PM PM PM    PM PM PM PM PM PM    PM PM PM PM
  S E  S  E  E  S  S  S  S  E  E     S  S  S  S  E  E  E  E  E  S  S
----------------------------------|-----------------------------------|
----------------------------------|-----------------------------------|
----------------------------------|-----------------------------------|
--L-0--0--0--0--0--0--0--0--0--0--|--0--0--0--0--0--0-----0--0--0--0--|
--L-0--0--0--0--0--0--0--0--0--0--|--0--0--0--0--0--0-----0--0--0--0--|
--L-0--0--0--0--0--0--0--0--0--0--|--0--0--0--0--0--0-----0--0--0--0--|


    PM PM PM PM PM PM PM PM PM PM PM PM PM PM PM PM
  S E  S  E  E  S  S  S  S  T  T  T  T  T  T  T  T
----------------------------------------------------|
----------------------------------------------------|
----------------------------------------------------|
--L-0--0--0--0--0--0--0--0--------------------------|
--L-0--0--0--0--0--0--0--0--------------------------|
--L-0--0--0--0--0--0--0--0--0--0--0--0--0--0--0--0--|


  PM PM   PM PM   PM PM   PM PM   PM PM   PM
  S  S  S S  S  S S  S  S S  S  S S  S  S S
---------------------------------------------|
---------------------------------------------|
---------------------------------------------|
--0--0----0--0----0--0----0--0----0--0----0--|
--0--0----0--0----0--0----0--0----0--0----0--|
--0--0----0--0----0--0----0--0----0--0----0--|


  PM   PM PM   PM PM   PM PM PM PM PM PM PM PM    PM             PM PM
  S  S S  S  S S  S  S S  S  S  S  S  S  S  S     E  E  E  E  E  S  S  S S S S
-----------------------------------------------|-------------------------------|
-----------------------------------------------|-------------------------------|
-----------------------------------------------|-------------------------------|
--0----0--0----0--0----0--0--0--0--0--0--0--0--|--0--------------0--0----------|
--0----0--0----0--0----0--0--0--0--0--0--0--0--|--0--------------0--0----------|
--0----0--0----0--0----0--0--0--0--0--0--0--0--|--0--------------0--0----------|


  PM PM             PM PM PM PM PM PM    PM PM PM PM PM PM    PM PM PM PM
  S  S  S S S S S S S  S  S  S  E  E     S  S  S  S  E  E  E  E  E  S  S
--------------------------------------|-----------------------------------|
--------------------------------------|-----------------------------------|
--------------------------------------|-----------------------------------|
--0--0--------------0--0--0--0--0--0--|--0--0--0--0--0--0-----0--0--0--0--|
--0--0--------------0--0--0--0--0--0--|--0--0--0--0--0--0-----0--0--0--0--|
--0--0--------------0--0--0--0--0--0--|--0--0--0--0--0--0-----0--0--0--0--|


    PM PM PM PM PM PM PM PM PM PM    PM PM PM PM PM PM    PM PM PM PM
  S E  S  E  E  S  S  S  S  E  E     S  S  S  S  E  E  E  E  E  S  S
----------------------------------|-----------------------------------|
----------------------------------|-----------------------------------|
----------------------------------|-----------------------------------|
--L-0--0--0--0--0--0--0--0--0--0--|--0--0--0--0--0--0-----0--0--0--0--|
--L-0--0--0--0--0--0--0--0--0--0--|--0--0--0--0--0--0-----0--0--0--0--|
--L-0--0--0--0--0--0--0--0--0--0--|--0--0--0--0--0--0-----0--0--0--0--|


    PM PM PM PM PM PM PM PM PM PM
  S E  S  E  E  S  S  S  S  E  E      Q    E   Q    E   Q
----------------------------------|--------------------------|
----------------------------------|--------------------------|
----------------------------------|--------------------------|
--L-0--0--0--0--0--0--0--0--0--0--|--14----L--12----L--15----|
--L-0--0--0--0--0--0--0--0--0--0--|--------------------------|
--L-0--0--0--0--0--0--0--0--0--0--|--------------------------|


  W                    Q    E   Q    E   Q       E   Q     H        E
-------------------|--------------------------|------------------------|
-------------------|--------------------------|------------------------|
-------------------|--------------------------|-----14b----L--------L--|
--L----------------|--14----L--12----L--15----|--L---------------------|
-------------------|--------------------------|------------------------|
-------------------|--------------------------|------------------------|


   Q    E   Q    E   Q       W                   W
--------------------------|-------------------|-------------------|
--------------------------|-------------------|-------------------|
--------------------------|-------------------|-------------------|
--14----L--12----L--15----|--L----------------|--L----------------|
--------------------------|-------------------|-------------------|
--------------------------|-------------------|-------------------|


  W                    E   E   E   E   E   E   E   E
-------------------|--17------------------------------|
-------------------|------15--18--15--17--15------15--|
-------------------|--------------------------17------|
--L----------------|----------------------------------|
-------------------|----------------------------------|
-------------------|----------------------------------|


   E   E   E   E   E   E   E   E      E   E   E   E   E   E   E   E
--17------------------------------|--18------------------------------|
------15--18--15--17--15------15--|------15--18--15--17--15------15--|
--------------------------17------|--------------------------17------|
----------------------------------|----------------------------------|
----------------------------------|----------------------------------|
----------------------------------|----------------------------------|


   E   E   E   E   E   E   E   E      E   E   E   E   E   E   E   E
--------------------------15------|--17------------------------------|
--17--15------15--18--15------15--|------15--18--15--17--15------15--|
----------17----------------------|--------------------------17------|
----------------------------------|----------------------------------|
----------------------------------|----------------------------------|
----------------------------------|----------------------------------|


   E   E   E   E   E   E   E   E      E   E   E   E   E   E   E   E
--17------------------------------|--18------------------------------|
------15--18--15--17--15------15--|------15--18--15--17--15------15--|
--------------------------17------|--------------------------17------|
----------------------------------|----------------------------------|
----------------------------------|----------------------------------|
----------------------------------|----------------------------------|


   E   E   E   E   E   E   E   E      E   E   E   E   E   E   E   E
--------------------------15------|--17------------------------------|
--17--15------15--18--15------15--|------15--18--15--17--15------15--|
----------17----------------------|--------------------------17------|
----------------------------------|----------------------------------|
----------------------------------|----------------------------------|
----------------------------------|----------------------------------|


   E   E   E   E   E   E   E   E      E   E   E   E   E   E   E   E
--17------------------------------|--18------------------------------|
------15--18--15--17--15------15--|------15--18--15--17--15------15--|
--------------------------17------|--------------------------17------|
----------------------------------|----------------------------------|
----------------------------------|----------------------------------|
----------------------------------|----------------------------------|


   E   E   E   E   E   E   E   E      E   E   E   E   E   E   E   E
--------------------------15------|--17------------------------------|
--17--15------15--18--15------15--|------15--18--15--17--15------15--|
----------17----------------------|--------------------------17------|
----------------------------------|----------------------------------|
----------------------------------|----------------------------------|
----------------------------------|----------------------------------|


   E   E   E   E   E   E   E   E      E   E   E   E   E   E   E   E
--17------------------------------|--18------------------------------|
------15--18--15--17--15------15--|------15--18--15--17--15------15--|
--------------------------17------|--------------------------17------|
----------------------------------|----------------------------------|
----------------------------------|----------------------------------|
----------------------------------|----------------------------------|


                                     PM PM PM PM PM PM    PM PM PM PM
   E   E   E   E   E   E   E   E     S  S  S  S  E  E  E  E  E  S  S
--------------------------15------|-----------------------------------|
--17--15------15--18--15------15--|-----------------------------------|
----------17----------------------|-----------------------------------|
----------------------------------|--0--0--0--0--0--0-----0--0--0--0--|
----------------------------------|--0--0--0--0--0--0-----0--0--0--0--|
----------------------------------|--0--0--0--0--0--0-----0--0--0--0--|


    PM PM PM PM PM PM PM PM PM PM    PM PM PM PM PM PM    PM PM PM PM
  S E  S  E  E  S  S  S  S  E  E     S  S  S  S  E  E  E  E  E  S  S
----------------------------------|-----------------------------------|
----------------------------------|-----------------------------------|
----------------------------------|-----------------------------------|
--L-0--0--0--0--0--0--0--0--0--0--|--0--0--0--0--0--0-----0--0--0--0--|
--L-0--0--0--0--0--0--0--0--0--0--|--0--0--0--0--0--0-----0--0--0--0--|
--L-0--0--0--0--0--0--0--0--0--0--|--0--0--0--0--0--0-----0--0--0--0--|


    PM PM PM PM PM PM PM PM
  S E  S  E  E  S  S  S  S  E  E
----------------------------------|
----------------------------------|
----------------------------------|
--L-0--0--0--0--0--0--0--0--------|
--L-0--0--0--0--0--0--0--0--------|
--L-0--0--0--0--0--0--0--0--------|


  PM PM   PM PM   PM PM   PM PM   PM PM   PM
  S  S  S S  S  S S  S  S S  S  S S  S  S S
---------------------------------------------|
---------------------------------------------|
---------------------------------------------|
--0--0----0--0----0--0----0--0----0--0----0--|
--0--0----0--0----0--0----0--0----0--0----0--|
--0--0----0--0----0--0----0--0----0--0----0--|


  PM   PM PM   PM PM   PM PM PM PM PM PM PM PM
  S  S S  S  S S  S  S S  S  S  S  S  S  S  S
-----------------------------------------------|
-----------------------------------------------|
-----------------------------------------------|
--0----0--0----0--0----0--0--0--0--0--0--0--0--|
--0----0--0----0--0----0--0--0--0--0--0--0--0--|
--0----0--0----0--0----0--0--0--0--0--0--0--0--|


  PM             PM PM   PM PM      PM PM             PM PM PM PM PM PM
  E  E  E  E  E  S  S  S S  S  S    S  S  S S S S S S S  S  S  S  E  E
---------------------------------|--------------------------------------|-----||
---------------------------------|--------------------------------------|-----||
---------------------------------|--------------------------------------|-----||
--0--------------0--0----0--0----|--0--0--------------0--0--0--0--0--0--|-----||
--0--------------0--0----0--0----|--0--0--------------0--0--0--0--0--0--|-----||
--0--------------0--0----0--0----|--0--0--------------0--0--0--0--0--0--|-----||


Guitar 3

Starts at (02:32)


   Q     Q     Q    Q        Q     Q     Q    Q        Q     Q     Q    Q
-------------------------|-------------------------|-------------------------|
--------------15----L----|--------------15----L----|--------------18----L----|
--------14----------L----|--------14----------L----|--------14----------L----|
--12----------------L----|--12----------------L----|--15----------------L----|
-------------------------|-------------------------|-------------------------|
-------------------------|-------------------------|-------------------------|


   Q     Q     Q    Q        Q     Q     Q    Q        Q     Q     Q    Q
-------------------------|-------------------------|-------------------------|
--------------17----L----|--------------15----L----|--------------15----L----|
--------14----------L----|--------14----------L----|--------14----------L----|
--14----------------L----|--12----------------L----|--12----------------L----|
-------------------------|-------------------------|-------------------------|
-------------------------|-------------------------|-------------------------|


   Q     Q     Q    Q        Q     Q     Q    Q
-------------------------|-------------------------|-------|-------|-------|
--------------18----L----|--------------17----L----|-------|-------|-------|
--------14----------L----|--------14----------L----|-------|-------|-------|
--15----------------L----|--14----------------L----|-------|-------|-------|
-------------------------|-------------------------|-------|-------|-------|
-------------------------|-------------------------|-------|-------|-------|


============================================================================
============================================================================


----------------------------------------------------------------------------
                            The Answer
                             Heartist
----------------------------------------------------------------------------


Guitar 1 Rhythmic (C G C F A D)
Guitar 2 Lead     (C G C F A D)

NOTE: This was exported off of guitar pro.


Guitar 1

      Echo Effect
      >                 >           >
      |--------3--------|     |-----3-----|
      Q           Q     Q     Q     Q     Q       W
D||--19----------19-----------L----18----18----|--L----------------|
A||--------------------16----16-----------L----|-------------------|
F||--------------------------------------------|-------------------|
C||--------------------------------------------|-------------------|
G||--------------------------------------------|-------------------|
C||--------------------------------------------|-------------------|


   >           >           >                            >          >
   |-----3-----|     |-----3-----|       |----3---|     |-----3----|
   Q     Q     Q     Q     Q     Q       H        Q     H          Q
--19----19-----------L----------------|----------------18b--------------|
--------------16----16-----------L----|---------------------------19----|
--------------------------18----18----|--L--------L---------------------|
--------------------------------------|---------------------------------|
--------------------------------------|---------------------------------|
--------------------------------------|---------------------------------|


   >           >           >
   |-----3-----|     |-----3-----|
   Q     Q     Q     Q     Q     Q       W
--19----19-----------L----18----18----|--L----------------|
--------------16----16-----------L----|-------------------|
--------------------------------------|-------------------|
--------------------------------------|-------------------|
--------------------------------------|-------------------|
--------------------------------------|-------------------|


   >                                     >
   |------3-----|     |----3----|        |------3-----|     |----3----|
   Q     Q      Q     Q    Q    Q        Q     Q      Q     Q    Q    Q
--16----16----(16)----L----L----L----|--15----15----(15)----L----L----L----|
-------------------------------------|-------------------------------------|
-------------------------------------|-------------------------------------|
-------------------------------------|-------------------------------------|
-------------------------------------|-------------------------------------|
-------------------------------------|-------------------------------------|


  E  E  E  E  E  E  E  E     E  E  E  E  E  E  E  E
--------------------------|--------------------------|
--------------------------|--------------------------|
--------------------------|--4--4--4--4--4--4--4--4--|
--6--6--6--6--6--6--6--6--|--4--4--4--4--4--4--4--4--|
--6--6--6--6--6--6--6--6--|--2--2--2--2--2--2--2--2--|
--6--6--6--6--6--6--6--6--|--------------------------|


  E  E  E  E  E  E  E  E     E  E  E  E  E  E  E  E
--------------------------|--------------------------|
--------------------------|--------------------------|
--------------------------|--------------------------|
--2--2--2--2--2--2--2--2--|--2--2--2--2--2--4--4--4--|
--2--2--2--2--2--2--2--2--|--2--2--2--2--2--4--4--4--|
--2--2--2--2--2--2--2--2--|--2--2--2--2--2--4--4--4--|


  E  E  E  E  E  E  E  E     E  E  E  E  E  E  E  E
--------------------------|--------------------------|
--------------------------|--------------------------|
--------------------------|--4--4--4--4--4--4--4--4--|
--6--6--6--6--6--6--6--6--|--4--4--4--4--4--4--4--4--|
--6--6--6--6--6--6--6--6--|--2--2--2--2--2--2--2--2--|
--6--6--6--6--6--6--6--6--|--------------------------|


  E  E  E  E  E  E  E  E      E   E   E   E   E   E   E   E
--------------------------|----------------------------------|
--------------------------|----------------------------------|
--9--9--9--9--9--9--9--9--|--12--12--12--12--12--12--12--12--|
--9--9--9--9--9--9--9--9--|--12--12--12--12--12--12--12--12--|
--7--7--7--7--7--7--7--7--|--10--10--10--10--10--10--10--10--|
--------------------------|----------------------------------|


  E  E  E  E  E  E  E  E     E  E  E  E  E  E  E  E
--------------------------|--------------------------|
--------------------------|--------------------------|
--------------------------|--4--4--4--4--4--4--4--4--|
--6--6--6--6--6--6--6--6--|--4--4--4--4--4--4--4--4--|
--6--6--6--6--6--6--6--6--|--2--2--2--2--2--2--2--2--|
--6--6--6--6--6--6--6--6--|--------------------------|


  E  E  E  E  E  E  E  E     E  E  E  E  E  E  E  E
--------------------------|--------------------------|
--------------------------|--------------------------|
--------------------------|--------------------------|
--2--2--2--2--2--2--2--2--|--2--2--2--2--2--4--4--4--|
--2--2--2--2--2--2--2--2--|--2--2--2--2--2--4--4--4--|
--2--2--2--2--2--2--2--2--|--2--2--2--2--2--4--4--4--|


  E  E  E  E  E  E  E  E     E  E  E  E  E  E  E  E
--------------------------|--------------------------|
--------------------------|--------------------------|
--------------------------|--4--4--4--4--4--4--4--4--|
--6--6--6--6--6--6--6--6--|--4--4--4--4--4--4--4--4--|
--6--6--6--6--6--6--6--6--|--2--2--2--2--2--2--2--2--|
--6--6--6--6--6--6--6--6--|--------------------------|


  E  E  E  E  E  E  E  E      E   E   E   E   E   E   E   E
--------------------------|----------------------------------|
--------------------------|----------------------------------|
--9--9--9--9--9--9--9--9--|--12--12--12--12--12--12--12--12--|
--9--9--9--9--9--9--9--9--|--12--12--12--12--12--12--12--12--|
--7--7--7--7--7--7--7--7--|--10--10--10--10--10--10--10--10--|
--------------------------|----------------------------------|


  PM PM PM PM PM PM PM PM    PM PM PM PM PM PM PM PM PM PM PM PM
  E  E  E  E  E  E  E  E     E  E  E  E  S  S  S  S  S  S  S  S
--------------------------|--------------------------------------|
--------------------------|--------------------------------------|
--------------------------|--------------------------------------|
--------------------------|--------------------------------------|
--------------6-----------|--------------------------------------|
--6--9--8--6-----9--8--9--|--6--9--8--6--2--2--2--2--1--1--1--1--|


     PM PM       PM    PM
  E  S  S  E  E  E  E  E  E     E  E  E  E  E  E  E  E
-----------------------------|--------------------------|
-----------------------------|--------------------------|
-----------------------------|--------------------------|
--6--6--6--6--9--6--6--6--2--|--L--1-----1--2--1--------|
--6--6--6--6--9--6--6--6--2--|--L-----4-----------2--1--|
--6--6--6--6--9--6--6--6--2--|--L-----------------------|


     PM PM       PM    PM                     PM
  E  S  S  E  E  E  E  E  E     E  E  E  Q    E  Q
-----------------------------|------------------------|
-----------------------------|-------------------5----|
-----------------------------|-------------------8----|
--6--6--6--6--9--6--6--6--2--|--L--2--2--5----5-------|
--6--6--6--6--9--6--6--6--2--|--L--2--2--5----5-------|
--6--6--6--6--9--6--6--6--2--|--L--2--2--5----5-------|


     PM PM       PM    PM
  E  S  S  E  E  E  E  E  E     E  E  E  E  E  E  E  E
-----------------------------|--------------------------|
-----------------------------|--------------------------|
-----------------------------|--------------------------|
--6--6--6--6--9--6--6--6--2--|--L--1-----1--2--1--------|
--6--6--6--6--9--6--6--6--2--|--L-----4-----------2--1--|
--6--6--6--6--9--6--6--6--2--|--L-----------------------|


     PM PM       PM    PM                     PM
  E  S  S  E  E  E  E  E  E     E  E  E  Q    E  Q
-----------------------------|------------------------|
-----------------------------|------------------------|
-----------------------------|------------------------|
--6--6--6--6--9--6--6--6--2--|--L--2--2--5----5-------|
--6--6--6--6--9--6--6--6--2--|--L--2--2--5----5-------|
--6--6--6--6--9--6--6--6--2--|--L--2--2--5----5-------|


        PM       PM             PM PM PM PM PM PM PM
  E  E  E  E  E  E  E  E     E  E  E  E  E  E  E  E
--------------------------|--------------------------|
--------------------------|--------------------------|
--------------------------|--------------------------|
--6--6--6--6--6--6--6--6--|-----6--6--6--6--6--6--6--|
--6--6--6--6--6--6--6--6--|-----6--6--6--6--6--6--6--|
--6--6--6--6--6--6--6--6--|-----6--6--6--6--6--6--6--|


        PM       PM             PM PM PM PM PM PM PM
  E  E  E  E  E  E  E  E     E  E  E  E  E  E  E  E
--------------------------|--------------------------|
--------------------------|--------------------------|
--------------------------|--------------------------|
--6--6--6--6--6--6--6--6--|-----6--6--6--6--6--6--6--|
--6--6--6--6--6--6--6--6--|-----6--6--6--6--6--6--6--|
--6--6--6--6--6--6--6--6--|-----6--6--6--6--6--6--6--|


        PM       PM             PM PM PM PM PM PM PM
  E  E  E  E  E  E  E  E     E  E  E  E  E  E  E  E     Q    E  H        E
--------------------------|--------------------------|----------------------|
--------------------------|--------------------------|----------------------|
--------------------------|--------------------------|----------------------|
--6--6--6--6--6--6--6--6--|-----6--6--6--6--6--6--6--|--6----L--1--------L--|
--6--6--6--6--6--6--6--6--|-----6--6--6--6--6--6--6--|--6----L--1--------L--|
--6--6--6--6--6--6--6--6--|-----6--6--6--6--6--6--6--|--6----L--1--------L--|


  Q    E   E  E  E  E  E     S S S S S S S S S S S S S S S S
--------------------------|----------------------------------|
--------------------------|----------------------------------|
--------------------------|----------------------------------|
--2----2S--5-----5--------|----------------------------------|
--2----2S--5-----5--------|----------------------------------|
--2----2S--5-----5--------|--6-6-L-6-6-L-6-6-6-6-L-6-6-L-6-6-|


  S S E  E  E  S S S S E  E     S S S S E  E  S S S S E  E
-----------------------------|------------------------------|
-----------------------------|------------------------------|
-----------------------------|------------------------------|
-----------------------------|------------------------------|
-----------------------------|------------------------------|
--6-6-6--6-----6-6-L-6-6-----|--6-6-6-6-6-----6-6-6-6-6--6--|


  S S S S S S S S S S S S S S S S    S S E  E  E  S S S S E  E
----------------------------------|-----------------------------|
----------------------------------|-----------------------------|
----------------------------------|-----------------------------|
----------------------------------|-----------------------------|
----------------------------------|-----------------------------|
--6-6-L-6-6-L-6-6-6-6-L-6-6-L-6-6-|--6-6-6--6-----6-6-L-6-6-----|


  S S S S E  E  S S S S E  E     S S S S S S S S S S S S S S S S
------------------------------|----------------------------------|
------------------------------|----------------------------------|
------------------------------|----------------------------------|
------------------------------|----------------------------------|
------------------------------|----------------------------------|
--6-6-6-6-6-----6-6-6-6-6--6--|--6-6-L-6-6-L-6-6-9-9-6-6-9-9-6-6-|


  E  E  E  E  E  E  E  E     E  E  E  E  E  E  E  E
--------------------------|--------------------------|
--------------------------|--------------------------|
--------------------------|--4--4--4--4--4--4--4--4--|
--6--6--6--6--6--6--6--6--|--4--4--4--4--4--4--4--4--|
--6--6--6--6--6--6--6--6--|--2--2--2--2--2--2--2--2--|
--6--6--6--6--6--6--6--6--|--------------------------|


  E  E  E  E  E  E  E  E     E  E  E  E  E  E  E  E
--------------------------|--------------------------|
--------------------------|--------------------------|
--------------------------|--------------------------|
--2--2--2--2--2--2--2--2--|--2--2--2--2--2--4--4--4--|
--2--2--2--2--2--2--2--2--|--2--2--2--2--2--4--4--4--|
--2--2--2--2--2--2--2--2--|--2--2--2--2--2--4--4--4--|


  E  E  E  E  E  E  E  E     E  E  E  E  E  E  E  E
--------------------------|--------------------------|
--------------------------|--------------------------|
--------------------------|--4--4--4--4--4--4--4--4--|
--6--6--6--6--6--6--6--6--|--4--4--4--4--4--4--4--4--|
--6--6--6--6--6--6--6--6--|--2--2--2--2--2--2--2--2--|
--6--6--6--6--6--6--6--6--|--------------------------|


  E  E  E  E  E  E  E  E      E   E   E   E   E   E   E   E
--------------------------|----------------------------------|
--------------------------|----------------------------------|
--9--9--9--9--9--9--9--9--|--12--12--12--12--12--12--12--12--|
--9--9--9--9--9--9--9--9--|--12--12--12--12--12--12--12--12--|
--7--7--7--7--7--7--7--7--|--10--10--10--10--10--10--10--10--|
--------------------------|----------------------------------|


  E  E  E  E  E  E  E  E     E  E  E  E  E  E  E  E
--------------------------|--------------------------|
--------------------------|--------------------------|
--------------------------|--4--4--4--4--4--4--4--4--|
--6--6--6--6--6--6--6--6--|--4--4--4--4--4--4--4--4--|
--6--6--6--6--6--6--6--6--|--2--2--2--2--2--2--2--2--|
--6--6--6--6--6--6--6--6--|--------------------------|


  E  E  E  E  E  E  E  E     E  E  E  E  E  E  E  E
--------------------------|--------------------------|
--------------------------|--------------------------|
--------------------------|--------------------------|
--2--2--2--2--2--2--2--2--|--2--2--2--2--2--4--4--4--|
--2--2--2--2--2--2--2--2--|--2--2--2--2--2--4--4--4--|
--2--2--2--2--2--2--2--2--|--2--2--2--2--2--4--4--4--|


  E  E  E  E  E  E  E  E     E  E  E  E  E  E  E  E
--------------------------|--------------------------|
--------------------------|--------------------------|
--------------------------|--4--4--4--4--4--4--4--4--|
--6--6--6--6--6--6--6--6--|--4--4--4--4--4--4--4--4--|
--6--6--6--6--6--6--6--6--|--2--2--2--2--2--2--2--2--|
--6--6--6--6--6--6--6--6--|--------------------------|


  E  E  E  E  E  E  E  E      E   E   E   E   E   E   E   E
--------------------------|----------------------------------|
--------------------------|----------------------------------|
--9--9--9--9--9--9--9--9--|--12--12--12--12--12--12--12--12--|
--9--9--9--9--9--9--9--9--|--12--12--12--12--12--12--12--12--|
--7--7--7--7--7--7--7--7--|--10--10--10--10--10--10--10--10--|
--------------------------|----------------------------------|


  E  E  E  E  E  E  E  E     E  E  E  E  E  E  E  E
--------------------------|--------------------------|
--------------------------|--------------------------|
--------------------------|--------------------------|
--------------------------|--------------------------|
--------------6-----------|--------------6-----------|
--6--9--8--6-----9--8--9--|--6--9--8--6-----9--8--5--|


                             PM PM PM PM PM PM PM PM PM PM PM PM
  E  E  E  E  E  E  E  E     S  S  E  S  S  E  S  S  E  S  S  E
--------------------------|--------------------------------------|
--------------------------|--------------------------------------|
--------------------------|--------------------------------------|
--------------------------|--5--5--5--5--5--5--5--5--5--5--5--5--|
--------------6-----------|--5--5--5--5--5--5--5--5--5--5--5--5--|
--6--9--8--6-----9--8--9--|--5--5--5--5--5--5--5--5--5--5--5--5--|


  E  E  E  E  E  E  E  E     E  E  E  E  E  E  E  E
--------------------------|--------------------------|
--------------------------|--------------------------|
--------------------------|--------------------------|
--------------------------|--------------------------|
--------------6-----------|--------------6-----------|
--6--9--8--6-----9--8--9--|--6--9--8--6-----9--8--5--|


  E  E  E  E  E  E  E  E     E  E  E  E  E  E  E  E
--------------------------|--------------------------|
--------------------------|--------------------------|
--------------------------|--------------------------|
--------------------------|--5-----------------------|
--------------6-----------|--5-----------------------|
--6--9--8--6-----9--8--9--|--5-----------------------|


     PM PM       PM    PM
  E  S  S  E  E  E  E  E  E     E  E  E  E  E  E  E  E
-----------------------------|--------------------------|
-----------------------------|--------------------------|
-----------------------------|--------------------------|
--6--6--6--6--9--6--6--6--2--|--L--1-----1--2--1--------|
--6--6--6--6--9--6--6--6--2--|--L-----4-----------2--1--|
--6--6--6--6--9--6--6--6--2--|--L-----------------------|


     PM PM       PM    PM                     PM
  E  S  S  E  E  E  E  E  E     E  E  E  Q    E  Q
-----------------------------|------------------------|
-----------------------------|-------------------5----|
-----------------------------|-------------------8----|
--6--6--6--6--9--6--6--6--2--|--L--2--2--5----5-------|
--6--6--6--6--9--6--6--6--2--|--L--2--2--5----5-------|
--6--6--6--6--9--6--6--6--2--|--L--2--2--5----5-------|


     PM PM       PM    PM
  E  S  S  E  E  E  E  E  E     E  E  E  E  E  E  E  E
-----------------------------|--------------------------|
-----------------------------|--------------------------|
-----------------------------|--------------------------|
--6--6--6--6--9--6--6--6--2--|--L--1-----1--2--1--------|
--6--6--6--6--9--6--6--6--2--|--L-----4-----------2--1--|
--6--6--6--6--9--6--6--6--2--|--L-----------------------|


     PM PM       PM    PM                     PM
  E  S  S  E  E  E  E  E  E     E  E  E  Q    E  Q
-----------------------------|------------------------|
-----------------------------|-------------------5----|
-----------------------------|-------------------8----|
--6--6--6--6--9--6--6--6--2--|--L--2--2--5----5-------|
--6--6--6--6--9--6--6--6--2--|--L--2--2--5----5-------|
--6--6--6--6--9--6--6--6--2--|--L--2--2--5----5-------|


  E  E  S S S S S S E  S S S S    S S E  E  H        E
-------------------------------|------------------------|-------|-------|
-------------------------------|------------------------|-------|-------|
-------------------------------|------------------------|-------|-------|
-------------------------------|------------------------|-------|-------|
-------------------------------|------------------------|-------|-------|
--6-----6---6-6-6-6----6---6-6-|--6-6----6--------------|-------|-------|


  E  E  S S S S S S E  S S S S    S S E  E  H        E
-------------------------------|------------------------|
-------------------------------|------------------------|
-------------------------------|------------------------|
-------------------------------|------------------------|
-------------------------------|------------------------|
--6-----6---6-6-6-6----6---6-6-|--6-6----6--------------|


   E   E   E   E   E   E   E   E      E   E   E   E   E   E   E   E
--11----------11----------11------|------11----------11--------------|
------12----------12----------12--|----------12----------12------12--|
----------15----------15----------|--15----------15----------15------|
----------------------------------|----------------------------------|
----------------------------------|----------------------------------|
----------------------------------|----------------------------------|


  E  E  E  E  E  E  E  E     E  E  E  E  E  E  E  E
--------------------------|--------------------------|
--------------------------|--------------------------|
--------------------------|--4--4--4--4--4--4--4--4--|
--6--6--6--6--6--6--6--6--|--4--4--4--4--4--4--4--4--|
--6--6--6--6--6--6--6--6--|--2--2--2--2--2--2--2--2--|
--6--6--6--6--6--6--6--6--|--------------------------|


  E  E  E  E  E  E  E  E     E  E  E  E  E  E  E  E
--------------------------|--------------------------|
--------------------------|--------------------------|
--------------------------|--------------------------|
--2--2--2--2--2--2--2--2--|--2--2--2--2--2--4--4--4--|
--2--2--2--2--2--2--2--2--|--2--2--2--2--2--4--4--4--|
--2--2--2--2--2--2--2--2--|--2--2--2--2--2--4--4--4--|


  E  E  E  E  E  E  E  E     E  E  E  E  E  E  E  E
--------------------------|--------------------------|
--------------------------|--------------------------|
--------------------------|--4--4--4--4--4--4--4--4--|
--6--6--6--6--6--6--6--6--|--4--4--4--4--4--4--4--4--|
--6--6--6--6--6--6--6--6--|--2--2--2--2--2--2--2--2--|
--6--6--6--6--6--6--6--6--|--------------------------|


  E  E  E  E  E  E  E  E      E   E   E   E   E   E   E   E
--------------------------|----------------------------------|
--------------------------|----------------------------------|
--9--9--9--9--9--9--9--9--|--12--12--12--12--12--12--12--12--|
--9--9--9--9--9--9--9--9--|--12--12--12--12--12--12--12--12--|
--7--7--7--7--7--7--7--7--|--10--10--10--10--10--10--10--10--|
--------------------------|----------------------------------|


  E  E  E  E  E  E  E  E     E  E  E  E  E  E  E  E
--------------------------|--------------------------|
--------------------------|--------------------------|
--------------------------|--4--4--4--4--4--4--4--4--|
--6--6--6--6--6--6--6--6--|--4--4--4--4--4--4--4--4--|
--6--6--6--6--6--6--6--6--|--2--2--2--2--2--2--2--2--|
--6--6--6--6--6--6--6--6--|--------------------------|


  E  E  E  E  E  E  E  E     E  E  E  E  E  E  E  E
--------------------------|--------------------------|
--------------------------|--------------------------|
--------------------------|--------------------------|
--2--2--2--2--2--2--2--2--|--2--2--2--2--2--4--4--4--|
--2--2--2--2--2--2--2--2--|--2--2--2--2--2--4--4--4--|
--2--2--2--2--2--2--2--2--|--2--2--2--2--2--4--4--4--|


  E  E  E  E  E  E  E  E     E  E  E  E  E  E  E  E
--------------------------|--------------------------|
--------------------------|--------------------------|
--------------------------|--4--4--4--4--4--4--4--4--|
--6--6--6--6--6--6--6--6--|--4--4--4--4--4--4--4--4--|
--6--6--6--6--6--6--6--6--|--2--2--2--2--2--2--2--2--|
--6--6--6--6--6--6--6--6--|--------------------------|


  E  E  E  E  E  E  E  E     E  E  E  E  E  E  E  E
--------------------------|--------------------------|
--------------------------|--------------------------|
--------------------------|--------------------------|
--2--2--2--2--2--2--2--2--|--2--2--2--2--2--2--2--2--|
--2--2--2--2--2--2--2--2--|--2--2--2--2--2--2--2--2--|
--2--2--2--2--2--2--2--2--|--2--2--2--2--2--2--2--2--|


  E  E  E  E  E  E  E  E     E  E  E  E  E  E  E  E     Q    E  Q    E  Q
--------------------------|--------------------------|-----------------------|
--------------------------|--------------------------|-----------------------|
--------------------------|--------------------------|-----------------------|
--5--5--5--5--5--5--5--5--|--5--5--5--5--5--5--5--5--|--6----L--5----L--2----|
--5--5--5--5--5--5--5--5--|--5--5--5--5--5--5--5--5--|--6----L--5----L--2----|
--5--5--5--5--5--5--5--5--|--5--5--5--5--5--5--5--5--|--6----L--5----L--2----|


             PM PM PM PM                                       PM PM PM PM
  E  Q    E  E  E  E  E     Q    E  Q    E  Q       E  Q    E  E  E  E  E
-------------------------|-----------------------|-------------------------|
-------------------------|-----------------------|-------------------------|
-------------------------|-----------------------|-------------------------|
--L--1----L--1--1--1--1--|--6----L--5----L--2----|--L--1----L--1--1--1--1--|
--L--1----L--1--1--1--1--|--6----L--5----L--2----|--L--1----L--1--1--1--1--|
--L--1----L--1--1--1--1--|--6----L--5----L--2----|--L--1----L--1--1--1--1--|


                                     PM PM PM PM
  Q    E  Q    E  Q       E  Q    E  E  E  E  E     E  E  E  E  E  E  E  E
-----------------------|-------------------------|--------------------------|
-----------------------|-------------------------|--------------------------|
-----------------------|-------------------------|--------------------------|
--6----L--5----L--2----|--L--1----L--1--1--1--1--|--2--2--2--2--2--2--2--2--|
--6----L--5----L--2----|--L--1----L--1--1--1--1--|--2--2--2--2--2--2--2--2--|
--6----L--5----L--2----|--L--1----L--1--1--1--1--|--2--2--2--2--2--2--2--2--|


  E  E  E  E  E  E  E  E     W                   W
--------------------------|-------------------|-------------------|
--------------------------|-------------------|-------------------|
--------------------------|-------------------|-------------------|
--4--4--4--4--4--4--4--4--|--1----------------|--L----------------|
--4--4--4--4--4--4--4--4--|--1----------------|--L----------------|
--4--4--4--4--4--4--4--4--|--1----------------|--L----------------|


                                          PM   PM   PM PM PM PM
  W                   W                   Q    Q    S  E  S  Q
-------------------|-------------------|--------------------------|
-------------------|-------------------|--------------------------|
-------------------|-------------------|--------------------------|
--L----------------|--L----------------|--1----1----1--1--1--1----|
--L----------------|--L----------------|--1----1----1--1--1--1----|
--L----------------|--L----------------|--1----1----1--1--1--1----|


     PM   PM PM                       PM   PM   PM PM PM PM
  E  Q    E  E  E   T  T  T  T  E     Q    Q    S  E  S  Q
-------------------14-14-14-14-14--|--------------------------|
-----------------------------------|--------------------------|
-----------------------------------|--------------------------|
--L--1----1--1---------------------|--1----1----1--1--1--1----|
--L--1----1--1---------------------|--1----1----1--1--1--1----|
--L--1----1--1---------------------|--1----1----1--1--1--1----|


     PM   PM PM PM PM PM      PM   PM   PM PM PM
  E  Q    E  S  E  S  Q       Q    Q    S  E  S  E  E
---------------------------|---------------------------|
---------------------------|---------------------------|
---------------------------|---------------------------|
--L--1----1--1--1--1--1----|--1----1----1--1--1--------|
--L--1----1--1--1--1--1----|--1----1----1--1--1--------|
--L--1----1--1--1--1--1----|--1----1----1--1--1--1-----|


     PM   PM PM PM PM          PM   PM   PM PM PM PM
  E  Q    E  S  E  S  E  E     Q    Q    S  E  S  Q
----------------------------|--------------------------|
----------------------------|--------------------------|
----------------------------|--------------------------|
-----1----1--1--1--1--------|--1----1----1--1--1--1----|
-----1----1--1--1--1--------|--1----1----1--1--1--1----|
-----1----1--1--1--1--1-----|--1----1----1--1--1--1----|


     PM   PM PM PM PM PM      PM   PM
  E  Q    E  S  E  S  Q       Q    Q    H
---------------------------|---------------------|
---------------------------|---------------------|
---------------------------|---------------------|
--L--1----1--1--1--1--1----|--1----1----1--------|
--L--1----1--1--1--1--1----|--1----1----1--------|
--L--1----1--1--1--1--1----|--1----1----1--------|


     PM    PM   PM PM   PM PM                 PM    PM
  E  E  E  S  S S  S  S S  E  E     Q    Q    S  E  S  E  E
---------------------------------|---------------------------|
---------------------------------|---------------------------|
---------------------------------|---------------------------|
-----1-----1----1--1----1--1-----|--6----6-------------------|
-----1-----1----1--1----1--1-----|--6----6-------------------|
-----1-----1----1--1----1--1-----|--6----6----5--6--5--6-----|


             PM    PM                    PM    PM
  E  Q    E  S  E  S  E  E     Q    Q    S  E  S  E  E
----------------------------|---------------------------|
----------------------------|---------------------------|
----------------------------|---------------------------|
-----9----9-----------------|---------------------------|
-----9----9-----------------|---------------------------|
-----9----9--2--5--2--5--5--|------------5--6--5--6-----|


             PM    PM                    PM    PM
  E  Q    E  S  E  S  E  E     Q    Q    S  E  S  E  E
----------------------------|---------------------------|
----------------------------|---------------------------|
----------------------------|---------------------------|
-----2----2-----------------|--6----6-------------------|
-----2----2-----------------|--6----6-------------------|
-----2----2--2--5--2--5--5--|--6----6----5--6--5--6-----|


             PM    PM                    PM    PM
  E  Q    E  S  E  S  E  E     Q    Q    S  E  S  E  E
----------------------------|---------------------------|
----------------------------|---------------------------|
----------------------------|---------------------------|
-----9----9-----------------|---------------------------|
-----9----9-----------------|---------------------------|
-----9----9--2--5--2--5--5--|------------5--6--5--6-----|


             PM    PM
  E  Q    E  S  E  S  E  E     W                   W
----------------------------|-------------------|-------------------|
----------------------------|-------------------|-------------------|
----------------------------|-------------------|-------------------|
-----2----2-----------------|--2----------------|--5----------------|
-----2----2-----------------|--2----------------|--5----------------|
-----2----2--2--5--2--5--5--|--2----------------|--5----------------|


                                          E  E  E  E  E  E  E  E
-------------------|-------------------|--------------------------|
-------------------|-------------------|--------------------------|
-------------------|-------------------|--------------------------|
-------------------|-------------------|--2--2--2--2--2--2--2--2--|
-------------------|-------------------|--2--2--2--2--2--2--2--2--|
-------------------|-------------------|--2--2--2--2--2--2--2--2--|


  E  E  E  E  E  E  E  E     E  E  E  E  E  E  E  E
--------------------------|--------------------------|
--------------------------|--------------------------|
--------------------------|--------------------------|
--2--2--2--2--2--4--4--4--|--6--6--6--6--6--6--6--6--|
--2--2--2--2--2--4--4--4--|--6--6--6--6--6--6--6--6--|
--2--2--2--2--2--4--4--4--|--6--6--6--6--6--6--6--6--|


  E  E  E  E  E  E  E  E     E  E  E  E  E  E  E  E
--------------------------|--------------------------|
--------------------------|--------------------------|
--4--4--4--4--4--4--4--4--|--9--9--9--9--9--9--9--9--|
--4--4--4--4--4--4--4--4--|--9--9--9--9--9--9--9--9--|
--2--2--2--2--2--2--2--2--|--7--7--7--7--7--7--7--7--|
--------------------------|--------------------------|


   E   E   E   E   E   E   E   E     E  E  E  E  E  E  E  E
----------------------------------|--------------------------|
----------------------------------|--------------------------|
--12--12--12--12--12--12--12--12--|--------------------------|
--12--12--12--12--12--12--12--12--|--6--6--6--6--6--6--6--6--|
--10--10--10--10--10--10--10--10--|--6--6--6--6--6--6--6--6--|
----------------------------------|--6--6--6--6--6--6--6--6--|


  E  E  E  E  E  E  E  E     E  E  E  E  E  E  E  E
--------------------------|--------------------------|
--------------------------|--------------------------|
--4--4--4--4--4--4--4--4--|--------------------------|
--4--4--4--4--4--4--4--4--|--2--2--2--2--2--2--2--2--|
--2--2--2--2--2--2--2--2--|--2--2--2--2--2--2--2--2--|
--------------------------|--2--2--2--2--2--2--2--2--|


  E  E  E  E  E  E  E  E     E  E  E  E  E  E  E  E
--------------------------|--------------------------|
--------------------------|--------------------------|
--------------------------|--------------------------|
--2--2--2--2--2--4--4--4--|--6--6--6--6--6--6--6--6--|
--2--2--2--2--2--4--4--4--|--6--6--6--6--6--6--6--6--|
--2--2--2--2--2--4--4--4--|--6--6--6--6--6--6--6--6--|


  E  E  E  E  E  E  E  E     E  E  E  E  E  E  E  E
--------------------------|--------------------------|
--------------------------|--------------------------|
--4--4--4--4--4--4--4--4--|--9--9--9--9--9--9--9--9--|
--4--4--4--4--4--4--4--4--|--9--9--9--9--9--9--9--9--|
--2--2--2--2--2--2--2--2--|--7--7--7--7--7--7--7--7--|
--------------------------|--------------------------|


   E   E   E   E   E   E   E   E     E  E  E  E  E  E  E  E
----------------------------------|--------------------------|
----------------------------------|--------------------------|
--12--12--12--12--12--12--12--12--|--------------------------|
--12--12--12--12--12--12--12--12--|--6--6--6--6--6--6--6--6--|
--10--10--10--10--10--10--10--10--|--6--6--6--6--6--6--6--6--|
----------------------------------|--6--6--6--6--6--6--6--6--|


  E  E  E  E  E  E  E  E     E  E  E  E  E  E  E  E
--------------------------|--------------------------|
--------------------------|--------------------------|
--4--4--4--4--4--4--4--4--|--------------------------|
--4--4--4--4--4--4--4--4--|--2--2--2--2--2--2--2--2--|
--2--2--2--2--2--2--2--2--|--2--2--2--2--2--2--2--2--|
--------------------------|--2--2--2--2--2--2--2--2--|


  E  E  E  E  E  E  E  E     E  E  E  E  E  E  E  E
--------------------------|--------------------------|
--------------------------|--------------------------|
--------------------------|--------------------------|
--2--2--2--2--2--4--4--4--|--6--6--6--6--6--6--6--6--|
--2--2--2--2--2--4--4--4--|--6--6--6--6--6--6--6--6--|
--2--2--2--2--2--4--4--4--|--6--6--6--6--6--6--6--6--|


  E  E  E  E  E  E  E  E     E  E  E  E  E  E  E  E
--------------------------|--------------------------|
--------------------------|--------------------------|
--4--4--4--4--4--4--4--4--|--9--9--9--9--9--9--9--9--|
--4--4--4--4--4--4--4--4--|--9--9--9--9--9--9--9--9--|
--2--2--2--2--2--2--2--2--|--7--7--7--7--7--7--7--7--|
--------------------------|--------------------------|


   E   E   E   E   E   E   E   E     E  E  E  E  E  E  E  E
----------------------------------|--------------------------|
----------------------------------|--------------------------|
--12--12--12--12--12--12--12--12--|--------------------------|
--12--12--12--12--12--12--12--12--|--------------------------|
--10--10--10--10--10--10--10--10--|--------------6-----------|
----------------------------------|--6--9--8--6-----9--8--9--|


  E  E  E  E  E  E  E  E     E  E  E  E  E  E  E  E
--------------------------|--------------------------|
--------------------------|--------------------------|
--------------------------|--------------------------|
--------------------------|--------------------------|
--------------6-----------|--------------6-----------|
--6--9--8--6-----9--8--5--|--6--9--8--6-----9--8--9--|


  PM PM PM PM PM PM PM PM PM PM PM PM
  S  S  E  S  S  E  S  S  E  S  S  E     E  E  E  E  E  E  E  E
--------------------------------------|--------------------------|
--------------------------------------|--------------------------|
--------------------------------------|--------------------------|
--5--5--5--5--5--5--5--5--5--5--5--5--|--------------------------|
--5--5--5--5--5--5--5--5--5--5--5--5--|--------------6-----------|
--5--5--5--5--5--5--5--5--5--5--5--5--|--6--9--8--6-----9--8--9--|


  E  E  E  E  E  E  E  E     E  E  E  E  E  E  E  E
--------------------------|--------------------------|
--------------------------|--------------------------|
--------------------------|--------------------------|
--------------------------|--------------------------|
--------------6-----------|--------------6-----------|
--6--9--8--6-----9--8--5--|--6--9--8--6-----9--8--9--|


  E  E  E  E  E  E  E  E
--------------------------||
--------------------------||
--------------------------||
--5-----------------------||
--5-----------------------||
--5-----------------------||


Guitar 2

D||-------|-------|-------|-------|-------|-------|-------|
A||-------|-------|-------|-------|-------|-------|-------|
F||-------|-------|-------|-------|-------|-------|-------|
C||-------|-------|-------|-------|-------|-------|-------|
G||-------|-------|-------|-------|-------|-------|-------|
C||-------|-------|-------|-------|-------|-------|-------|


  H        Q     Q         E   E   E   E   E   E   E   E
----------------11/----|----------------------------------|
-----------------------|----------------------------------|
-----------------------|------------------11--------------|
-----------------------|--13--11--11--13------13--11--13--|
-----------------------|----------------------------------|
-----------------------|----------------------------------|


   E   E   E   E   E   E   E   E      E   E   E   E   E   E   E   E
----------------------------------|----------------------------------|
--11--12--11--11--12--11----------|----------------------------------|
--------------------------11------|------------------11--------------|
------------------------------13--|--13--11--11--13------13--11------|
----------------------------------|------------------------------13--|
----------------------------------|----------------------------------|


  E   E  E   E  E   E  E   E      E   E   E   E   E   E   E   E
------------------------------|----------------------------------|
------------------------------|----------------------------------|
------------------------------|------------------11--------------|
--9--11--9------9-------------|--13--11--11--13------13--11--13--|
------------13-----13--9------|----------------------------------|
--------------------------13--|----------------------------------|


   E   E   E   E   E   E   E   E      E   E   E   E   E   E   E   E
----------------------------------|----------------------------------|
--11--12--11--11--12--11----------|--------------------------14--14--|
--------------------------11------|--13--13--15--15--16--16----------|
------------------------------13--|----------------------------------|
----------------------------------|----------------------------------|
----------------------------------|----------------------------------|


   E   E   E   E   E   E   E   E      E   E   E   E   E   E   E   E
----------------------------------|----------------------------------|
--14--16--16--16------------------|----------------------------------|
------------------12--12--12--12--|------------------11--------------|
----------------------------------|--13--11--11--13------13--11--13--|
----------------------------------|----------------------------------|
----------------------------------|----------------------------------|


   E   E   E   E   E   E   E   E      E   E   E   E   E   E   E   E
----------------------------------|----------------------------------|
--11--12--11--11--12--11----------|----------------------------------|
--------------------------11------|------------------11--------------|
------------------------------13--|--13--11--11--13------13--11------|
----------------------------------|------------------------------13--|
----------------------------------|----------------------------------|


  E   E  E   E  E   E  E   E      E   E   E   E   E   E   E   E
------------------------------|----------------------------------|
------------------------------|----------------------------------|
------------------------------|------------------11--------------|
--9--11--9------9-------------|--13--11--11--13------13--11--13--|
------------13-----13--9------|----------------------------------|
--------------------------13--|----------------------------------|


   E   E   E   E   E   E   E   E      E   E   E   E   E   E   E   E
----------------------------------|--16--16--18--18--19--19--21--21--|
--11--12--11--11--12--11----------|----------------------------------|
--------------------------11------|----------------------------------|
------------------------------13--|----------------------------------|
----------------------------------|----------------------------------|
----------------------------------|----------------------------------|


   E   E   E   E   E   E   E   E      W                   W
--21--23--23--23------------------|--19----------------|--L----------------|
------------------20--20--20--20--|--------------------|-------------------|
----------------------------------|--------------------|-------------------|
----------------------------------|--------------------|-------------------|
----------------------------------|--------------------|-------------------|
----------------------------------|--------------------|-------------------|


     PM PM       PM    PM
  E  S  S  E  E  E  E  E  E     E  E  E  E  E  E  E  E
-----------------------------|--------------------------|
-----------------------------|--------------------------|
-----------------------------|--------------------------|
--6--6--6--6--9--6--6--6--2--|--L--1-----1--2--1--------|
--6--6--6--6--9--6--6--6--2--|--L-----4-----------2--1--|
--6--6--6--6--9--6--6--6--2--|--L-----------------------|


     PM PM       PM    PM                     PM
  E  S  S  E  E  E  E  E  E     E  E  E  Q    E  Q
-----------------------------|------------------------|
-----------------------------|-------------------5----|
-----------------------------|-------------------8----|
--6--6--6--6--9--6--6--6--2--|--L--2--2--5----5-------|
--6--6--6--6--9--6--6--6--2--|--L--2--2--5----5-------|
--6--6--6--6--9--6--6--6--2--|--L--2--2--5----5-------|


     PM PM       PM    PM
  E  S  S  E  E  E  E  E  E     E  E  E  E  E  E  E  E
-----------------------------|--------------------------|
-----------------------------|--------------------------|
-----------------------------|--------------------------|
--6--6--6--6--9--6--6--6--2--|--L-----------------------|
--6--6--6--6--9--6--6--6--2--|--L--2--1--2--4--2--------|
--6--6--6--6--9--6--6--6--2--|--L-----------------6--2--|


     PM PM       PM    PM                     PM
  E  S  S  E  E  E  E  E  E     E  E  E  Q    E  Q
-----------------------------|------------------------|
-----------------------------|-------------------5----|
-----------------------------|-------------------8----|
--6--6--6--6--9--6--6--6--2--|--L--2--2--5----5-------|
--6--6--6--6--9--6--6--6--2--|--L--2--2--5----5-------|
--6--6--6--6--9--6--6--6--2--|--L--2--2--5----5-------|


  E  E  E  E  E  E  E  E     E  E  E  E  E  E  E  E
--------------------------|--------------------------|
--------------------------|--------------------------|
--8-----6-----------8-----|-----------------8--------|
-----9-----9--8--9-----9--|--6--8--9--8--6-----9--6--|
--------------------------|--------------------------|
--------------------------|--------------------------|


  E  E  E  E  E  E  E  E     E  E  E  E  E  E  E  E
--------------------------|--------------------------|
--------------------------|--------------------------|
--8-----6-----------8-----|-----------------8--------|
-----9-----9--8--9-----9--|--6--8--9--8--6-----9--6--|
--------------------------|--------------------------|
--------------------------|--------------------------|


  E  E  E  E  E  E  E  E     E  E  E  E  E  E  E  E
--------------------------|--------------------------|
--------------------------|--------------------------|
--8-----6-----------8-----|-----------------8--------|
-----9-----9--8--9-----9--|--6--8--9--8--6-----9--6--|
--------------------------|--------------------------|
--------------------------|--------------------------|


  E  E   E  E  E   E   E   E      E   E   E   E   E   E   E   E
------------------------------|----------------------------------|
------------------------------|------------------12------14------|
--8------------9--------------|--13------15----------13------13--|
-----9--11--9-----11--13--11--|------14------16------------------|
------------------------------|----------------------------------|
------------------------------|----------------------------------|


   W                   W
--------------------|-------------------|
--16----------------|--L----------------|
--------------------|-------------------|
--------------------|-------------------|
--------------------|-------------------|
--------------------|-------------------|


   PM PM PM PM PM     PM PM PM PM PM  PM
   S  S  S  S  E  E   S  S  S  S  E   E
-----------------------------------------|
-----------------------------------------|
--16-16-16-16-16-----16-16-16-16-16--16--|
-----------------------------------------|
-----------------------------------------|
-----------------------------------------|


   PM PM   PM PM   PM PM PM PM   PM PM   PM PM
   S  S S  S  S S  S  S  S  S S  S  S S  S  S
----------------------------------------------|
----------------------------------------------|
--16-16-L-16-16-L-16-16-16-16-L-16-16-L-16-16-|
----------------------------------------------|
----------------------------------------------|
----------------------------------------------|


   PM PM PM  PM     PM PM   PM PM        PM PM PM PM PM     PM PM PM PM PM  PM
   S  S  E   E  E   S  S S  S  E  E      S  S  S  S  E  E   S  S  S  S  E   E
-------------------------------------|-----------------------------------------|
-------------------------------------|-----------------------------------------|
--16-16-16--16-----16-16-L-16-16-----|--16-16-16-16-16-----16-16-16-16-16--16--|
-------------------------------------|-----------------------------------------|
-------------------------------------|-----------------------------------------|
-------------------------------------|-----------------------------------------|


   PM PM   PM PM   PM PM PM PM PM PM PM PM PM PM
   S  S S  S  S S  S  S  S  S  S  S  S  S  S  S
------------------------------------------------|
------------------------------------------------|
--16-16-L-16-16-L-16-16-16-16-16-16-16-16-16-16-|
------------------------------------------------|
------------------------------------------------|
------------------------------------------------|


   E   E   E   E   E   E   E   E      E   E   E   E   E   E   E   E
----------------------------------|----------------------------------|
----------------------------------|--11--12--11--11--12--11----------|
------------------11--------------|--------------------------11------|
--13--11--11--13------13--11--13--|------------------------------13--|
----------------------------------|----------------------------------|
----------------------------------|----------------------------------|


   E   E   E   E   E   E   E   E     E   E  E   E  E   E  E   E
----------------------------------|------------------------------|
----------------------------------|------------------------------|
------------------11--------------|------------------------------|
--13--11--11--13------13--11------|--9--11--9------9-------------|
------------------------------13--|------------13-----13--9------|
----------------------------------|--------------------------13--|


   E   E   E   E   E   E   E   E      E   E   E   E   E   E   E   E
----------------------------------|----------------------------------|
----------------------------------|--11--12--11--11--12--11----------|
------------------11--------------|--------------------------11------|
--13--11--11--13------13--11--13--|------------------------------13--|
----------------------------------|----------------------------------|
----------------------------------|----------------------------------|


   E   E   E   E   E   E   E   E      E   E   E   E   E   E   E   E
----------------------------------|----------------------------------|
--------------------------14--14--|--14--16--16--16------------------|
--13--13--15--15--16--16----------|------------------12--12--12--12--|
----------------------------------|----------------------------------|
----------------------------------|----------------------------------|
----------------------------------|----------------------------------|


   E   E   E   E   E   E   E   E      E   E   E   E   E   E   E   E
----------------------------------|----------------------------------|
----------------------------------|--11--12--11--11--12--11----------|
------------------11--------------|--------------------------11------|
--13--11--11--13------13--11--13--|------------------------------13--|
----------------------------------|----------------------------------|
----------------------------------|----------------------------------|


   E   E   E   E   E   E   E   E     E   E  E   E  E   E  E   E
----------------------------------|------------------------------|
----------------------------------|------------------------------|
------------------11--------------|------------------------------|
--13--11--11--13------13--11------|--9--11--9------9-------------|
------------------------------13--|------------13-----13--9------|
----------------------------------|--------------------------13--|


   E   E   E   E   E   E   E   E      E   E   E   E   E   E   E   E
----------------------------------|----------------------------------|
----------------------------------|--11--12--11--11--12--11----------|
------------------11--------------|--------------------------11------|
--13--11--11--13------13--11--13--|------------------------------13--|
----------------------------------|----------------------------------|
----------------------------------|----------------------------------|


   E   E   E   E   E   E   E   E      E   E   E   E   E   E   E   E
--16--16--18--18--19--19--21--21--|--21--23--23--23------------------|
----------------------------------|------------------20--20--20--20--|
----------------------------------|----------------------------------|
----------------------------------|----------------------------------|
----------------------------------|----------------------------------|
----------------------------------|----------------------------------|


   W                   W                   E  E  E  E  E  E  E  E
--19----------------|--L----------------|--------------------------|
--------------------|-------------------|--------------------------|
--------------------|-------------------|--------------------------|
--------------------|-------------------|--------------------------|
--------------------|-------------------|--------------6-----------|
--------------------|-------------------|--6--9--8--6-----9--8--9--|


  PM PM PM PM PM PM PM PM PM PM PM PM
  S  S  E  S  S  E  S  S  E  S  S  E     E  E  E  E  E  E  E  E
--------------------------------------|--------------------------|
--------------------------------------|--------------------------|
--------------------------------------|--------------------------|
--5--5--5--5--5--5--5--5--5--5--5--5--|--------------------------|
--5--5--5--5--5--5--5--5--5--5--5--5--|--------------6-----------|
--5--5--5--5--5--5--5--5--5--5--5--5--|--6--9--8--6-----9--8--9--|


  E  E  E  E  E  E  E  E     E  E  E  E  E  E  E  E
--------------------------|--------------------------|
--------------------------|--------------------------|
--------------------------|--------------------------|
--------------------------|--------------------------|
--------------6-----------|--------------6-----------|
--6--9--8--6-----9--8--5--|--6--9--8--6-----9--8--9--|


                                PM PM       PM    PM
  E  E  E  E  E  E  E  E     E  S  S  E  E  E  E  E  E
--------------------------|-----------------------------|
--------------------------|-----------------------------|
--------------------------|-----------------------------|
--5-----------------------|--6--6--6--6--9--6--6--6--2--|
--5-----------------------|--6--6--6--6--9--6--6--6--2--|
--5-----------------------|--6--6--6--6--9--6--6--6--2--|


                                PM PM       PM    PM
  E  E  E  E  E  E  E  E     E  S  S  E  E  E  E  E  E
--------------------------|-----------------------------|
--------------------------|-----------------------------|
--------------------------|-----------------------------|
--L--1-----1--2--1--------|--6--6--6--6--9--6--6--6--2--|
--L-----4-----------2--1--|--6--6--6--6--9--6--6--6--2--|
--L-----------------------|--6--6--6--6--9--6--6--6--2--|


                PM            PM PM       PM    PM
  E  E  E  Q    E  Q       E  S  S  E  E  E  E  E  E
------------------------|-----------------------------|
-------------------5----|-----------------------------|
-------------------8----|-----------------------------|
--L--2--2--5----5-------|--6--6--6--6--9--6--6--6--2--|
--L--2--2--5----5-------|--6--6--6--6--9--6--6--6--2--|
--L--2--2--5----5-------|--6--6--6--6--9--6--6--6--2--|


                                PM PM       PM    PM
  E  E  E  E  E  E  E  E     E  S  S  E  E  E  E  E  E
--------------------------|-----------------------------|
--------------------------|-----------------------------|
--------------------------|-----------------------------|
--L-----------------------|--6--6--6--6--9--6--6--6--2--|
--L--2--1--2--4--2--------|--6--6--6--6--9--6--6--6--2--|
--L-----------------6--2--|--6--6--6--6--9--6--6--6--2--|


                PM
  E  E  E  Q    E  Q       E  E  S S S S S S E  S S S S
------------------------|-------------------------------|
-------------------5----|-------------------------------|
-------------------8----|-------------------------------|
--L--2--2--5----5-------|-------------------------------|
--L--2--2--5----5-------|-------------------------------|
--L--2--2--5----5-------|--6-----6---6-6-6-6----6---6-6-|


  S S E  E  H        E      E   E   E   E   E   E   E   E
------------------------|--11----------11----------11------|
------------------------|------12----------12----------12--|
------------------------|----------15----------15----------|
------------------------|----------------------------------|
------------------------|----------------------------------|
--6-6----6--------------|----------------------------------|


   E   E   E   E   E   E   E   E     E  E  S S S S S S E  S S S S
------11----------11--------------|-------------------------------|
----------12----------12------12--|-------------------------------|
--15----------15----------15------|-------------------------------|
----------------------------------|-------------------------------|
----------------------------------|-------------------------------|
----------------------------------|--9-----9---9-9-9-9----9---9-9-|


  S S E  E  H        E                  E   E   E   E   E   E   E   E
------------------------|-----|-----|----------------------------------|
------------------------|-----|-----|----------------------------------|
------------------------|-----|-----|------------------11--------------|
------------------------|-----|-----|--13--11--11--13------13--11--13--|
------------------------|-----|-----|----------------------------------|
--9-9----9--------------|-----|-----|----------------------------------|


   E   E   E   E   E   E   E   E      E   E   E   E   E   E   E   E
----------------------------------|----------------------------------|
--11--12--11--11--12--11----------|----------------------------------|
--------------------------11------|------------------11--------------|
------------------------------13--|--13--11--11--13------13--11------|
----------------------------------|------------------------------13--|
----------------------------------|----------------------------------|


  E   E  E   E  E   E  E   E      E   E   E   E   E   E   E   E
------------------------------|----------------------------------|
------------------------------|----------------------------------|
------------------------------|------------------11--------------|
--9--11--9------9-------------|--13--11--11--13------13--11--13--|
------------13-----13--9------|----------------------------------|
--------------------------13--|----------------------------------|


   E   E   E   E   E   E   E   E      E   E   E   E   E   E   E   E
----------------------------------|----------------------------------|
--11--12--11--11--12--11----------|--------------------------14--14--|
--------------------------11------|--13--13--15--15--16--16----------|
------------------------------13--|----------------------------------|
----------------------------------|----------------------------------|
----------------------------------|----------------------------------|


   E   E   E   E   E   E   E   E      E   E   E   E   E   E   E   E
----------------------------------|----------------------------------|
--14--16--16--16------------------|----------------------------------|
------------------12--12--12--12--|------------------11--------------|
----------------------------------|--13--11--11--13------13--11--13--|
----------------------------------|----------------------------------|
----------------------------------|----------------------------------|


   E   E   E   E   E   E   E   E      E   E   E   E   E   E   E   E
----------------------------------|----------------------------------|
--11--12--11--11--12--11----------|----------------------------------|
--------------------------11------|------------------11--------------|
------------------------------13--|--13--11--11--13------13--11------|
----------------------------------|------------------------------13--|
----------------------------------|----------------------------------|


  E   E  E   E  E   E  E   E      E   E   E   E   E   E   E   E
------------------------------|----------------------------------|
------------------------------|----------------------------------|
------------------------------|------------------11--------------|
--9--11--9------9-------------|--13--11--11--13------13--11--13--|
------------13-----13--9------|----------------------------------|
--------------------------13--|----------------------------------|


   E   E   E   E   E   E   E   E     E  E  E  E  E  E  E  E
----------------------------------|--------------------------|
--11--12--11--11--12--11----------|--------------------------|
--------------------------11------|--------------------------|
------------------------------13--|--6--6--6--6--6--6--6--6--|
----------------------------------|--------------------------|
----------------------------------|--------------------------|


  E  E  E  E  E  E  E  E     E  E  E  E  E  E  E  E
--------------------------|--------------------------|
--------------------------|--------------------------|
--------------------------|--9--9--9--9--9--9--9--9--|
--8--8--8--8--8--8--8--8--|--x--x--x--x--x--x--x--x--|
--------------------------|--7--7--7--7--7--7--7--7--|
--------------------------|--------------------------|


  E  E  E  E  E  E  E  E      Q    E   Q    E  Q       E  Q    E  H
--------------------------|-------------------------|----------------------|
--------------------------|--12----L--11----L--9----|--L--8----L--L--------|
--8--8--8--8--8--8--8--8--|-------------------------|----------------------|
--x--x--x--x--x--x--x--x--|-------------------------|----------------------|
--6--6--6--6--6--6--6--6--|-------------------------|----------------------|
--------------------------|-------------------------|----------------------|


   Q    E   Q    E  Q       E  Q    E  H            Q    E   Q    E  Q
-------------------------|----------------------|-------------------------|
--12----L--11----L--9----|--L--8----L--L--------|--12----L--11----L--9----|
-------------------------|----------------------|---x--------x-------x----|
-------------------------|----------------------|---9----L---8----L--6----|
-------------------------|----------------------|-------------------------|
-------------------------|----------------------|-------------------------|


  E  Q    E  H            E   E   E   E   E   E   E   E
----------------------|----------------------------------|
--L--8----L--L--------|--16--16--16--16--16--16--16--16--|
-----x----------------|----------------------------------|
--L--5----L--L--------|----------------------------------|
----------------------|----------------------------------|
----------------------|----------------------------------|


   E   E   E   E   E   E   E   E      W                   W
----------------------------------|--------------------|-------------------|
--14--14--14--14--14--14--14--14--|--------------------|-------------------|
----------------------------------|--15----------------|--L----------------|
----------------------------------|--------------------|-------------------|
----------------------------------|--------------------|-------------------|
----------------------------------|--------------------|-------------------|


  W                   W                   Q    Q    Q    Q
-------------------|-------------------|-----------------7----|
-------------------|-------------------|------------9----L----|
--L----------------|--L----------------|--8----8----L----L----|
-------------------|-------------------|----------------------|
-------------------|-------------------|----------------------|
-------------------|-------------------|----------------------|


                          PM   PM   PM PM PM PM         PM   PM PM PM PM PM
  E  Q    E  Q    Q       Q    Q    S  E  S  Q       E  Q    E  S  E  S  Q
--L--0----0------------|--------------------------|---------------------------|
--L--------------------|--------------------------|---------------------------|
--L----------8---------|--------------------------|---------------------------|
-----------------------|--1----1----1--1--1--1----|--L--1----1--1--1--1--1----|
-----------------------|--1----1----1--1--1--1----|--L--1----1--1--1--1--1----|
-----------------------|--1----1----1--1--1--1----|--L--1----1--1--1--1--1----|


  PM   PM   PM PM PM             PM   PM PM PM PM
  Q    Q    S  E  S  E  E     E  Q    E  S  E  S  E  E
---------------------------|----------------------------|
---------------------------|----------------------------|
---------------------------|----------------------------|
--1----1----1--1--1--------|-----1----1--1--1--1--------|
--1----1----1--1--1--------|-----1----1--1--1--1--------|
--1----1----1--1--1--1-----|-----1----1--1--1--1--1-----|


  PM   PM   PM PM PM PM         PM   PM PM PM PM PM      PM   PM
  Q    Q    S  E  S  Q       E  Q    E  S  E  S  Q       Q    Q    H
--------------------------|---------------------------|---------------------|
--------------------------|---------------------------|---------------------|
--------------------------|---------------------------|---------------------|
--1----1----1--1--1--1----|--L--1----1--1--1--1--1----|--1----1----1--------|
--1----1----1--1--1--1----|--L--1----1--1--1--1--1----|--1----1----1--------|
--1----1----1--1--1--1----|--L--1----1--1--1--1--1----|--1----1----1--------|


     PM    PM   PM PM   PM PM                 PM    PM
  E  E  E  S  S S  S  S S  E  E     Q    Q    S  E  S  E  E
---------------------------------|---------------------------|
---------------------------------|---------------------------|
---------------------------------|---------------------------|
-----1-----1----1--1----1--1-----|--6----6-------------------|
-----1-----1----1--1----1--1-----|--6----6-------------------|
-----1-----1----1--1----1--1-----|--6----6----5--6--5--6-----|


             PM    PM                          PM    PM
  E  Q    E  S  E  S  E  E     S S S S S S S S S  E  S  E  E
----------------------------|---------------------------------|
----------------------------|---------------------------------|
----------------------------|---------------------------------|
-----9----9-----------------|--9-8-6---8-6-5------------------|
-----9----9-----------------|--------7-------6----------------|
-----9----9--2--5--2--5--5--|------------------5--6--5--6-----|


             PM    PM                    PM    PM
  E  Q    E  S  E  S  E  E     Q    Q    S  E  S  E  E
----------------------------|---------------------------|
----------------------------|---------------------------|
----------------------------|---------------------------|
-----2----2-----------------|--6----6-------------------|
-----2----2-----------------|--6----6-------------------|
-----2----2--2--5--2--5--5--|--6----6----5--6--5--6-----|


             PM    PM                          PM    PM
  E  Q    E  S  E  S  E  E     S S S S S S S S S  E  S  E  E
----------------------------|---------------------------------|
----------------------------|---------------------------------|
----------------------------|---------------------------------|
-----9----9-----------------|--9-8-6---8-6-5------------------|
-----9----9-----------------|--------7-------6----------------|
-----9----9--2--5--2--5--5--|------------------5--6--5--6-----|


             PM    PM
  E  Q    E  S  E  S  E  E     W                   W
----------------------------|-------------------|-------------------|
----------------------------|-------------------|-------------------|
----------------------------|-------------------|-------------------|
-----2----2-----------------|--2----------------|--5----------------|
-----2----2-----------------|--2----------------|--5----------------|
-----2----2--2--5--2--5--5--|--2----------------|--5----------------|


   E   E   E   E   E   E   E   E      E   E   E   E   E   E   E   E
----------------------------------|----------------------------------|
----------------------------------|------------------16--16--16--16--|
--13--13--13--13--15--15--15--15--|--16--16--16--16---x---x---x---x--|
---x---x---x---x---x---x---x---x--|---x---x---x---x--13--13--13--13--|
--11--11--11--11--13--13--13--13--|--14--14--14--14------------------|
----------------------------------|----------------------------------|


   E   E   E   E   E   E   E   E     E   E  E   E  E   E  E   E
----------------------------------|------------------------------|
----------------------------------|------------------------------|
------------------11--------------|------------------------------|
--13--11--11--13------13--11------|--9--11--9------9-------------|
------------------------------13--|------------13-----13--9------|
----------------------------------|--------------------------13--|


   E   E   E   E   E   E   E   E      E   E   E   E   E   E   E   E
----------------------------------|----------------------------------|
----------------------------------|--11--12--11--11--12--11----------|
------------------11--------------|--------------------------11------|
--13--11--11--13------13--11--13--|------------------------------13--|
----------------------------------|----------------------------------|
----------------------------------|----------------------------------|


   E   E   E   E   E   E   E   E      E   E   E   E   E   E   E   E
----------------------------------|----------------------------------|
--------------------------14--14--|--14--16--16--16------------------|
--13--13--15--15--16--16----------|------------------12--12--12--12--|
----------------------------------|----------------------------------|
----------------------------------|----------------------------------|
----------------------------------|----------------------------------|


   E   E   E   E   E   E   E   E      E   E   E   E   E   E   E   E
----------------------------------|----------------------------------|
----------------------------------|--11--12--11--11--12--11----------|
------------------11--------------|--------------------------11------|
--13--11--11--13------13--11--13--|------------------------------13--|
----------------------------------|----------------------------------|
----------------------------------|----------------------------------|


   E   E   E   E   E   E   E   E     E   E  E   E  E   E  E   E
----------------------------------|------------------------------|
----------------------------------|------------------------------|
------------------11--------------|------------------------------|
--13--11--11--13------13--11------|--9--11--9------9-------------|
------------------------------13--|------------13-----13--9------|
----------------------------------|--------------------------13--|


   E   E   E   E   E   E   E   E      E   E   E   E   E   E   E   E
----------------------------------|----------------------------------|
----------------------------------|--11--12--11--11--12--11----------|
------------------11--------------|--------------------------11------|
--13--11--11--13------13--11--13--|------------------------------13--|
----------------------------------|----------------------------------|
----------------------------------|----------------------------------|


   E   E   E   E   E   E   E   E      E   E   E   E   E   E   E   E
--16--16--18--18--19--19--21--21--|--21--23--23--23------------------|
----------------------------------|------------------20--20--20--20--|
----------------------------------|----------------------------------|
----------------------------------|----------------------------------|
----------------------------------|----------------------------------|
----------------------------------|----------------------------------|


   E   E   E   E   E   E   E   E      E   E   E   E   E   E   E   E
--19--19--19--------------18--18--|--18--18--18--18--18--18--18--18--|
--------------16--16--16----------|----------------------------------|
----------------------------------|----------------------------------|
----------------------------------|----------------------------------|
----------------------------------|----------------------------------|
----------------------------------|----------------------------------|


   E   E   E   E   E   E   E   E      E   E   E   E   Q      E   E
--19--19--19----------------------|---------------------------------|
--------------16--16--16----------|---------------------------------|
--------------------------18--18--|--18--18--18--18--15b----15------|
----------------------------------|-----------------------------16--|
----------------------------------|---------------------------------|
----------------------------------|---------------------------------|


   E   E   E   E   E   E   E   E      E   E   E   E   E   E   E   E
--19--19--19--------------18--18--|--18--18--18--18--18--18--18--18--|
--------------16--16--16----------|----------------------------------|
----------------------------------|----------------------------------|
----------------------------------|----------------------------------|
----------------------------------|----------------------------------|
----------------------------------|----------------------------------|


   E   E   E   E   E   E   E   E      E   E   E   E   E   E   E   E
--23--23--23--23--23--23--23--23--|--21--21--21--21--21--21--21--21--|
----------------------------------|----------------------------------|
----------------------------------|----------------------------------|
----------------------------------|----------------------------------|
----------------------------------|----------------------------------|
----------------------------------|----------------------------------|


   W                   W                   E  E  E  E  E  E  E  E
--19----------------|--L----------------|--------------------------|
--------------------|-------------------|--------------------------|
--------------------|-------------------|--------------------------|
--------------------|-------------------|--------------------------|
--------------------|-------------------|--------------6-----------|
--------------------|-------------------|--6--9--8--6-----9--8--9--|


  PM PM PM PM PM PM PM PM PM PM PM PM
  S  S  E  S  S  E  S  S  E  S  S  E     E  E  E  E  E  E  E  E
--------------------------------------|--------------------------|
--------------------------------------|--------------------------|
--------------------------------------|--------------------------|
--5--5--5--5--5--5--5--5--5--5--5--5--|--------------------------|
--5--5--5--5--5--5--5--5--5--5--5--5--|--------------6-----------|
--5--5--5--5--5--5--5--5--5--5--5--5--|--6--9--8--6-----9--8--9--|


  E  E  E  E  E  E  E  E     E  E  E  E  E  E  E  E
--------------------------|--------------------------|
--------------------------|--------------------------|
--------------------------|--------------------------|
--------------------------|--------------------------|
--------------6-----------|--------------6-----------|
--6--9--8--6-----9--8--5--|--6--9--8--6-----9--8--9--|


  E  E  E  E  E  E  E  E
--------------------------||
--------------------------||
--------------------------||
--5-----------------------||
--5-----------------------||
--5-----------------------||


============================================================================
============================================================================


----------------------------------------------------------------------------
                       Where Did I Go Wrong?
                             Heartist
----------------------------------------------------------------------------


Guitar 1 Rhythmic (C# G# C# F# A# D#)
Guitar 2 Lead     (C# G# C# F# A# D#)
Guitar 3 Acoustic (D# G# C# F# A# D#)

NOTE: This was exported off of guitar pro.


Guitar 1

                                      E  E  E  E  E  E  E  E
D#||-------|-------|-------|-------|--------------------------|
A#||-------|-------|-------|-------|--------------------------|
F#||-------|-------|-------|-------|--------------------------|
C#||-------|-------|-------|-------|--0--0--0--0--0--0--0--0--|
G#||-------|-------|-------|-------|--0--0--0--0--0--0--0--0--|
C#||-------|-------|-------|-------|--0--0--0--0--0--0--0--0--|


  E  E  E  E  E  E  E  E     E  E  E  E  E  E  E  E
--------------------------|--------------------------|
--------------------------|--------------------------|
--------------------------|--------------------------|
--0--0--0--0--0--0--0--0--|--4--4--4--4--4--4--4--4--|
--0--0--0--0--0--0--0--0--|--4--4--4--4--4--4--4--4--|
--0--0--0--0--0--0--0--0--|--4--4--4--4--4--4--4--4--|


  E  E  E  E  E  E  E  E     E  E  E  E  E  E  E  E
--------------------------|--------------------------|
--------------------------|--------------------------|
--------------------------|--------------------------|
--4--4--4--4--4--4--4--4--|--0--0--0--0--0--0--0--0--|
--4--4--4--4--4--4--4--4--|--0--0--0--0--0--0--0--0--|
--4--4--4--4--4--4--4--4--|--0--0--0--0--0--0--0--0--|


  E  E  E  E  E  E  E  E     E  E  E  E  E  E  E  E
--------------------------|--------------------------|
--------------------------|--------------------------|
--------------------------|--------------------------|
--0--0--0--0--0--0--0--0--|--4--4--4--4--4--4--4--4--|
--0--0--0--0--0--0--0--0--|--4--4--4--4--4--4--4--4--|
--0--0--0--0--0--0--0--0--|--4--4--4--4--4--4--4--4--|


                             PM                PM
  E  E  E  E  E  E  E  E     Q     E  E  E  E  Q
--------------------------|-------------------------|
--------------------------|-------------------------|
--------------------------|-------------------------|
--7--7--7--7--7--7--7--7--|--0--------7--7--7--0----|
--7--7--7--7--7--7--7--7--|--0----11--------L--0----|
--7--7--7--7--7--7--7--7--|--0-----------------0----|


                               PM
  E  E  E  E  S E  S E  S S    Q     E  E  E  E  S E  S
----------------------------|---------------------------|
----------------------------|---------------------------|
-----6--6--6----------------|---------------------------|
--9--------L----------------|--0--------7--7--7---------|
----------------------------|--0----11--------L---------|
--------------4-4--4-4--4-4-|--0-----------------4-4--4-|


                                            PM                PM
  E  S S S S S S  S  S  S  S  S  S  S  S    Q     E  E  E  E  Q
-----------------------------------------|-------------------------|
-----------------------------------------|-------------------------|
-----------------------------------------|-------------------------|
-----------------------------------------|--0--------7--7--7--0----|
-----------------------------12-12-12-12-|--0----11--------L--0----|
--4--4-4-4-4-4-4-11-11-11-11-------------|--0-----------------0----|


                               PM                PM
  E  E  E  E  S E  S E  S S    Q     E  E  E  E  Q
----------------------------|-------------------------|
----------------------------|-------------------------|
-----6--6--6----------------|-------------------------|
--9--------L----------------|--0--------7--7--7--0----|
----------------------------|--0----11--------L--0----|
--------------4-4--4-4--4-4-|--0-----------------0----|


                                    PM  PM  PM  PM  PM  PM  PM  PM
  S S S S S S S S S S S S E  E      E   E   E   E   E   E   E   E
--------------------------------|----------------------------------|
--------------------------------|----------14--------------14------|
--7-7-7-7-7-7-7-7-9-9-9-9-9-----|------11------11------11------11--|
--x-x-x-x-x-x-x-x-x-x-x-x-x-----|--11--------------11--------------|
--5-5-5-5-5-5-5-5-7-7-7-7-7-----|----------------------------------|
--------------------------------|----------------------------------|


   PM  PM  PM  PM  PM  PM  PM  PM     PM  PM  PM  PM  PM  PM  PM  PM
   E   E   E   E   E   E   E   E      E   E   E   E   E   E   E   E
----------------------------------|----------------------------------|
----------14--------------14------|----------15--------------15------|
------11------11------11------11--|------11------11------11------11--|
--11--------------11--------------|--12--------------12--------------|
----------------------------------|----------------------------------|
----------------------------------|----------------------------------|


   PM  PM  PM  PM  PM  PM  PM  PM     PM  PM  PM  PM  PM  PM  PM  PM
   E   E   E   E   E   E   E   E      E   E   E   E   E   E   E   E
----------------------------------|----------------------------------|
----------15--------------15------|----------14--------------14------|
------11------11------11------11--|------11------11------11------11--|
--12--------------12--------------|--11--------------11--------------|
----------------------------------|----------------------------------|
----------------------------------|----------------------------------|


   PM  PM  PM  PM  PM  PM  PM  PM     PM  PM  PM  PM  PM  PM  PM  PM
   E   E   E   E   E   E   E   E      E   E   E   E   E   E   E   E
----------------------------------|----------------------------------|
----------14--------------14------|----------15--------------15------|
------11------11------11------11--|------11------11------11------11--|
--11--------------11--------------|--12--------------12--------------|
----------------------------------|----------------------------------|
----------------------------------|----------------------------------|


   PM  PM  PM  PM  PM  PM  PM  PM     PM  PM  PM  PM  PM  PM  PM  PM
   E   E   E   E   E   E   E   E      E   E   E   E   E   E   E   E
----------------------------------|----------------------------------|
----------15--------------15------|----------14--------------14------|
------11------11------11------11--|------11------11------11------11--|
--12--------------12--------------|--11--------------11--------------|
----------------------------------|----------------------------------|
----------------------------------|----------------------------------|


   PM  PM  PM  PM  PM  PM  PM  PM     PM  PM  PM  PM  PM  PM  PM  PM
   E   E   E   E   E   E   E   E      E   E   E   E   E   E   E   E
----------------------------------|----------------------------------|
----------14--------------14------|----------15--------------15------|
------11------11------11------11--|------11------11------11------11--|
--11--------------11--------------|--12--------------12--------------|
----------------------------------|----------------------------------|
----------------------------------|----------------------------------|


   PM  PM  PM  PM  PM  PM  PM  PM     PM  PM  PM  PM  PM  PM  PM  PM
   E   E   E   E   E   E   E   E      E   E   E   E   E   E   E   E
----------------------------------|----------------------------------|
----------15--------------15------|----------14--------------14------|
------11------11------11------11--|------11------11------11------11--|
--12--------------12--------------|--11--------------11--------------|
----------------------------------|----------------------------------|
----------------------------------|----------------------------------|


   PM  PM  PM  PM  PM  PM  PM  PM     PM  PM  PM  PM  PM  PM  PM  PM
   E   E   E   E   E   E   E   E      E   E   E   E   E   E   E   E
----------------------------------|----------------------------------|
----------14--------------14------|----------15--------------15------|
------11------11------11------11--|------11------11------11------11--|
--11--------------11--------------|--12--------------12--------------|
----------------------------------|----------------------------------|
----------------------------------|----------------------------------|


   PM  PM  PM  PM  PM  PM  PM  PM
   E   E   E   E   E   E   E   E     E  E  E  E  E  E  E  E
----------------------------------|--------------------------|
----------15--------------15------|--------------------------|
------11------11------11------11--|--------------------------|
--12--------------12--------------|--0--0--0--0--0--0-----0--|
----------------------------------|--0--0--0--0--0--0-----0--|
----------------------------------|--0--0--0--0--0--0-----0--|


  E  E  E  E  E  E  E  E     E  E  E  E  E  E  E  E
--------------------------|--------------------------|
--------------------------|--------------------------|
--------------------------|--------------------------|
--L--0--0--0--0--0--0--0--|--4--4--4--4--4--4-----4--|
--L--0--0--0--0--0--0--0--|--4--4--4--4--4--4-----4--|
--L--0--0--0--0--0--0--0--|--4--4--4--4--4--4-----4--|


  E  E  E  E  E  E  E  E     E  E  E  E  E  E  E  E
--------------------------|--------------------------|
--------------------------|--------------------------|
--------------------------|--------------------------|
--L--4--4--4--4--4--4--4--|--7--7--7--7--7--7--7--7--|
--L--4--4--4--4--4--4--4--|--7--7--7--7--7--7--7--7--|
--L--4--4--4--4--4--4--4--|--7--7--7--7--7--7--7--7--|


  E  E  E  E  E  E  E  E     E  E  E  E  E  E  E  E
--------------------------|--------------------------|
--------------------------|--------------------------|
--------------------------|--------------------------|
--7--7--7--7--7--7--7--7--|--2--2--2--2--2--2--2--2--|
--7--7--7--7--7--7--7--7--|--2--2--2--2--2--2--2--2--|
--7--7--7--7--7--7--7--7--|--2--2--2--2--2--2--2--2--|


  E  E  E  E  E  E  E  E     E  E  Q    Q    Q       E  E  E  E  E  E  E  E
--------------------------|-----------------------|--------------------------|
--------------------------|-----------------------|--------------------------|
--------------------------|-----------------------|--------------------------|
--2--2--2--2--2--2--2--2--|--0-----0--------------|--0--0--0--0--0--0--0--0--|
--2--2--2--2--2--2--2--2--|--0-----0--------------|--0--0--0--0--0--0--0--0--|
--2--2--2--2--2--2--2--2--|--0-----0--------------|--0--0--0--0--0--0--0--0--|


  E  E  E  E  E  E  E  E     E  E  E  E  E  E  E  E
--------------------------|--------------------------|
--------------------------|--------------------------|
--------------------------|--------------------------|
--0--0--0--0--0--0--0--0--|--4--4--4--4--4--4--4--4--|
--0--0--0--0--0--0--0--0--|--4--4--4--4--4--4--4--4--|
--0--0--0--0--0--0--0--0--|--4--4--4--4--4--4--4--4--|


  E  E  E  E  E  E  E  E     E  E  E  E  E  E  E  E
--------------------------|--------------------------|
--------------------------|--------------------------|
--------------------------|--------------------------|
--4--4--4--4--4--4--4--4--|--0--0--0--0--0--0--0--0--|
--4--4--4--4--4--4--4--4--|--0--0--0--0--0--0--0--0--|
--4--4--4--4--4--4--4--4--|--0--0--0--0--0--0--0--0--|


  E  E  E  E  E  E  E  E     E  E  E  E  E  E  E  E
--------------------------|--------------------------|
--------------------------|--------------------------|
--------------------------|--------------------------|
--0--0--0--0--0--0--0--0--|--4--4--4--4--4--4--4--4--|
--0--0--0--0--0--0--0--0--|--4--4--4--4--4--4--4--4--|
--0--0--0--0--0--0--0--0--|--4--4--4--4--4--4--4--4--|


                             PM                PM
  E  E  E  E  E  E  E  E     Q     E  E  E  E  Q
--------------------------|-------------------------|
--------------------------|-------------------------|
--------------------------|-------------------------|
--7--7--7--7--7--7--7--7--|--0--------7--7--7--0----|
--7--7--7--7--7--7--7--7--|--0----11--------L--0----|
--7--7--7--7--7--7--7--7--|--0-----------------0----|


                               PM                PM
  E  E  E  E  S E  S E  S S    Q     E  E  E  E  Q
----------------------------|-------------------------|
----------------------------|-------------------------|
-----6--6--6----------------|-------------------------|
--9--------L----------------|--0--------7--7--7--0----|
----------------------------|--0----11--------L--0----|
--------------4-4--4-4--4-4-|--0-----------------0----|


                                    PM  PM  PM  PM  PM  PM  PM  PM
  S S S S S S S S S S S S E  E      E   E   E   E   E   E   E   E
--------------------------------|----------------------------------|
--------------------------------|----------14--------------14------|
--7-7-7-7-7-7-7-7-9-9-9-9-9-----|------11------11------11------11--|
--x-x-x-x-x-x-x-x-x-x-x-x-x-----|--11--------------11--------------|
--5-5-5-5-5-5-5-5-7-7-7-7-7-----|----------------------------------|
--------------------------------|----------------------------------|


   PM  PM  PM  PM  PM  PM  PM  PM     PM  PM  PM  PM  PM  PM  PM  PM
   E   E   E   E   E   E   E   E      E   E   E   E   E   E   E   E
----------------------------------|----------------------------------|
----------14--------------14------|----------15--------------15------|
------11------11------11------11--|------11------11------11------11--|
--11--------------11--------------|--12--------------12--------------|
----------------------------------|----------------------------------|
----------------------------------|----------------------------------|


   PM  PM  PM  PM  PM  PM  PM  PM     PM  PM  PM  PM  PM  PM  PM  PM
   E   E   E   E   E   E   E   E      E   E   E   E   E   E   E   E
----------------------------------|----------------------------------|
----------15--------------15------|----------14--------------14------|
------11------11------11------11--|------11------11------11------11--|
--12--------------12--------------|--11--------------11--------------|
----------------------------------|----------------------------------|
----------------------------------|----------------------------------|


   PM  PM  PM  PM  PM  PM  PM  PM     PM  PM  PM  PM  PM  PM  PM  PM
   E   E   E   E   E   E   E   E      E   E   E   E   E   E   E   E
----------------------------------|----------------------------------|
----------14--------------14------|----------15--------------15------|
------11------11------11------11--|------11------11------11------11--|
--11--------------11--------------|--12--------------12--------------|
----------------------------------|----------------------------------|
----------------------------------|----------------------------------|


   PM  PM  PM  PM  PM  PM  PM  PM     PM  PM  PM  PM  PM  PM  PM  PM
   E   E   E   E   E   E   E   E      E   E   E   E   E   E   E   E
----------------------------------|----------------------------------|
----------15--------------15------|----------14--------------14------|
------11------11------11------11--|------11------11------11------11--|
--12--------------12--------------|--11--------------11--------------|
----------------------------------|----------------------------------|
----------------------------------|----------------------------------|


   PM  PM  PM  PM  PM  PM  PM  PM     PM  PM  PM  PM  PM  PM  PM  PM
   E   E   E   E   E   E   E   E      E   E   E   E   E   E   E   E
----------------------------------|----------------------------------|
----------14--------------14------|----------15--------------15------|
------11------11------11------11--|------11------11------11------11--|
--11--------------11--------------|--12--------------12--------------|
----------------------------------|----------------------------------|
----------------------------------|----------------------------------|


   PM  PM  PM  PM  PM  PM  PM  PM     PM  PM  PM  PM  PM  PM  PM  PM
   E   E   E   E   E   E   E   E      E   E   E   E   E   E   E   E
----------------------------------|----------------------------------|
----------15--------------15------|----------14--------------14------|
------11------11------11------11--|------11------11------11------11--|
--12--------------12--------------|--11--------------11--------------|
----------------------------------|----------------------------------|
----------------------------------|----------------------------------|


   PM  PM  PM  PM  PM  PM  PM  PM     PM  PM  PM  PM  PM  PM  PM  PM
   E   E   E   E   E   E   E   E      E   E   E   E   E   E   E   E
----------------------------------|----------------------------------|
----------14--------------14------|----------15--------------15------|
------11------11------11------11--|------11------11------11------11--|
--11--------------11--------------|--12--------------12--------------|
----------------------------------|----------------------------------|
----------------------------------|----------------------------------|


   PM  PM  PM  PM  PM  PM  PM  PM
   E   E   E   E   E   E   E   E     E  E  E  E  E  E  E  E
----------------------------------|--------------------------|
----------15--------------15------|--------------------------|
------11------11------11------11--|--------------------------|
--12--------------12--------------|--0--0--0--0--0--0-----0--|
----------------------------------|--0--0--0--0--0--0-----0--|
----------------------------------|--0--0--0--0--0--0-----0--|


  E  E  E  E  E  E  E  E     E  E  E  E  E  E  E  E
--------------------------|--------------------------|
--------------------------|--------------------------|
--------------------------|--------------------------|
--L--0--0--0--0--0--0--0--|--4--4--4--4--4--4-----4--|
--L--0--0--0--0--0--0--0--|--4--4--4--4--4--4-----4--|
--L--0--0--0--0--0--0--0--|--4--4--4--4--4--4-----4--|


  E  E  E  E  E  E  E  E     E  E  E  E  E  E  E  E
--------------------------|--------------------------|
--------------------------|--------------------------|
--------------------------|--------------------------|
--L--4--4--4--4--4--4--4--|--7--7--7--7--7--7--7--7--|
--L--4--4--4--4--4--4--4--|--7--7--7--7--7--7--7--7--|
--L--4--4--4--4--4--4--4--|--7--7--7--7--7--7--7--7--|


  E  E  E  E  E  E  E  E     E  E  E  E  E  E  E  E
--------------------------|--------------------------|
--------------------------|--------------------------|
--------------------------|--------------------------|
--7--7--7--7--7--7--7--7--|--2--2--2--2--2--2--2--2--|
--7--7--7--7--7--7--7--7--|--2--2--2--2--2--2--2--2--|
--7--7--7--7--7--7--7--7--|--2--2--2--2--2--2--2--2--|


  E  E  E  E  E  E  E  E     E  E  Q    Q    Q       E  E  E  E  E  E  E  E
--------------------------|-----------------------|--------------------------|
--------------------------|-----------------------|--------------------------|
--------------------------|-----------------------|--------------------------|
--2--2--2--2--2--2--2--2--|--0-----0--------------|--0--0--0--0--0--0--0--0--|
--2--2--2--2--2--2--2--2--|--0-----0--------------|--0--0--0--0--0--0--0--0--|
--2--2--2--2--2--2--2--2--|--0-----0--------------|--0--0--0--0--0--0--0--0--|


  E  E  E  E  E  E  E  E     E  E  E  E  E  E  E  E
--------------------------|--------------------------|
--------------------------|--------------------------|
--------------------------|--------------------------|
--0--0--0--0--0--0--0--0--|--4--4--4--4--4--4--4--4--|
--0--0--0--0--0--0--0--0--|--4--4--4--4--4--4--4--4--|
--0--0--0--0--0--0--0--0--|--4--4--4--4--4--4--4--4--|


  E  E  E  E  E  E  E  E     E  E  E  E  E  E  E  E
--------------------------|--------------------------|
--------------------------|--------------------------|
--------------------------|--------------------------|
--4--4--4--4--4--4--4--4--|--0--0--0--0--0--0--0--0--|
--4--4--4--4--4--4--4--4--|--0--0--0--0--0--0--0--0--|
--4--4--4--4--4--4--4--4--|--0--0--0--0--0--0--0--0--|


  E  E  E  E  E  E  E  E     E  E  E  E  E  E  E  E
--------------------------|--------------------------|
--------------------------|--------------------------|
--------------------------|--------------------------|
--0--0--0--0--0--0--0--0--|--4--4--4--4--4--4--4--4--|
--0--0--0--0--0--0--0--0--|--4--4--4--4--4--4--4--4--|
--0--0--0--0--0--0--0--0--|--4--4--4--4--4--4--4--4--|


  E  E  E  E  E  E  E  E     S S S S S S S S  S S S S S S S S
--------------------------|----------------5-10-5-------------|
--------------------------|--------------7--------7-----------|
--------------------------|--7-6-7-6---7------------7---7-6---|
--7--7--7--7--7--7--7--7--|----------7----------------7-----7-|
--7--7--7--7--7--7--7--7--|-----------------------------------|
--7--7--7--7--7--7--7--7--|-----------------------------------|


  S S S S S S S S S S S S S S S S    S S S S S S S S S S S S S S S S
----------------5-9-5-------------|----------------2-5-2-------------|
--------------7-------7-----------|--------------2-------2-----------|
--7-6-7-6---6-----------6---7-----|--4-2-4-2---4-----------4---4-2---|
----------7---------------9---9-7-|----------4---------------4-----4-|
----------------------------------|----------------------------------|
----------------------------------|----------------------------------|


  S S S S S S S S S S S S S S S S    S S S S S S S S  S S S S S S S S
----------------4-7-4-------------|----------------5-10-5-------------|
--------------5-------5-----------|--------------7--------7-----------|
--4-2-4-2---4-----------4---------|--7-6-7-6---7------------7---7-6---|
----------4---------------4-7-4-0-|----------7----------------7-----7-|
----------------------------------|-----------------------------------|
----------------------------------|-----------------------------------|


  S S S S S S S S S S S S S S S S    S S S S S S S S S S S S S S S S
----------------5-9-5-------------|--------------------------------2-|
--------------7-------7-----------|------------------------------3---|
--7-6-7-6---6-----------6---7-----|--4-2---2-4-2---2-6-2---2-6-2-----|
----------7---------------9---9-7-|------4-------4-------4-----------|
----------------------------------|----------------------------------|
----------------------------------|----------------------------------|


  S S S S S S S S S S S S S S S S    E  E  E  E  E  E  E  E
--5-2-----------------------4-7-4-|--------------------------|
------3-------------------5-------|--------------------------|
--------2---2-4-2---2-4-2---------|--------------------------|
----------4-------4---------------|--0--0--0--0--0--0--0--0--|
----------------------------------|--0--0--0--0--0--0--0--0--|
----------------------------------|--0--0--0--0--0--0--0--0--|


  E  E  E  E  E  E  E  E     E  E  E  E  E  E  E  E
--------------------------|--------------------------|
--------------------------|--------------------------|
--------------------------|--------------------------|
--0--0--0--0--0--0--0--0--|--2--2--2--2--2--2--2--2--|
--0--0--0--0--0--0--0--0--|--2--2--2--2--2--2--2--2--|
--0--0--0--0--0--0--0--0--|--2--2--2--2--2--2--2--2--|


  E  E  E  E  E  E  E  E     E  E  E  E  E  E  E  E
--------------------------|--------------------------|
--------------------------|--------------------------|
--------------------------|--------------------------|
--2--2--2--2--2--2--2--2--|--4--4--4--4--4--4--4--4--|
--2--2--2--2--2--2--2--2--|--4--4--4--4--4--4--4--4--|
--2--2--2--2--2--2--2--2--|--4--4--4--4--4--4--4--4--|


  E  E  E  E  E  E  E  E     E  E  E  E  E  E  E  E
--------------------------|--------------------------|
--------------------------|--------------------------|
--------------------------|--------------------------|
--4--4--4--4--4--4--4--4--|--2--2--2--2--2--2--2--2--|
--4--4--4--4--4--4--4--4--|--2--2--2--2--2--2--2--2--|
--4--4--4--4--4--4--4--4--|--2--2--2--2--2--2--2--2--|


  S S S S S S S S S S S S S S S S    E  E  E  E  E  E  E  E
----------------------------------|--------------------------|
----------------------------------|--------------------------|
----------------------------------|--------------------------|
----------------------------------|--0--0--0--0--0--0--0--0--|
----------------------------------|--0--0--0--0--0--0--0--0--|
--7-7-7-7-7-7-7-7-6-6-6-6-6-6-6-6-|--0--0--0--0--0--0--0--0--|


  E  E  E  E  E  E  E  E     E  E  E  E  E  E  E  E
--------------------------|--------------------------|
--------------------------|--------------------------|
--------------------------|--------------------------|
--0--0--0--0--0--0--0--0--|--2--2--2--2--2--2--2--2--|
--0--0--0--0--0--0--0--0--|--2--2--2--2--2--2--2--2--|
--0--0--0--0--0--0--0--0--|--2--2--2--2--2--2--2--2--|


  E  E  E  E  E  E  E  E     E  E  E  E  E  E  E  E
--------------------------|--------------------------|
--------------------------|--------------------------|
--------------------------|--------------------------|
--2--2--2--2--2--2--2--2--|--3--3--3--3--3--3--3--3--|
--2--2--2--2--2--2--2--2--|--3--3--3--3--3--3--3--3--|
--2--2--2--2--2--2--2--2--|--3--3--3--3--3--3--3--3--|


  E  E  E  E  E  E  E  E     E  E  E  E  E  E  E  E
--------------------------|--------------------------|
--------------------------|--------------------------|
--------------------------|--------------------------|
--3--3--3--3--3--3--3--3--|--------------------------|
--3--3--3--3--3--3--3--3--|--------------------------|
--3--3--3--3--3--3--3--3--|--4--4--4--6--6--6--7--7--|


  E  E  E  E  E  E  E  E     W                   W
--------------------------|-------------------|-------------------|
--------------------------|-------------------|-------------------|
--------------------------|--7----------------|--L----------------|
--------------------------|--7----------------|--L----------------|
--------------------------|--5----------------|--L----------------|
--9--9--9--7--7--7--6--6--|-------------------|-------------------|


  W                   W
-------------------|-------------------|-------------------|-------------------|
-------------------|-------------------|-------------------|-------------------|
--L----------------|--L----------------|-------------------|-------------------|
--L----------------|--L----------------|-------------------|-------------------|
--L----------------|--L----------------|-------------------|-------------------|
-------------------|-------------------|-------------------|-------------------|


  S S S S S S S S S S S S S S S S    S S S S S S S S S S S S S S S S
----------------------------------|----------------------------------|
----------------------------------|----------------------------------|
----------------------------------|----------------------------------|
--2-2-2-2-2-2-2-2-2-2-2-2-2-2-2-2-|--2-2-2-2-2-2-2-2-2-2-2-2-2-2-2-2-|
--2-2-2-2-2-2-2-2-2-2-2-2-2-2-2-2-|--2-2-2-2-2-2-2-2-2-2-2-2-2-2-2-2-|
--2-2-2-2-2-2-2-2-2-2-2-2-2-2-2-2-|--2-2-2-2-2-2-2-2-2-2-2-2-2-2-2-2-|


  E  E  E  E  E  E  E  E           E  E  E  E  E  E  E  E
--------------------------|-----|--------------------------|
--------------------------|-----|--------------------------|
--------------------------|-----|--------------------------|
--2-----------------------|-----|--------0--0--0--0--0--0--|
--2-----------------------|-----|--------0--0--0--0--0--0--|
--2-----------------------|-----|--------0--0--0--0--0--0--|


  E  E  E  E  E  E  E  E     E  E  E  E  E  E  E  E
--------------------------|--------------------------|
--------------------------|--------------------------|
--------------------------|--------------------------|
--4--4--4--4--4--4--4--4--|--4--4--4--4--4--4--4--4--|
--4--4--4--4--4--4--4--4--|--4--4--4--4--4--4--4--4--|
--4--4--4--4--4--4--4--4--|--4--4--4--4--4--4--4--4--|


  E  E  E  E  E  E  E  E     E  E  E  E  E  E  E  E
--------------------------|--------------------------|
--------------------------|--------------------------|
--------------------------|--------------------------|
--0--0--0--0--0--0--0--0--|--0--0--0--0--0--0--0--0--|
--0--0--0--0--0--0--0--0--|--0--0--0--0--0--0--0--0--|
--0--0--0--0--0--0--0--0--|--0--0--0--0--0--0--0--0--|


  E  E  E  E  E  E  E  E     E  E  E  E  E  E  E  E
--------------------------|--------------------------|
--------------------------|--------------------------|
--------------------------|--------------------------|
--4--4--4--4--4--4--4--4--|--7--7--7--7--7--7--7--7--|
--4--4--4--4--4--4--4--4--|--7--7--7--7--7--7--7--7--|
--4--4--4--4--4--4--4--4--|--7--7--7--7--7--7--7--7--|


  E  E  E  E  E  E  E  E     E  E  E  E  E  E  E  E
--------------------------|--------------------------|
--------------------------|--------------------------|
--------------------------|--------------------------|
--0--0--0--0--0--0--0--0--|--0-----------------------|
--0--0--0--0--0--0--0--0--|--0-----------------------|
--0--0--0--0--0--0--0--0--|--0-----------------------|


  S S S S S S S S S S S S S S S S    S S S S S S S S S S S S S S S S
----------------2-5-2-------------|----------------4-7-4-------------|
--------------2-------2-----------|--------------5-------5-----------|
--4-2-4-2---4-----------4---4-2---|--4-2-4-2---4-----------4---------|
----------4---------------4-----4-|----------4---------------4-7-4-0-|
----------------------------------|----------------------------------|
----------------------------------|----------------------------------|


  S S S S S S S S  S S S S S S S S    S S S S S S S S S S S S S S S S
----------------5-10-5-------------|----------------5-9-5-------------|
--------------7--------7-----------|--------------7-------7-----------|
--7-6-7-6---7------------7---7-6---|--7-6-7-6---6-----------6---7-----|
----------7----------------7-----7-|----------7---------------9---9-7-|
-----------------------------------|----------------------------------|
-----------------------------------|----------------------------------|


  S S S S S S S S S S S S S S S S    S S S S S S S S S S S S S S S S
--------------------------------2-|--5-2-----------------------4-7-4-|
------------------------------3---|------3-------------------5-------|
--4-2---2-4-2---2-6-2---2-6-2-----|--------2---2-4-2---2-4-2---------|
------4-------4-------4-----------|----------4-------4---------------|
----------------------------------|----------------------------------|
----------------------------------|----------------------------------|


  E  E  E  E  E  E  E  E     E  E  E  E  E  E  E  E
--------------------------|--------------------------|
--------------------------|--------------------------|
--------------------------|--------------------------|
--0--0--0--0--0--0--0--0--|--0--0--0--0--0--0--0--0--|
--0--0--0--0--0--0--0--0--|--0--0--0--0--0--0--0--0--|
--0--0--0--0--0--0--0--0--|--0--0--0--0--0--0--0--0--|


  E  E  E  E  E  E  E  E     E  E  E  E  E  E  E  E
--------------------------|--------------------------|
--------------------------|--------------------------|
--------------------------|--------------------------|
--4--4--4--4--4--4--4--4--|--7--7--7--7--7--7--7--7--|
--4--4--4--4--4--4--4--4--|--7--7--7--7--7--7--7--7--|
--4--4--4--4--4--4--4--4--|--7--7--7--7--7--7--7--7--|


  E  E  E  E  E  E  E  E     E  E  E  E  E  E  E  E
--------------------------|--------------------------|
--------------------------|--------------------------|
--------------------------|--------------------------|
--0--0--0--0--0--0--0--0--|--0--0--0--0--0--0--0--0--|
--0--0--0--0--0--0--0--0--|--0--0--0--0--0--0--0--0--|
--0--0--0--0--0--0--0--0--|--0--0--0--0--0--0--0--0--|


  E  E  E  E  E  E  E  E     E  E  E  E  E  E  E  E
--------------------------|--------------------------|-----|-----|-----||
--------------------------|--------------------------|-----|-----|-----||
--------------------------|--------------------------|-----|-----|-----||
--4--4--------------------|--2--2--------------------|-----|-----|-----||
--4--4--------------------|--2--2--------------------|-----|-----|-----||
--4--4--------------------|--2--2--------------------|-----|-----|-----||


Guitar 2

                                      S S S S S S S S  S S S S S S S S
D#||-------|-------|-------|-------|----------------5-10-5-------------|
A#||-------|-------|-------|-------|--------------7--------7-----------|
F#||-------|-------|-------|-------|--7-6-7-6---7------------7---7-6---|
C#||-------|-------|-------|-------|----------7----------------7-----7-|
G#||-------|-------|-------|-------|-----------------------------------|
C#||-------|-------|-------|-------|-----------------------------------|


  S S S S S S S S S S S S S S S S    S S S S S S S S S S S S S S S S
----------------5-9-5-------------|----------------2-5-2-------------|
--------------7-------7-----------|--------------2-------2-----------|
--7-6-7-6---6-----------6---7-----|--4-2-4-2---4-----------4---4-2---|
----------7---------------9---9-7-|----------4---------------4-----4-|
----------------------------------|----------------------------------|
----------------------------------|----------------------------------|


  S S S S S S S S S S S S S S S S    S S S S S S S S  S S S S S S S S
----------------4-7-4-------------|----------------5-10-5-------------|
--------------5-------5-----------|--------------7--------7-----------|
--4-2-4-2---4-----------4---------|--7-6-7-6---7------------7---7-6---|
----------4---------------4-7-4-0-|----------7----------------7-----7-|
----------------------------------|-----------------------------------|
----------------------------------|-----------------------------------|


  S S S S S S S S S S S S S S S S    S S S S S S S S S S S S S S S S
----------------5-9-5-------------|--------------------------------2-|
--------------7-------7-----------|------------------------------3---|
--7-6-7-6---6-----------6---7-----|--4-2---2-4-2---2-6-2---2-6-2-----|
----------7---------------9---9-7-|------4-------4-------4-----------|
----------------------------------|----------------------------------|
----------------------------------|----------------------------------|


                                     PM                PM
  S S S S S S S S S S S S S S S S    Q     E  E  E  E  Q
--5-2-----------------------4-7-4-|-------------------------|
------3-------------------5-------|-------------------------|
--------2---2-4-2---2-4-2---------|-------------------------|
----------4-------4---------------|--0--------7--7--7--0----|
----------------------------------|--0----11--------L--0----|
----------------------------------|--0-----------------0----|


                                PM
   E  E  E  E  S E  S E  S S    Q     E  E  E  E  S E  S
-----------------------------|---------------------------|
-----------------------------|---------------------------|
-----------------------------|---------------------------|
------7--7--7----------------|--0--------7--7--7---------|
--11--------L----------------|--0----11--------L---------|
---------------4-4--4-4--4-4-|--0-----------------4-4--4-|


                                        PM                PM
  E  S S S S S S  S  S  S  S S S S S    Q     E  E  E  E  Q
-------------------------------------|-------------------------|
-------------------------------------|-------------------------|
-------------------------------------|-------------------------|
-------------------------------------|--0--------7--7--7--0----|
-----------------------------9-9-9-9-|--0----11--------L--0----|
--4--4-4-4-4-4-4-11-11-11-11---------|--0-----------------0----|


                                PM                PM
   E  E  E  E  S E  S E  S S    Q     E  E  E  E  Q
-----------------------------|-------------------------|
-----------------------------|-------------------------|
-----------------------------|-------------------------|
------7--7--7----------------|--0--------7--7--7--0----|
--11--------L----------------|--0----11--------L--0----|
---------------4-4--4-4--4-4-|--0-----------------0----|


  S S S S S S S S S S S S E  E
--------------------------------|-----|-----|-----|-----|-----|-----|-----|
--7-7-7-7-7-7-7-7-9-9-9-9-9-----|-----|-----|-----|-----|-----|-----|-----|
--x-x-x-x-x-x-x-x-x-x-x-x-x-----|-----|-----|-----|-----|-----|-----|-----|
--4-4-4-4-4-4-4-4-6-6-6-6-6-----|-----|-----|-----|-----|-----|-----|-----|
--------------------------------|-----|-----|-----|-----|-----|-----|-----|
--------------------------------|-----|-----|-----|-----|-----|-----|-----|


         Echo Effect
         E          E   E  E   E  E   E  E     W
-----|--17-------------17-----17-----17-----|-------------------|
-----|--------------------------------------|-------------------|
-----|--------------------------------------|-------------------|
-----|--------------------------------------|-------------------|
-----|--------------------------------------|-------------------|
-----|--------------------------------------|-------------------|


   E  E   E  E   E  E   E  E      E  E   E  E   E  E   E  E
--16-----16-----16-----16-----|------------------------------|
------------------------------|--17-----17-----17-----17-----|
------------------------------|------------------------------|
------------------------------|------------------------------|
------------------------------|------------------------------|
------------------------------|------------------------------|


   E  E   E  E   E  E   E  E     W
--17-----17-----17-----17-----|-------------------|
------------------------------|-------------------|
------------------------------|-------------------|
------------------------------|-------------------|
------------------------------|-------------------|
------------------------------|-------------------|


   E  E   E  E   E  E   E  E      E  E   E  E   E  E   E  E
--16-----16-----16-----16-----|------------------------------|
------------------------------|--17-----17-----17-----17-----|
------------------------------|------------------------------|
------------------------------|------------------------------|
------------------------------|------------------------------|
------------------------------|------------------------------|


   E   E   E   E   E   E   E   E      E   E   E   E   E   E   E   E
--17------16----------------------|----------------------------------|
------------------17----------14--|--15--14------15--15--14------14--|
------14------14------14--16------|----------16--------------16------|
----------------------------------|----------------------------------|
----------------------------------|----------------------------------|
----------------------------------|----------------------------------|


   E   E   E   E   E   E   E   E      E   E   E   E   E   E   E   E
--17------16----------------------|----------------------------------|
------------------17----------14--|--15--14------15--15--14----------|
------14------14------14--16------|----------16--------------16--14--|
----------------------------------|----------------------------------|
----------------------------------|----------------------------------|
----------------------------------|----------------------------------|


   E   E   E   E   E   E   E   E      E   E   E   E   E   E   E   E
--17------------------------------|----------------------------------|
------------------17------14--17--|--15--14------15--15--14------14--|
------16--14--14------14----------|----------16--------------16------|
----------------------------------|----------------------------------|
----------------------------------|----------------------------------|
----------------------------------|----------------------------------|


   E   E   E   E   E   E   E   E      E   E   E   E   E   E   E   E
--17------16----------------------|----------------------------------|
------------------17----------14--|--15--14------15--15--14------14--|
------14------14------14--16------|----------16--------------16------|
----------------------------------|----------------------------------|
----------------------------------|----------------------------------|
----------------------------------|----------------------------------|


   W                   S S S S S S S S  S S S S S S S S
--------------------|----------------5-10-5-------------|
--14----------------|--------------7--------7-----------|
--------------------|--7-6-7-6---7------------7---7-6---|
--------------------|----------7----------------7-----7-|
--------------------|-----------------------------------|
--------------------|-----------------------------------|


  S S S S S S S S S S S S S S S S    S S S S S S S S S S S S S S S S
----------------5-9-5-------------|----------------2-5-2-------------|
--------------7-------7-----------|--------------2-------2-----------|
--7-6-7-6---6-----------6---7-----|--4-2-4-2---4-----------4---4-2---|
----------7---------------9---9-7-|----------4---------------4-----4-|
----------------------------------|----------------------------------|
----------------------------------|----------------------------------|


  S S S S S S S S S S S S S S S S    S S S S S S S S  S S S S S S S S
----------------4-7-4-------------|----------------5-10-5-------------|
--------------5-------5-----------|--------------7--------7-----------|
--4-2-4-2---4-----------4---------|--7-6-7-6---7------------7---7-6---|
----------4---------------4-7-4-0-|----------7----------------7-----7-|
----------------------------------|-----------------------------------|
----------------------------------|-----------------------------------|


  S S S S S S S S S S S S S S S S    S S S S S S S S S S S S S S S S
----------------5-9-5-------------|--------------------------------2-|
--------------7-------7-----------|------------------------------3---|
--7-6-7-6---6-----------6---7-----|--4-2---2-4-2---2-6-2---2-6-2-----|
----------7---------------9---9-7-|------4-------4-------4-----------|
----------------------------------|----------------------------------|
----------------------------------|----------------------------------|


                                     PM                PM
  S S S S S S S S S S S S S S S S    Q     E  E  E  E  Q
--5-2-----------------------4-7-4-|-------------------------|
------3-------------------5-------|-------------------------|
--------2---2-4-2---2-4-2---------|-------------------------|
----------4-------4---------------|--0--------7--7--7--0----|
----------------------------------|--0----11--------L--0----|
----------------------------------|--0-----------------0----|


                                PM                PM
   E  E  E  E  S E  S E  S S    Q     E  E  E  E  Q
-----------------------------|-------------------------|
-----------------------------|-------------------------|
-----------------------------|-------------------------|
------7--7--7----------------|--0--------7--7--7--0----|
--11--------L----------------|--0----11--------L--0----|
---------------4-4--4-4--4-4-|--0-----------------0----|


  S S S S S S S S S S S S E  E
--------------------------------|-----|-----|-----|-----|-----|-----|-----|
--7-7-7-7-7-7-7-7-9-9-9-9-9-----|-----|-----|-----|-----|-----|-----|-----|
--x-x-x-x-x-x-x-x-x-x-x-x-x-----|-----|-----|-----|-----|-----|-----|-----|
--4-4-4-4-4-4-4-4-6-6-6-6-6-----|-----|-----|-----|-----|-----|-----|-----|
--------------------------------|-----|-----|-----|-----|-----|-----|-----|
--------------------------------|-----|-----|-----|-----|-----|-----|-----|


         Echo Effect
         E          E   E  E   E  E   E  E     W
-----|--17-------------17-----17-----17-----|-------------------|
-----|--------------------------------------|-------------------|
-----|--------------------------------------|-------------------|
-----|--------------------------------------|-------------------|
-----|--------------------------------------|-------------------|
-----|--------------------------------------|-------------------|


   E  E   E  E   E  E   E  E      E  E   E  E   E  E   E  E
--16-----16-----16-----16-----|------------------------------|
------------------------------|--17-----17-----17-----17-----|
------------------------------|------------------------------|
------------------------------|------------------------------|
------------------------------|------------------------------|
------------------------------|------------------------------|


   E  E   E  E   E  E   E  E     W
--17-----17-----17-----17-----|-------------------|
------------------------------|-------------------|
------------------------------|-------------------|
------------------------------|-------------------|
------------------------------|-------------------|
------------------------------|-------------------|


   E  E   E  E   E  E   E  E      E  E   E  E   E  E   E  E
--16-----16-----16-----16-----|------------------------------|
------------------------------|--17-----17-----17-----17-----|
------------------------------|------------------------------|
------------------------------|------------------------------|
------------------------------|------------------------------|
------------------------------|------------------------------|


   E   E   E   E   E   E   E   E      E   E   E   E   E   E   E   E
--17------16----------------------|----------------------------------|
------------------17----------14--|--15--14------15--15--14------14--|
------14------14------14--16------|----------16--------------16------|
----------------------------------|----------------------------------|
----------------------------------|----------------------------------|
----------------------------------|----------------------------------|


   E   E   E   E   E   E   E   E      E   E   E   E   E   E   E   E
--17------16----------------------|----------------------------------|
------------------17----------14--|--15--14------15--15--14----------|
------14------14------14--16------|----------16--------------16--14--|
----------------------------------|----------------------------------|
----------------------------------|----------------------------------|
----------------------------------|----------------------------------|


   E   E   E   E   E   E   E   E      E   E   E   E   E   E   E   E
--17------------------------------|----------------------------------|
------------------17------14--17--|--15--14------15--15--14------14--|
------16--14--14------14----------|----------16--------------16------|
----------------------------------|----------------------------------|
----------------------------------|----------------------------------|
----------------------------------|----------------------------------|


   E   E   E   E   E   E   E   E      E   E   E   E   E   E   E   E
--17------16----------------------|----------------------------------|
------------------17----------14--|--15--14------15--15--14------14--|
------14------14------14--16------|----------16--------------16------|
----------------------------------|----------------------------------|
----------------------------------|----------------------------------|
----------------------------------|----------------------------------|


   W                   S S S S S S S S  S S S S S S S S
--------------------|----------------5-10-5-------------|
--14----------------|--------------7--------7-----------|
--------------------|--7-6-7-6---7------------7---7-6---|
--------------------|----------7----------------7-----7-|
--------------------|-----------------------------------|
--------------------|-----------------------------------|


  S S S S S S S S S S S S S S S S    S S S S S S S S S S S S S S S S
----------------5-9-5-------------|----------------2-5-2-------------|
--------------7-------7-----------|--------------2-------2-----------|
--7-6-7-6---6-----------6---7-----|--4-2-4-2---4-----------4---4-2---|
----------7---------------9---9-7-|----------4---------------4-----4-|
----------------------------------|----------------------------------|
----------------------------------|----------------------------------|


  S S S S S S S S S S S S S S S S    S S S S S S S S  S S S S S S S S
----------------4-7-4-------------|----------------5-10-5-------------|
--------------5-------5-----------|--------------7--------7-----------|
--4-2-4-2---4-----------4---------|--7-6-7-6---7------------7---7-6---|
----------4---------------4-7-4-0-|----------7----------------7-----7-|
----------------------------------|-----------------------------------|
----------------------------------|-----------------------------------|


  S S S S S S S S S S S S S S S S    S S S S S S S S S S S S S S S S
----------------5-9-5-------------|--------------------------------2-|
--------------7-------7-----------|------------------------------3---|
--7-6-7-6---6-----------6---7-----|--4-2---2-4-2---2-6-2---2-6-2-----|
----------7---------------9---9-7-|------4-------4-------4-----------|
----------------------------------|----------------------------------|
----------------------------------|----------------------------------|


  S S S S S S S S S S S S S S S S    E  E  E  E  E  E  E  E
--5-2-----------------------4-7-4-|--------------------------|
------3-------------------5-------|--------------------------|
--------2---2-4-2---2-4-2---------|--------------------------|
----------4-------4---------------|--0--0--0--0--0--0--0--0--|
----------------------------------|--0--0--0--0--0--0--0--0--|
----------------------------------|--0--0--0--0--0--0--0--0--|


  E  E  E  E  E  E  E  E     E  E  E  E  E  E  E  E
--------------------------|--------------------------|
--------------------------|--------------------------|
--------------------------|--------------------------|
--0--0--0--0--0--0--0--0--|--4--4--4--4--4--4--4--4--|
--0--0--0--0--0--0--0--0--|--4--4--4--4--4--4--4--4--|
--0--0--0--0--0--0--0--0--|--4--4--4--4--4--4--4--4--|


  E  E  E  E  E  E  E  E     E  E  E  E  E  E  E  E
--------------------------|--------------------------|
--------------------------|--------------------------|
--------------------------|--------------------------|
--4--4--4--4--4--4--4--4--|--0--0--0--0--0--0--0--0--|
--4--4--4--4--4--4--4--4--|--0--0--0--0--0--0--0--0--|
--4--4--4--4--4--4--4--4--|--0--0--0--0--0--0--0--0--|


  E  E  E  E  E  E  E  E     E  E  E  E  E  E  E  E
--------------------------|--------------------------|
--------------------------|--------------------------|
--------------------------|--------------------------|
--0--0--0--0--0--0--0--0--|--4--4--4--4--4--4--4--4--|
--0--0--0--0--0--0--0--0--|--4--4--4--4--4--4--4--4--|
--0--0--0--0--0--0--0--0--|--4--4--4--4--4--4--4--4--|


  E  E  E  E  E  E  E  E     E  E  E  E  E  E  E  E
--------------------------|--------------------------|
--------------------------|--7--7--7--7--7--7--7--7--|
--------------------------|--x--x--x--x--x--x--x--x--|
--7--7--7--7--7--7--7--7--|--4--4--4--4--4--4--4--4--|
--7--7--7--7--7--7--7--7--|--------------------------|
--7--7--7--7--7--7--7--7--|--------------------------|


  E  E  E  E  E  E  E  E     E  E  E  E  E  E  E  E
--------------------------|--------------------------|
--7--7--7--7--7--7--7--7--|--9--9--9--9--9--9--9--9--|
--x--x--x--x--x--x--x--x--|--x--x--x--x--x--x--x--x--|
--4--4--4--4--4--4--4--4--|--6--6--6--6--6--6--6--6--|
--------------------------|--------------------------|
--------------------------|--------------------------|


  E  E  E  E  E  E  E  E      E   E   E   E   E   E   E   E
--------------------------|----------------------------------|
--9--9--9--9--9--9--9--9--|--10--10--10--10--10--10--10--10--|
--x--x--x--x--x--x--x--x--|---x---x---x---x---x---x---x---x--|
--6--6--6--6--6--6--6--6--|---7---7---7---7---7---7---7---7--|
--------------------------|----------------------------------|
--------------------------|----------------------------------|


   E   E   E   E   E   E   E   E     E  E  E  E  E  E  E  E
----------------------------------|--------------------------|
--10--10--10--10--10--10--10--10--|--9--9--9--9--9--9--9--9--|
---x---x---x---x---x---x---x---x--|--x--x--x--x--x--x--x--x--|
---7---7---7---7---7---7---7---7--|--6--6--6--6--6--6--6--6--|
----------------------------------|--------------------------|
----------------------------------|--------------------------|


  E  E  E  E  E  E  E  E     E  E  E  E  E  E  E  E
--------------------------|--------------------------|
--9--9--9--9--9--9--9--9--|--7--7--7--7--7--7--7--7--|
--x--x--x--x--x--x--x--x--|--x--x--x--x--x--x--x--x--|
--6--6--6--6--6--6--6--6--|--4--4--4--4--4--4--4--4--|
--------------------------|--------------------------|
--------------------------|--------------------------|


  E  E  E  E  E  E  E  E     E  E  E  E  E  E  E  E
--------------------------|--------------------------|
--7--7--7--7--7--7--7--7--|--9--9--9--9--9--9--9--9--|
--x--x--x--x--x--x--x--x--|--x--x--x--x--x--x--x--x--|
--4--4--4--4--4--4--4--4--|--6--6--6--6--6--6--6--6--|
--------------------------|--------------------------|
--------------------------|--------------------------|


  E  E  E  E  E  E  E  E      E   E   E   E   E   E   E   E
--------------------------|----------------------------------|
--9--9--9--9--9--9--9--9--|--14--14--14--14--14--14--14--14--|
--x--x--x--x--x--x--x--x--|---x---x---x---x---x---x---x---x--|
--6--6--6--6--6--6--6--6--|--11--11--11--11--11--11--11--11--|
--------------------------|----------------------------------|
--------------------------|----------------------------------|


   E   E   E   E   E   E   E   E      E   E   E   E   E   E   E   E
----------------------------------|----------------------------------|
--12--12--12--12--12--12--12--12--|--10--10--10--10--10--10--10--10--|
---x---x---x---x---x---x---x---x--|---x---x---x---x---x---x---x---x--|
---9---9---9---9---9---9---9---9--|---7---7---7---7---7---7---7---7--|
----------------------------------|----------------------------------|
----------------------------------|----------------------------------|


  E  E  E  E  E  E  E  E     W                   W
--------------------------|-------------------|-------------------|
--9--9--9--9--9--9--9--9--|--7----------------|--L----------------|
--x--x--x--x--x--x--x--x--|--x----------------|-------------------|
--6--6--6--6--6--6--6--6--|--4----------------|--L----------------|
--------------------------|-------------------|-------------------|
--------------------------|-------------------|-------------------|


  W                   W
-------------------|-------------------|-------------------|-------------------|
--L----------------|--L----------------|-------------------|-------------------|
-------------------|-------------------|-------------------|-------------------|
--L----------------|--L----------------|-------------------|-------------------|
-------------------|-------------------|-------------------|-------------------|
-------------------|-------------------|-------------------|-------------------|


  S S S S S S S S S S S S S S S S    S S S S S S S S S S S S S S S S
----------------------------------|----------------------------------|
----------------------------------|----------------------------------|
----------------------------------|----------------------------------|
--2-2-2-2-2-2-2-2-2-2-2-2-2-2-2-2-|--2-2-2-2-2-2-2-2-2-2-2-2-2-2-2-2-|
--2-2-2-2-2-2-2-2-2-2-2-2-2-2-2-2-|--2-2-2-2-2-2-2-2-2-2-2-2-2-2-2-2-|
--2-2-2-2-2-2-2-2-2-2-2-2-2-2-2-2-|--2-2-2-2-2-2-2-2-2-2-2-2-2-2-2-2-|


  E  E  E  E  E  E  E  E          S S S S S S S S S S S S S S S S
--------------------------|----|----------------2-5-2-------------|
--------------------------|----|--------------2-------2-----------|
--------------------------|----|------------4-----------4---4-2---|
--2-----------------------|----|----------4---------------4-----4-|
--2-----------------------|----|----------------------------------|
--2-----------------------|----|----------------------------------|


  S S S S S S S S S S S S S S S S    S S S S S S S S S S S S S S S S
----------------4-7-4-------------|----------------4-7-4-------------|
--------------5-------5-----------|--------------5-------5-----------|
--4-2-4-2---4-----------4---------|--4-2-4-2---4-----------4---------|
----------4---------------4-7-4-0-|----------4---------------4-7-4-0-|
----------------------------------|----------------------------------|
----------------------------------|----------------------------------|


  S S S S S S S S  S S S S S S S S    S S S S S S S S S S S S S S S S
----------------5-10-5-------------|----------------5-9-5-------------|
--------------7--------7-----------|--------------7-------7-----------|
--7-6-7-6---7------------7---7-6---|--7-6-7-6---6-----------6---7-----|
----------7----------------7-----7-|----------7---------------9---9-7-|
-----------------------------------|----------------------------------|
-----------------------------------|----------------------------------|


  S S S S S S S S S S S S S S S S    S S S S S S S S S S S S S S S S
--------------------------------2-|--5-2-----------------------4-7-4-|
------------------------------3---|------3-------------------5-------|
--4-2---2-4-2---2-6-2---2-6-2-----|--------2---2-4-2---2-4-2---------|
------4-------4-------4-----------|----------4-------4---------------|
----------------------------------|----------------------------------|
----------------------------------|----------------------------------|


   E   E   E   E   E   E   E   E      E   E   E   E   E   E   E   E
----------------------------------|----------------------------------|
----------------------------------|------------------17------17------|
--14------14------14------14------|--14------14----------------------|
----------------------------------|----------------------------------|
------12------12------12------12--|------12------12------12------12--|
----------------------------------|----------------------------------|


  E  E  E  E  E  E  E  E     E  E  E  E  E  E  E  E
--------------------------|--------------------------|
--------------------------|--------------------------|
--------------------------|--------------------------|
--4--4--4--4--4--4--4--4--|--4--4--4--4--4--4--4--4--|
--4--4--4--4--4--4--4--4--|--4--4--4--4--4--4--4--4--|
--4--4--4--4--4--4--4--4--|--4--4--4--4--4--4--4--4--|


  E  E  E  E  E  E  E  E     E  E  E  E  E  E  E  E
--------------------------|--------------------------|
--------------------------|--------------------------|
--------------------------|--------------------------|
--0--0--0--0--0--0--0--0--|--0--0--0--0--0--0--0--0--|
--0--0--0--0--0--0--0--0--|--0--0--0--0--0--0--0--0--|
--0--0--0--0--0--0--0--0--|--0--0--0--0--0--0--0--0--|


  E  E  E  E  E  E  E  E     E  E  E  E  E  E  E  E
--------------------------|--------------------------|
--------------------------|--------------------------|
--------------------------|--------------------------|
--4--4--4--4--4--4--4--4--|--7--7--7--7--7--7--7--7--|
--4--4--4--4--4--4--4--4--|--7--7--7--7--7--7--7--7--|
--4--4--4--4--4--4--4--4--|--7--7--7--7--7--7--7--7--|


  E  E  E  E  E  E  E  E     E  E  E  E  E  E  E  E
--------------------------|--------------------------|
--7--7--7--7--7--7--7--7--|--7--7--7--7--7--7--7--7--|
--x--x--x--x--x--x--x--x--|--x--x--x--x--x--x--x--x--|
--4--4--4--4--4--4--4--4--|--4--4--4--4--4--4--4--4--|
--------------------------|--------------------------|
--------------------------|--------------------------|


   E   E   E   E   E   E   E   E     E  E  E  E  E  E  E  E
----------------------------------|--------------------------|
--10--10--10--10--10--10--10--10--|--9--9--9--9--9--9--9--9--|
---x---x---x---x---x---x---x---x--|--x--x--x--x--x--x--x--x--|
---7---7---7---7---7---7---7---7--|--6--6--6--6--6--6--6--6--|
----------------------------------|--------------------------|
----------------------------------|--------------------------|


  E  E  E  E  E  E  E  E     E  E  E  E  E  E  E  E
--------------------------|--------------------------|
--7--7--7--7--7--7--7--7--|--7--7--7--7--7--7--7--7--|
--x--x--x--x--x--x--x--x--|--x--x--x--x--x--x--x--x--|
--4--4--4--4--4--4--4--4--|--4--4--4--4--4--4--4--4--|
--------------------------|--------------------------|
--------------------------|--------------------------|


   E   E  E  E  E  E  E  E     E  E  E  E  E  E  E  E
----------------------------|--------------------------|-----|-----|-----||
--10--10--------------------|--9--9--------------------|-----|-----|-----||
---x---x--------------------|--x--x--------------------|-----|-----|-----||
---7---7--------------------|--6--6--------------------|-----|-----|-----||
----------------------------|--------------------------|-----|-----|-----||
----------------------------|--------------------------|-----|-----|-----||


Guitar 3

Starts at (02:50)

                                          Q    E  Q    E  E  E
-------|-------|-------|-------|-------|--2----2--2----2--2--2--|
-------|-------|-------|-------|-------|--3----3--3----3--3--3--|
-------|-------|-------|-------|-------|--2----2--2----2--2--2--|
-------|-------|-------|-------|-------|--0----0--0----0--0--0--|
-------|-------|-------|-------|-------|------------------------|
-------|-------|-------|-------|-------|------------------------|


  Q    E  Q    E  E  E     Q    E  Q    E  E  E     Q    E  Q    E  E  E
--2----2--2----2--2--2--|--4----4--4----4--4--4--|--4----4--4----4--4--4--|
--3----3--3----3--3--3--|--5----5--5----5--5--5--|--5----5--5----5--5--5--|
--2----2--2----2--2--2--|--7----7--7----7--7--7--|--7----7--7----7--7--7--|
--0----0--0----0--0--0--|--0----0--0----0--0--0--|--0----0--0----0--0--0--|
------------------------|------------------------|------------------------|
------------------------|------------------------|------------------------|


  Q    E  Q    E  E  E     Q    E  Q    E  E  E     E  E  E  E  E  E  E  E
--5----5--5----5--5--5--|--5----5--5----5--5--5--|--0--0--0--0--0--0--0--0--|
--5----5--5----5--5--5--|--5----5--5----5--5--5--|--0--0--0--0--0--0--0--0--|
--7----7--7----7--7--7--|--7----7--7----7--7--7--|--0--0--0--0--0--0--0--0--|
--7----7--7----7--7--7--|--7----7--7----7--7--7--|--2--2--2--2--2--2--2--2--|
------------------------|------------------------|--2--2--2--2--2--2--2--2--|
------------------------|------------------------|--0--0--0--0--0--0--0--0--|


  E  E  E  E  E  E  E  E     E  E  E  E  E  E  E  E
--0--0--0--0--0--0--0--0--|--0-----------------------|-----|-------|-------|
--0--0--0--0--0--0--0--0--|--0-----------------------|-----|-------|-------|
--0--0--0--0--0--0--0--0--|--0-----------------------|-----|-------|-------|
--2--2--2--2--2--2--2--2--|--2-----------------------|-----|-------|-------|
--2--2--2--2--2--2--2--2--|--2-----------------------|-----|-------|-------|
--0--0--0--0--0--0--0--0--|--0-----------------------|-----|-------|-------|


============================================================================
============================================================================


----------------------------------------------------------------------------
                     Nothing You Didn’t Deserve
                             Heartist
----------------------------------------------------------------------------


Guitar 1 Rhythmic (C G C F A D)
Guitar 2 Lead     (C G C F A D)

NOTE: This was exported off of guitar pro.


Guitar 1

      E    E    E    E    E    E    E    E
D||------------------------------------------|
A||--10---10---10---10---10---10---10---10---|
F||--13b--13b--13b--13b--13b--13b--13b--13b--|
C||------------------------------------------|
G||------------------------------------------|
C||------------------------------------------|


   E    E    E    E   E   E    E    E
----------------------------------------|
--10---10---10---10--10--10---10---10---|
--13b--13b--13b--13--13--13b--13b--13b--|
----------------------------------------|
----------------------------------------|
----------------------------------------|


   E    E    E    E    E    E    E    E
------------------------------------------|
--10---10---10---10---10---10---10---10---|
--13b--13b--13b--13b--13b--13b--13b--13b--|
------------------------------------------|
------------------------------------------|
------------------------------------------|


   E    E    E    E   E   E    E    E
----------------------------------------|
--10---10---10---10--10--10---10---10---|
--13b--13b--13b--13--13--13b--13b--13b--|
----------------------------------------|
----------------------------------------|
----------------------------------------|


   E    E    E    E    E    E    E    E
------------------------------------------|
--10---10---10---10---10---10---10---10---|
--13b--13b--13b--13b--13b--13b--13b--13b--|
------------------------------------------|
------------------------------------------|
------------------------------------------|


   E    E    E    E   E   E    E    E
----------------------------------------|
--10---10---10---10--10--10---10---10---|
--13b--13b--13b--13--13--13b--13b--13b--|
----------------------------------------|
----------------------------------------|
----------------------------------------|


   E    E    E    E    E    E    E    E
------------------------------------------|
--10---10---10---10---10---10---10---10---|
--13b--13b--13b--13b--13b--13b--13b--13b--|
------------------------------------------|
------------------------------------------|
------------------------------------------|


   E    E    E    E   E   E    E    E
----------------------------------------|
--10---10---10---10--10--10---10---10---|
--13b--13b--13b--13--13--13b--13b--13b--|
----------------------------------------|
----------------------------------------|
----------------------------------------|


   E    E    E    E    E    E    E    E
------------------------------------------|
--10---10---10---10---10---10---10---10---|
--13b--13b--13b--13b--13b--13b--13b--13b--|
------------------------------------------|
------------------------------------------|
------------------------------------------|


   E    E    E    E   E   E    E    E
----------------------------------------|
--10---10---10---10--10--10---10---10---|
--13b--13b--13b--13--13--13b--13b--13b--|
----------------------------------------|
----------------------------------------|
----------------------------------------|


   E    E    E    E    E    E    E    E
------------------------------------------|
--10---10---10---10---10---10---10---10---|
--13b--13b--13b--13b--13b--13b--13b--13b--|
------------------------------------------|
------------------------------------------|
------------------------------------------|


   E    E    E    E   E   E    E    E
----------------------------------------|
--10---10---10---10--10--10---10---10---|
--13b--13b--13b--13--13--13b--13b--13b--|
----------------------------------------|
----------------------------------------|
----------------------------------------|


   E    E    E    E    E    E    E    E
------------------------------------------|
--10---10---10---10---10---10---10---10---|
--13b--13b--13b--13b--13b--13b--13b--13b--|
------------------------------------------|
------------------------------------------|
------------------------------------------|


   E    E    E    E   E   E    E    E
----------------------------------------|-----|-----|
--10---10---10---10--10--10---10---10---|-----|-----|
--13b--13b--13b--13--13--13b--13b--13b--|-----|-----|
----------------------------------------|-----|-----|
----------------------------------------|-----|-----|
----------------------------------------|-----|-----|


  PM PM PM PM   PM PM   PM   PM PM PM PM
  S  S  S  S  S S  S  S S  S S  S  E  E
-----------------------------------------|
-----------------------------------------|
-----------------------------------------|
--0--0--0--0----0--0----0----0--0--0--0--|
--0--0--0--0----0--0----0----0--0--0--0--|
--0--0--0--0----0--0----0----0--0--0--0--|


     PM PM   PM PM   PM   PM PM PM PM
  E  S  S  S S  S  S S  S S  S  E  E
--------------------------------------|
--------------------------------------|
--------------------------------------|
-----0--0----0--0----0----0--0--0--0--|
-----0--0----0--0----0----0--0--0--0--|
-----0--0----0--0----0----0--0--0--0--|


  PM PM PM PM   PM PM   PM   PM PM PM PM       PM PM   PM PM
  S  S  S  S  S S  S  S S  S S  S  E  E     E  S  S  S S  S  S S S E    Q
-----------------------------------------|------------------------------------|
-----------------------------------------|------------------------------------|
-----------------------------------------|------------------------------------|
--0--0--0--0----0--0----0----0--0--0--0--|-----0--0----0--0-------------------|
--0--0--0--0----0--0----0----0--0--0--0--|-----0--0----0--0-------------------|
--0--0--0--0----0--0----0----0--0--0--0--|-----0--0----0--0----7-7-0--<>3b----|


  PM PM PM PM   PM PM   PM   PM PM PM PM
  S  S  S  S  S S  S  S S  S S  S  E  E
-----------------------------------------|
-----------------------------------------|
-----------------------------------------|
--0--0--0--0----0--0----0----0--0--0--0--|
--0--0--0--0----0--0----0----0--0--0--0--|
--0--0--0--0----0--0----0----0--0--0--0--|


     PM PM   PM PM   PM   PM PM PM PM
  E  S  S  S S  S  S S  S S  S  E  E
--------------------------------------|
--------------------------------------|
--------------------------------------|
-----0--0----0--0----0----0--0--0--0--|
-----0--0----0--0----0----0--0--0--0--|
-----0--0----0--0----0----0--0--0--0--|


  PM PM PM PM   PM PM   PM   PM PM PM PM       PM PM   PM PM            PH
  S  S  S  S  S S  S  S S  S S  S  E  E     E  S  S  S S  S  S S S E    Q
-----------------------------------------|------------------------------------|
-----------------------------------------|------------------------------------|
-----------------------------------------|------------------------------------|
--0--0--0--0----0--0----0----0--0--0--0--|-----0--0----0--0-------------------|
--0--0--0--0----0--0----0----0--0--0--0--|-----0--0----0--0-----------<>8b----|
--0--0--0--0----0--0----0----0--0--0--0--|-----0--0----0--0----7-7-0----------|


          PM PM PM PM PM                      PM PM PM PM
          S  S  S  S  E  E  E  E  E  E     E  S  S  E  E  E  S E  S E
-------|--------------------------------|------------------------------|
-------|--------------------------------|------------------------------|
-------|--------------------------------|------------------------------|
-------|--0--0--0--0--0-----------------|-----0--0--0--0--3--L-6--L-1--|
-------|--0--0--0--0--0-----------------|-----0--0--0--0--3--L-6--L-1--|
-------|--0--0--0--0--0-----------------|-----0--0--0--0--3--L-6--L-1--|


     PM PM PM                      PM PM PM PM
  E  S  S  E  E  E  E  E  E     E  S  S  E  E  E  S E  S E
-----------------------------|------------------------------|
-----------------------------|------------------------------|
-----------------------------|------------------------------|
--L--0--0--0-----------------|-----0--0--0--0--1--L-1--L-1--|
--L--0--0--0-----------------|-----0--0--0--0--1--L-1--L-1--|
--L--0--0--0-----------------|-----0--0--0--0--1--L-1--L-1--|


  PM PM PM PM PM                      PM PM PM PM
  S  S  S  S  E  E  E  E  E  E     E  S  S  E  E  E  S E  S E
--------------------------------|------------------------------|
--------------------------------|------------------------------|
--------------------------------|------------------------------|
--0--0--0--0--0-----------------|-----0--0--0--0--3--L-6--L-1--|
--0--0--0--0--0-----------------|-----0--0--0--0--3--L-6--L-1--|
--0--0--0--0--0-----------------|-----0--0--0--0--3--L-6--L-1--|


     PM PM PM                      PM PM PM PM
  E  S  S  E  E  E  E  E  E     E  S  S  E  E  Q    Q       W
-----------------------------|---------------------------|-------------------|
-----------------------------|---------------------------|-------------------|
-----------------------------|---------------------------|-------------------|
--L--0--0--0-----------------|-----0--0--0--0--0----1----|--0----------------|
--L--0--0--0-----------------|-----0--0--0--0--0----1----|--0----------------|
--L--0--0--0-----------------|-----0--0--0--0--0----1----|--0----------------|


  W                   H        H           Q    Q    Q    Q
-------------------|--------------------|----------------------|
-------------------|--------------------|----------------------|
-------------------|--------------------|----------------------|
--0----------------|--0--------0--------|--0----0----0----0----|
--0----------------|--0--------0--------|--0----0----0----0----|
--0----------------|--0--------0--------|--0----0----0----0----|


  E  E  E  E  E  E  E  E     E  E  E  E  E  E  E  E
--------------------------|--------------------------|
--------------------------|--------------------------|
--------------------------|--3--3--3--3--3--3--3--3--|
--5--5--5--5--5--5--5--5--|--3--3--3--3--3--3--3--3--|
--5--5--5--5--5--5--5--5--|--1--1--1--1--1--1--1--1--|
--5--5--5--5--5--5--5--5--|--------------------------|


  E  E  E  E  E  E  E  E     E  E  E  E  E  E  E  E
--------------------------|--------------------------|
--------------------------|--------------------------|
--------------------------|--------------------------|
--1--1--1--1--1--1--1--1--|--1--1--1--1--1--1--1--1--|
--1--1--1--1--1--1--1--1--|--1--1--1--1--1--1--1--1--|
--1--1--1--1--1--1--1--1--|--1--1--1--1--1--1--1--1--|


  E  E  E  E  E  E  E  E     E  E  E  E  E  E  E  E
--------------------------|--------------------------|
--------------------------|--------------------------|
--------------------------|--3--3--3--3--3--3--3--3--|
--5--5--5--5--5--5--5--5--|--3--3--3--3--3--3--3--3--|
--5--5--5--5--5--5--5--5--|--1--1--1--1--1--1--1--1--|
--5--5--5--5--5--5--5--5--|--------------------------|


  E  E  E  E  E  E  E  E     E  E  E  E  E  E  E  E
--------------------------|--------------------------|
--------------------------|--------------------------|
--------------------------|--------------------------|
--1--1--1--1--1--1--1--1--|--1--1--1--1--1--1--1--1--|
--1--1--1--1--1--1--1--1--|--1--1--1--1--1--1--1--1--|
--1--1--1--1--1--1--1--1--|--1--1--1--1--1--1--1--1--|


  E  E  E  E  E  E  E  E     E  E  E  E  E  E  E  E
--------------------------|--------------------------|
--------------------------|--------------------------|
--8--8--8--8--8--8--8--8--|--7--7--7--7--5--5--5--5--|
--x--x--x--x--x--x--x--x--|--x--x--x--x--x--x--x--x--|
--6--6--6--6--6--6--6--6--|--5--5--5--5--3--3--3--3--|
--------------------------|--------------------------|


  E  E  E  E  E  E  E  E     E  E  E  E  E  E  E  E
--------------------------|--------------------------|
--------------------------|--------------------------|
--8--8--8--8--8--8--8--8--|--7--7--------5--5--------|
--x--x--x--x--x--x--x--x--|--x--x--------x--x--------|
--6--6--6--6--6--6--6--6--|--5--5--------3--3--------|
--------------------------|--------------------------|


   E   E   E   E   E   E   E   E      E   E   E   E   E   E   E   E
--22--22--22--22--22--22--22--22--|--20--20--20--20--20--20--20--20--|
----------------------------------|----------------------------------|
----------------------------------|----------------------------------|
----------------------------------|----------------------------------|
----------------------------------|----------------------------------|
----------------------------------|----------------------------------|


   W                   W
--17----------------|--L----------------|
--------------------|-------------------|
--------------------|-------------------|
--------------------|-------------------|
--------------------|-------------------|
--------------------|-------------------|


  PM PM PM PM   PM PM   PM   PM PM PM PM       PM PM   PM PM            PH
  S  S  S  S  S S  S  S S  S S  S  E  E     E  S  S  S S  S  S S S E    Q
-----------------------------------------|------------------------------------|
-----------------------------------------|------------------------------------|
-----------------------------------------|------------------------------------|
--0--0--0--0----0--0----0----0--0--0--0--|-----0--0----0--0-------------------|
--0--0--0--0----0--0----0----0--0--0--0--|-----0--0----0--0-----------<>8b----|
--0--0--0--0----0--0----0----0--0--0--0--|-----0--0----0--0----7-7-0----------|


  PM PM PM PM PM                      PM PM PM PM
  S  S  S  S  E  E  E  E  E  E     E  S  S  E  E  E  S E  S E
--------------------------------|------------------------------|
--------------------------------|------------------------------|
--------------------------------|------------------------------|
--0--0--0--0--0-----------------|-----0--0--0--0--3--L-6--L-1--|
--0--0--0--0--0-----------------|-----0--0--0--0--3--L-6--L-1--|
--0--0--0--0--0-----------------|-----0--0--0--0--3--L-6--L-1--|


     PM PM PM                      PM PM PM PM
  E  S  S  E  E  E  E  E  E     E  S  S  E  E  E  S E  S E
-----------------------------|------------------------------|
-----------------------------|------------------------------|
-----------------------------|------------------------------|
--L--0--0--0-----------------|-----0--0--0--0--1--L-1--L-1--|
--L--0--0--0-----------------|-----0--0--0--0--1--L-1--L-1--|
--L--0--0--0-----------------|-----0--0--0--0--1--L-1--L-1--|


  PM PM PM PM PM                      PM PM PM PM
  S  S  S  S  E  E  E  E  E  E     E  S  S  E  E  E  S E  S E
--------------------------------|------------------------------|
--------------------------------|------------------------------|
--------------------------------|------------------------------|
--0--0--0--0--0-----------------|-----0--0--0--0--3--L-6--L-1--|
--0--0--0--0--0-----------------|-----0--0--0--0--3--L-6--L-1--|
--0--0--0--0--0-----------------|-----0--0--0--0--3--L-6--L-1--|


     PM PM PM                      PM PM PM PM
  E  S  S  E  E  E  E  E  E     E  S  S  E  E  Q    Q
-----------------------------|---------------------------|
-----------------------------|---------------------------|
-----------------------------|---------------------------|
--L--0--0--0-----------------|-----0--0--0--0--0----1----|
--L--0--0--0-----------------|-----0--0--0--0--0----1----|
--L--0--0--0-----------------|-----0--0--0--0--0----1----|


  PM PM PM PM PM                      PM PM PM PM
  S  S  S  S  E  E  E  E  E  E     E  S  S  E  E  E  S E  S E
--------------------------------|------------------------------|
--------------------------------|------------------------------|
--------------------------------|------------------------------|
--0--0--0--0--0-----------------|-----0--0--0--0--3--L-6--L-1--|
--0--0--0--0--0-----------------|-----0--0--0--0--3--L-6--L-1--|
--0--0--0--0--0-----------------|-----0--0--0--0--3--L-6--L-1--|


     PM PM PM                      PM PM PM PM
  E  S  S  E  E  E  E  E  E     E  S  S  E  E  E  S E  S E
-----------------------------|------------------------------|
-----------------------------|------------------------------|
-----------------------------|------------------------------|
--L--0--0--0-----------------|-----0--0--0--0--1--L-1--L-1--|
--L--0--0--0-----------------|-----0--0--0--0--1--L-1--L-1--|
--L--0--0--0-----------------|-----0--0--0--0--1--L-1--L-1--|


  PM PM PM PM PM                      PM PM PM PM
  S  S  S  S  E  E  E  E  E  E     E  S  S  E  E  E  S E  S E
--------------------------------|------------------------------|
--------------------------------|------------------------------|
--------------------------------|------------------------------|
--0--0--0--0--0-----------------|-----0--0--0--0--3--L-6--L-1--|
--0--0--0--0--0-----------------|-----0--0--0--0--3--L-6--L-1--|
--0--0--0--0--0-----------------|-----0--0--0--0--3--L-6--L-1--|


     PM PM PM                      PM PM PM PM
  E  S  S  E  E  E  E  E  E     E  S  S  E  E  Q    Q       W
-----------------------------|---------------------------|-------------------|
-----------------------------|---------------------------|-------------------|
-----------------------------|---------------------------|-------------------|
--L--0--0--0-----------------|-----0--0--0--0--0----1----|--0----------------|
--L--0--0--0-----------------|-----0--0--0--0--0----1----|--0----------------|
--L--0--0--0-----------------|-----0--0--0--0--0----1----|--0----------------|


  W                   H        H           Q    Q    Q    Q
-------------------|--------------------|----------------------|
-------------------|--------------------|----------------------|
-------------------|--------------------|----------------------|
--0----------------|--0--------0--------|--0----0----0----0----|
--0----------------|--0--------0--------|--0----0----0----0----|
--0----------------|--0--------0--------|--0----0----0----0----|


  E  E  E  E  E  E  E  E     E  E  E  E  E  E  E  E
--------------------------|--------------------------|
--------------------------|--------------------------|
--------------------------|--3--3--3--3--3--3--3--3--|
--5--5--5--5--5--5--5--5--|--3--3--3--3--3--3--3--3--|
--5--5--5--5--5--5--5--5--|--1--1--1--1--1--1--1--1--|
--5--5--5--5--5--5--5--5--|--------------------------|


  E  E  E  E  E  E  E  E     E  E  E  E  E  E  E  E
--------------------------|--------------------------|
--------------------------|--------------------------|
--------------------------|--------------------------|
--1--1--1--1--1--1--1--1--|--1--1--1--1--1--1--1--1--|
--1--1--1--1--1--1--1--1--|--1--1--1--1--1--1--1--1--|
--1--1--1--1--1--1--1--1--|--1--1--1--1--1--1--1--1--|


  E  E  E  E  E  E  E  E     E  E  E  E  E  E  E  E
--------------------------|--------------------------|
--------------------------|--------------------------|
--------------------------|--3--3--3--3--3--3--3--3--|
--5--5--5--5--5--5--5--5--|--3--3--3--3--3--3--3--3--|
--5--5--5--5--5--5--5--5--|--1--1--1--1--1--1--1--1--|
--5--5--5--5--5--5--5--5--|--------------------------|


  E  E  E  E  E  E  E  E     E  E  E  E  E  E  E  E
--------------------------|--------------------------|
--------------------------|--------------------------|
--------------------------|--------------------------|
--1--1--1--1--1--1--1--1--|--1--1--1--1--1--1--1--1--|
--1--1--1--1--1--1--1--1--|--1--1--1--1--1--1--1--1--|
--1--1--1--1--1--1--1--1--|--1--1--1--1--1--1--1--1--|


  E  E  E  E  E  E  E  E     E  E  E  E  E  E  E  E
--------------------------|--------------------------|
--------------------------|--------------------------|
--------------------------|--3--3--3--3--3--3--3--3--|
--5--5--5--5--5--5--5--5--|--3--3--3--3--3--3--3--3--|
--5--5--5--5--5--5--5--5--|--1--1--1--1--1--1--1--1--|
--5--5--5--5--5--5--5--5--|--------------------------|


  E  E  E  E  E  E  E  E     E  E  E  E  E  E  E  E
--------------------------|--------------------------|
--------------------------|--------------------------|
--------------------------|--------------------------|
--1--1--1--1--1--1--1--1--|--1--1--1--1--1--1--1--1--|
--1--1--1--1--1--1--1--1--|--1--1--1--1--1--1--1--1--|
--1--1--1--1--1--1--1--1--|--1--1--1--1--1--1--1--1--|


  E  E  E  E  E  E  E  E     E  E  E  E  E  E  E  E
--------------------------|--------------------------|
--------------------------|--------------------------|
--------------------------|--3--3--3--3--3--3--3--3--|
--5--5--5--5--5--5--5--5--|--3--3--3--3--3--3--3--3--|
--5--5--5--5--5--5--5--5--|--1--1--1--1--1--1--1--1--|
--5--5--5--5--5--5--5--5--|--------------------------|


  E  E  E  E  E  E  E  E     E  E  E  E  E  E  E  E
--------------------------|--------------------------|
--------------------------|--------------------------|
--------------------------|--------------------------|
--1--1--1--1--1--1--1--1--|--1--1--1--1--1--1--1--1--|
--1--1--1--1--1--1--1--1--|--1--1--1--1--1--1--1--1--|
--1--1--1--1--1--1--1--1--|--1--1--1--1--1--1--1--1--|


  E  E  E  E  E  E  E  E     E  E  E  E  E  E  E  E
--------------------------|--------------------------|
--------------------------|--------------------------|
--8--8--8--8--8--8--8--8--|--7--7--7--7--5--5--5--5--|
--x--x--x--x--x--x--x--x--|--x--x--x--x--x--x--x--x--|
--6--6--6--6--6--6--6--6--|--5--5--5--5--3--3--3--3--|
--------------------------|--------------------------|


  E  E  E  E  E  E  E  E     E  E  E  E  E  E  E  E     W
--------------------------|--------------------------|-------------------|
--------------------------|--------------------------|-------------------|
--8--8--8--8--8--8--8--8--|--7--7--------5--5--------|-------------------|
--x--x--x--x--x--x--x--x--|--x--x--------x--x--------|--1----------------|
--6--6--6--6--6--6--6--6--|--5--5--------3--3--------|--1----------------|
--------------------------|--------------------------|--1----------------|


  W                   W                   W                   W
-------------------|-------------------|-------------------|-------------------|
-------------------|-------------------|-------------------|-------------------|
-------------------|-------------------|-------------------|-------------------|
--L----------------|--1----------------|--L----------------|--0----------------|
--L----------------|--1----------------|--L----------------|--0----------------|
--L----------------|--1----------------|--L----------------|--0----------------|


  W                   W                   W
-------------------|-------------------|-------------------|
-------------------|-------------------|-------------------|
-------------------|-------------------|-------------------|
--L----------------|--0----------------|--L----------------|
--L----------------|--0----------------|--L----------------|
--L----------------|--0----------------|--L----------------|


  E  E  E  E  E  E  E  E     W
--------------------------|-------------------|
--------------------------|-------------------|
--------------------------|-------------------|
--1-----------------------|-------------------|
--1-----------------------|-------------------|
--1-----------------------|-------------------|


  PM    PM    PM PM PM   PM PM PM PM
  E  E  E  E  S  S  S  S S  S  S  S
-------------------------------------|
-------------------------------------|
-------------------------------------|
--0-----0-----0--0--0----0--0--0--0--|
--0-----0-----0--0--0----0--0--0--0--|
--0-----0-----0--0--0----0--0--0--0--|


    PM PM PM PM    PM PM PM   PM PM PM PM
  S S  S  S  E  E  S  S  S  S S  S  S  S
------------------------------------------|
------------------------------------------|
------------------------------------------|
----0--0--0--0-----0--0--0----0--0--0--0--|
----0--0--0--0-----0--0--0----0--0--0--0--|
----0--0--0--0-----0--0--0----0--0--0--0--|


  PM    PM    PM PM PM   PM PM PM PM
  E  E  E  E  S  S  S  S S  S  S  S
-------------------------------------|
-------------------------------------|
-------------------------------------|
--0-----0-----0--0--0----0--0--0--0--|
--0-----0-----0--0--0----0--0--0--0--|
--0-----0-----0--0--0----0--0--0--0--|


    PM PM PM PM    PM PM PM   PM PM PM PM    PM    PM    PM PM PM PM PM
  S S  S  S  E  E  S  S  S  S S  S  S  S     E  E  E  E  S  S  S  S  Q
------------------------------------------|-------------------------------|
------------------------------------------|-------------------------------|
------------------------------------------|-------------------------------|
----0--0--0--0-----0--0--0----0--0--0--0--|--0--L--0--L--0--0--0--0--0----|
----0--0--0--0-----0--0--0----0--0--0--0--|--0--L--0--L--0--0--0--0--0----|
----0--0--0--0-----0--0--0----0--0--0--0--|--0--L--0--L--0--0--0--0--0----|


     PM    PM    PM PM PM PM           PM    PM    PM PM PM PM PM
  E  S  E  S  E  S  S  S  S   Q        E  E  E  E  S  S  S  S  Q
------------------------------------|-------------------------------|
------------------------------------|-------------------------------|
------------------------------------|-------------------------------|
--L--------------0--0--0--0---------|--0--L--0--L--0--0--0--0--0----|
--L--------------0--0--0--0---------|--0--L--0--L--0--0--0--0--0----|
--L--0--0--0--0--0--0--0--0--/7\----|--0--L--0--L--0--0--0--0--0----|


     PM    PM                                       PM PM PM   PM PM PM PM
  E  S  E  S  E   S  S  S  S S S S S    E  E  E  E  S  S  S  S S  S  S  S
-------------------------------------|-------------------------------------|
-------------------------------------|-------------------------------------|
-----------------10-10-10-10-6-6-6-6-|-------------------------------------|
--L---------------x--x--x--x-x-x-x-x-|--------------0--0--0----0--0--0--0--|
--L---------------8--8--8--8-4-4-4-4-|--------------0--0--0----0--0--0--0--|
--L--0--0--0--0----------------------|--------------0--0--0----0--0--0--0--|


    PM PM PM PM    PM PM PM   PM PM PM PM
  S S  S  S  E  E  S  S  S  S S  S  S  S
------------------------------------------|
------------------------------------------|
------------------------------------------|
----0--0--0--0-----0--0--0----0--0--0--0--|
----0--0--0--0-----0--0--0----0--0--0--0--|
----0--0--0--0-----0--0--0----0--0--0--0--|


  PM    PM    PM PM PM   PM PM PM PM
  E  E  E  E  S  S  S  S S  S  S  S
-------------------------------------|
-------------------------------------|
-------------------------------------|
--0-----0-----0--0--0----0--0--0--0--|
--0-----0-----0--0--0----0--0--0--0--|
--0-----0-----0--0--0----0--0--0--0--|


    PM PM PM PM    PM PM PM   PM PM PM PM
  S S  S  S  E  E  S  S  S  S S  S  S  S
------------------------------------------|
------------------------------------------|
------------------------------------------|
----0--0--0--0-----0--0--0----0--0--0--0--|
----0--0--0--0-----0--0--0----0--0--0--0--|
----0--0--0--0-----0--0--0----0--0--0--0--|


  PM    PM    PM PM PM   PM PM PM PM
  E  E  E  E  S  S  S  S S  S  S  S
-------------------------------------|
-------------------------------------|
-------------------------------------|
--0-----0-----0--0--0----0--0--0--0--|
--0-----0-----0--0--0----0--0--0--0--|
--0-----0-----0--0--0----0--0--0--0--|


    PM PM PM PM    PM PM PM   PM PM PM PM
  S S  S  S  E  E  S  S  S  S S  S  S  S
------------------------------------------|
------------------------------------------|
------------------------------------------|
----0--0--0--0-----0--0--0----0--0--0--0--|
----0--0--0--0-----0--0--0----0--0--0--0--|
----0--0--0--0-----0--0--0----0--0--0--0--|


  PM    PM    PM PM PM   PM PM PM PM      PM PM PM PM
  E  E  E  E  S  S  S  S S  S  S  S     S S  S  S  E  E  H
-------------------------------------|----------------------------|
-------------------------------------|----------------------------|
-------------------------------------|----------------------------|
--0-----0-----0--0--0----0--0--0--0--|----0--0--0--0--------------|
--0-----0-----0--0--0----0--0--0--0--|----0--0--0--0--------------|
--0-----0-----0--0--0----0--0--0--0--|----0--0--0--0--------------|


   E    E    E    E    E    E    E    E
------------------------------------------|
--10---10---10---10---10---10---10---10---|
--13b--13b--13b--13b--13b--13b--13b--13b--|
------------------------------------------|
------------------------------------------|
------------------------------------------|


   E    E    E    E   E   E    E    E
----------------------------------------|
--10---10---10---10--10--10---10---10---|
--13b--13b--13b--13--13--13b--13b--13b--|
----------------------------------------|
----------------------------------------|
----------------------------------------|


   E    E    E    E    E    E    E    E
------------------------------------------|
--10---10---10---10---10---10---10---10---|
--13b--13b--13b--13b--13b--13b--13b--13b--|
------------------------------------------|
------------------------------------------|
------------------------------------------|


   E    E    E    E   E   E    E    E
----------------------------------------|
--10---10---10---10--10--10---10---10---|
--13b--13b--13b--13--13--13b--13b--13b--|
----------------------------------------|
----------------------------------------|
----------------------------------------|


   E    E    E    E    E    E    E    E
------------------------------------------|
--10---10---10---10---10---10---10---10---|
--13b--13b--13b--13b--13b--13b--13b--13b--|
------------------------------------------|
------------------------------------------|
------------------------------------------|


   E    E    E    E   E   E    E    E
----------------------------------------|
--10---10---10---10--10--10---10---10---|
--13b--13b--13b--13--13--13b--13b--13b--|
----------------------------------------|
----------------------------------------|
----------------------------------------|


   E    E    E    E    E    E    E    E
------------------------------------------|
--10---10---10---10---10---10---10---10---|
--13b--13b--13b--13b--13b--13b--13b--13b--|
------------------------------------------|
------------------------------------------|
------------------------------------------|


   E    E    E    E   E   E    E    E      W
----------------------------------------|-------------------||
--10---10---10---10--10--10---10---10---|-------------------||
--13b--13b--13b--13--13--13b--13b--13b--|-------------------||
----------------------------------------|-------------------||
----------------------------------------|-------------------||
----------------------------------------|-------------------||


Guitar 2

Starts at (00:26)

   S  S  S  S  S  S  S  S  S  S  S  S  S  S  S  S
--22-17-------------------------------------------|
--------18----------------------------------------|
-----------19-------------19-14----------------19-|
--------------19----------------15----15-17-19----|
-----------------20-19-17----------17-------------|
--------------------------------------------------|


   S  S  S  S  S  S  S  S  S  S  S  S  S  S  S  S
--22-17-------------------------------------------|
--------18----------------------------------------|
-----------19-------------19-14----------------19-|
--------------19----------------15----15-17-19----|
-----------------20-19-17----------17-------------|
--------------------------------------------------|


   S  S  S  S  S  S  S  S  S  S  S  S  S  S  S  S
--21-17-------------------------------------------|
--------17----------------------------------------|
-----------18-------------18-14-------------------|
--------------19----------------14----14-19-14----|
-----------------19-18-17----------16----------16-|
--------------------------------------------------|


   S  S  S  S  S  S  S  S  S  S  S  S  S  S  S  S
--21-17-------------------------------------------|
--------17----------------------------------------|
-----------18-------------18-14-------------------|
--------------19----------------14----14-19-14----|
-----------------19-18-17----------16----------16-|
--------------------------------------------------|


   S  S  S  S  S  S  S  S  S  S  S  S  S  S  S  S
--22-17-------------------------------------------|
--------18----------------------------------------|
-----------19-------------19-14----------------19-|
--------------19----------------15----15-17-19----|
-----------------20-19-17----------17-------------|
--------------------------------------------------|


   S  S  S  S  S  S  S  S  S  S  S  S  S  S  S  S
--22-17-------------------------------------------|
--------18----------------------------------------|
-----------19-------------19-14----------------19-|
--------------19----------------15----15-17-19----|
-----------------20-19-17----------17-------------|
--------------------------------------------------|


   S  S  S  S  S  S  S  S  S  S  S  S  S  S  S  S
--21-17-------------------------------------------|
--------17----------------------------------------|
-----------18-------------18-14-------------------|
--------------19----------------14----14-19-14----|
-----------------19-18-17----------16----------16-|
--------------------------------------------------|


   S  S  S  S  S  S  S  S  S  S  S  S  S  S  S  S     H        H
--21-17-------------------------------------------|---------------------|
--------17----------------------------------------|---------------------|
-----------18-------------18-14-------------------|---------------------|
--------------19----------------14----14-19-14----|---------------------|
-----------------19-18-17----------16----------16-|--16-----------------|
--------------------------------------------------|---------------------|


  PM PM PM PM PM                      PM PM PM PM
  S  S  S  S  E  E  E  E  E  E     E  S  S  E  E  E  S E  S E
--------------------------------|------------------------------|
--------------------------------|------------------------------|
--------------------------------|------------------------------|
--0--0--0--0--0-----------------|-----0--0--0--0--3--L-6--L-1--|
--0--0--0--0--0-----------------|-----0--0--0--0--3--L-6--L-1--|
--0--0--0--0--0-----------------|-----0--0--0--0--3--L-6--L-1--|


     PM PM PM                      PM PM PM PM
  E  S  S  E  E  E  E  E  E     E  S  S  E  E  E  S E  S E
-----------------------------|------------------------------|
-----------------------------|------------------------------|
-----------------------------|------------------------------|
--L--0--0--0-----------------|-----0--0--0--0--1--L-1--L-1--|
--L--0--0--0-----------------|-----0--0--0--0--1--L-1--L-1--|
--L--0--0--0-----------------|-----0--0--0--0--1--L-1--L-1--|


  PM PM PM PM PM                      PM PM PM PM
  S  S  S  S  E  E  E  E  E  E     E  S  S  E  E  E  S E  S E
--------------------------------|------------------------------|
--------------------------------|------------------------------|
--------------------------------|------------------------------|
--0--0--0--0--0-----------------|-----0--0--0--0--3--L-6--L-1--|
--0--0--0--0--0-----------------|-----0--0--0--0--3--L-6--L-1--|
--0--0--0--0--0-----------------|-----0--0--0--0--3--L-6--L-1--|


     PM PM PM                      PM PM PM PM
  E  S  S  E  E  E  E  E  E     E  S  S  E  E  Q    Q       W
-----------------------------|---------------------------|-------------------|
-----------------------------|---------------------------|-------------------|
-----------------------------|---------------------------|-------------------|
--L--0--0--0-----------------|-----0--0--0--0--0----1----|--0----------------|
--L--0--0--0-----------------|-----0--0--0--0--0----1----|--0----------------|
--L--0--0--0-----------------|-----0--0--0--0--0----1----|--0----------------|


  W                   H        H           Q    Q    Q    Q
-------------------|--------------------|----------------------|
-------------------|--------------------|----------------------|
-------------------|--------------------|----------------------|
--0----------------|--0--------0--------|--0----0----0----0----|
--0----------------|--0--------0--------|--0----0----0----0----|
--0----------------|--0--------0--------|--0----0----0----0----|


   E   E   E   E   E   E   E   E      E   E   E   E   E   E   E   E
--15--15--15--15--15--15--18--18--|--17--17--17----------------------|
----------------------------------|--------------18--18--18--15--15--|
----------------------------------|----------------------------------|
----------------------------------|----------------------------------|
----------------------------------|----------------------------------|
----------------------------------|----------------------------------|


   E   E   E   E   E   E   E   E      E   E   E   E   E   E   E   E
--15--15--15--13--13--13----------|----------------------------------|
--------------------------15--15--|--15--16--16--16--15--15--15--15--|
----------------------------------|----------------------------------|
----------------------------------|----------------------------------|
----------------------------------|----------------------------------|
----------------------------------|----------------------------------|


   E   E   E   E   E   E   E   E      E   E   E   E   E   E   E   E
--15--15--15--15--15--15--18--18--|--17--17--17----------------------|
----------------------------------|--------------18--18--18--15--15--|
----------------------------------|----------------------------------|
----------------------------------|----------------------------------|
----------------------------------|----------------------------------|
----------------------------------|----------------------------------|


   E   E   E   E   E   E   E   E      E   E   E   E   E   E   E   E
--17--17--17--17--20--20--20--20--|--22--22--22--22--22--22--22--22--|
----------------------------------|----------------------------------|
----------------------------------|----------------------------------|
----------------------------------|----------------------------------|
----------------------------------|----------------------------------|
----------------------------------|----------------------------------|


  E  E  E  E  E  E  E  E     E  E  E  E  E  E  E  E
--------------------------|--------------------------|
--------------------------|--------------------------|
--5--5--5--5--5--5--5--5--|--3--3--3--3--2--2--2--2--|
--x--x--x--x--x--x--x--x--|--x--x--x--x--x--x--x--x--|
--3--3--3--3--3--3--3--3--|--1--1--1--1--0--0--0--0--|
--------------------------|--------------------------|


  E  E  E  E  E  E  E  E     E  E  E  E  E  E  E  E     W
--------------------------|--------------------------|-------------------|
--------------------------|--------------------------|-------------------|
--5--5--5--5--5--5--5--5--|--3--3--------2--2--------|-------------------|
--x--x--x--x--x--x--x--x--|--x--x--------x--x--------|--1----------------|
--3--3--3--3--3--3--3--3--|--1--1--------0--0--------|--1----------------|
--------------------------|--------------------------|--1----------------|


                      PM PM PM PM   PM PM   PM   PM PM PM PM
  W                   S  S  S  S  S S  S  S S  S S  S  E  E
-------------------|-----------------------------------------|
-------------------|-----------------------------------------|
-------------------|-----------------------------------------|
--L----------------|--0--0--0--0----0--0----0----0--0--0--0--|
--L----------------|--0--0--0--0----0--0----0----0--0--0--0--|
--L----------------|--0--0--0--0----0--0----0----0--0--0--0--|


     PM PM   PM PM   PM   PM PM PM PM
  E  S  S  S S  S  S S  S S  S  E  E
--------------------------------------|
--------------------------------------|
--------------------------------------|
-----0--0----0--0----0----0--0--0--0--|
-----0--0----0--0----0----0--0--0--0--|
-----0--0----0--0----0----0--0--0--0--|


  PM PM PM PM   PM PM   PM   PM PM PM PM       PM PM   PM PM            PH
  S  S  S  S  S S  S  S S  S S  S  E  E     E  S  S  S S  S  S S S E    Q
-----------------------------------------|------------------------------------|
-----------------------------------------|------------------------------------|
-----------------------------------------|------------------------------------|
--0--0--0--0----0--0----0----0--0--0--0--|-----0--0----0--0-------------------|
--0--0--0--0----0--0----0----0--0--0--0--|-----0--0----0--0-----------<>8b----|
--0--0--0--0----0--0----0----0--0--0--0--|-----0--0----0--0----7-7-0----------|


  PM PM PM PM PM                      PM PM PM PM
  S  S  S  S  E  E  E  E  E  E     E  S  S  E  E  E  S E  S E
--------------------------------|------------------------------|
--------------------------------|------------------------------|
--------------------------------|------------------------------|
--0--0--0--0--0-----------------|-----0--0--0--0--3--L-6--L-1--|
--0--0--0--0--0-----------------|-----0--0--0--0--3--L-6--L-1--|
--0--0--0--0--0-----------------|-----0--0--0--0--3--L-6--L-1--|


     PM PM PM                      PM PM PM PM
  E  S  S  E  E  E  E  E  E     E  S  S  E  E  E  S E  S E
-----------------------------|------------------------------|
-----------------------------|------------------------------|
-----------------------------|------------------------------|
--L--0--0--0-----------------|-----0--0--0--0--1--L-1--L-1--|
--L--0--0--0-----------------|-----0--0--0--0--1--L-1--L-1--|
--L--0--0--0-----------------|-----0--0--0--0--1--L-1--L-1--|


  PM PM PM PM PM                      PM PM PM PM
  S  S  S  S  E  E  E  E  E  E     E  S  S  E  E  E  S E  S E
--------------------------------|------------------------------|
--------------------------------|------------------------------|
--------------------------------|------------------------------|
--0--0--0--0--0-----------------|-----0--0--0--0--3--L-6--L-1--|
--0--0--0--0--0-----------------|-----0--0--0--0--3--L-6--L-1--|
--0--0--0--0--0-----------------|-----0--0--0--0--3--L-6--L-1--|


     PM PM PM                      PM PM PM PM
  E  S  S  E  E  E  E  E  E     E  S  S  E  E  Q    Q
-----------------------------|---------------------------|
-----------------------------|---------------------------|
-----------------------------|---------------------------|
--L--0--0--0-----------------|-----0--0--0--0--0----1----|
--L--0--0--0-----------------|-----0--0--0--0--0----1----|
--L--0--0--0-----------------|-----0--0--0--0--0----1----|


    |--3--| |-3-|   |--3--|  |--3--|  |--3--|  |--3--|  |--3--| |-3-|
    S  S  S S S S   S  S  S  S  S  S  S  S  S  S  S  S  S  S  S S S S
----------------------------------------------------------------------|
----------------------------------------------------------------------|
----------------------------------------------------------------------|
----------------------------------------------------------------------|
----------------------------------------------------------------------|
--/12-12-12-0-0-0-/12-12-12-12-12-12-12-12-12-12-12-12-12-12-12-0-0-0-|


    |--3--| |-3-|   |--3--| |-3-|  |--3--|  |--3--|  |--3--|  |--3--|
    S  S  S S S S   S  S  S S S S  S  S  S  S  S  S  S  S  S  S  S  S
----------------------------------------------------------------------|
----------------------------------------------------------------------|
----------------------------------------------------------------------|
----------------------------------------------------------------------|
----------------------------------------------------------------------|
--/12-12-12-0-0-0-/12-12-12-0-0-0-12-12-12-12-12-12-12-12-12-12-12-12-|


  |-3-| |-3-| |-3-| |--3--|  |--3--|  |--3--|  |--3--| |-3-|
  S S S S S S S S S S S   S  S  S  S  S  S  S  S  S  S S S S
-------------------------------------------------------------|
-------------------------------------------------------------|
-------------------------------------------------------------|
--0-0-0-0-0-0-0-0-0-0-0-/12-12-12-12-12-12-12-12-12-12-0-0-0-|
-------------------------------------------------------------|
-------------------------------------------------------------|


   |--3--|  |--3--| |-3-|  |--3--|  |--3--|  |--3--|  |--3--|  |--3--|
   S  S  S  S  S  S S S S  S  S  S  S  S  S  S  S  S  S  S  S  S  S  S
-----------------------------------------------------------------------|
-----------------------------------------------------------------------|
-----------------------------------------------------------------------|
--12-12-12-12-12-12-0-0-0-12-12-12-12-12-12-12-12-12-12-12-12-12-12-12-|
-----------------------------------------------------------------------|
-----------------------------------------------------------------------|


   |--3--| |-3-|  |--3--| |--3-| |--3-| |--3--|  |--3--| |-3-|
   S  S  S S S S  S  S  S S S  S S  S S S  S  S  S  S  S S S S
---------------------------------------------------------------|
---------------------------------------------------------------|
---------------------------------------------------------------|
--12-12-12-0-0-0-12-12-12-0-0-12-0-12-0-0-12-12-12-12-12-0-0-0-|
---------------------------------------------------------------|
---------------------------------------------------------------|


    |--3--|  |--3--| |-3-|   |--3--|  |--3--| |-3-|   |--3--| |-3-|
    S  S  S  S  S  S S S S   S  S  S  S  S  S S S S   S  S  S S S S
--------------------------------------------------------------------|
--------------------------------------------------------------------|
--------------------------------------------------------------------|
--------------------------------------------------------------------|
--------------------------------------------------------------------|
--/12-12-12-12-12-12-0-0-0-/12-12-12-12-12-12-0-0-0-/12-12-12-0-0-0-|


  |-3-| |-3-| |-3-| |--3--|  |--3--|  |--3--|  |--3--| |-3-|
  S S S S S S S S S S S   S  S  S  S  S  S  S  S  S  S S S S
-------------------------------------------------------------|
-------------------------------------------------------------|
-------------------------------------------------------------|
--0-0-0-0-0-0-0-0-0-0-0-/12-12-12-12-12-12-12-12-12-12-0-0-0-|
-------------------------------------------------------------|
-------------------------------------------------------------|


   |--3--|  |--3--| |-3-|  |--3--|  |--3--|  |--3--|  |--3--|  |--3--|
   S  S  S  S  S  S S S S  S  S  S  S  S  S  S  S  S  S  S  S  S  S  S
-----------------------------------------------------------------------|
-----------------------------------------------------------------------|
-----------------------------------------------------------------------|
--12-12-12-12-12-12-0-0-0-12-12-12-12-12-12-12-12-12-12-12-12-12-12-12-|
-----------------------------------------------------------------------|
-----------------------------------------------------------------------|


  W                   W                   H        H
-------------------|-------------------|--------------------|
-------------------|-------------------|--------------------|
-------------------|-------------------|--------------------|
--0----------------|--0----------------|--0--------0--------|
--0----------------|--0----------------|--0--------0--------|
--0----------------|--0----------------|--0--------0--------|


  Q    Q    Q    Q        E   E   E   E   E   E   E   E
----------------------|--15--15--15--15--15--15--18--18--|
----------------------|----------------------------------|
----------------------|----------------------------------|
--0----0----0----0----|----------------------------------|
--0----0----0----0----|----------------------------------|
--0----0----0----0----|----------------------------------|


   E   E   E   E   E   E   E   E      E   E   E   E   E   E   E   E
--17--17--17----------------------|--15--15--15--13--13--13----------|
--------------18--18--18--15--15--|--------------------------15--15--|
----------------------------------|----------------------------------|
----------------------------------|----------------------------------|
----------------------------------|----------------------------------|
----------------------------------|----------------------------------|


   E   E   E   E   E   E   E   E      E   E   E   E   E   E   E   E
----------------------------------|--15--15--15--15--15--15--18--18--|
--15--16--16--16--15--15--15--15--|----------------------------------|
----------------------------------|----------------------------------|
----------------------------------|----------------------------------|
----------------------------------|----------------------------------|
----------------------------------|----------------------------------|


   E   E   E   E   E   E   E   E      E   E   E   E   E   E   E   E
--17--17--17----------------------|--17--17--17--17--20--20--20--20--|
--------------18--18--18--15--15--|----------------------------------|
----------------------------------|----------------------------------|
----------------------------------|----------------------------------|
----------------------------------|----------------------------------|
----------------------------------|----------------------------------|


   E   E   E   E   E   E   E   E      E   E   E   E   E   E   E   E
--22--22--22--22--22--22--22--22--|--15--15--15--15--15--15--18--18--|
----------------------------------|----------------------------------|
----------------------------------|----------------------------------|
----------------------------------|----------------------------------|
----------------------------------|----------------------------------|
----------------------------------|----------------------------------|


   E   E   E   E   E   E   E   E      E   E   E   E   E   E   E   E
--17--17--17----------------------|--15--15--15--13--13--13----------|
--------------18--18--18--15--15--|--------------------------15--15--|
----------------------------------|----------------------------------|
----------------------------------|----------------------------------|
----------------------------------|----------------------------------|
----------------------------------|----------------------------------|


   E   E   E   E   E   E   E   E      E   E   E   E   E   E   E   E
----------------------------------|--15--15--15--15--15--15--18--18--|
--15--16--16--16--15--15--15--15--|----------------------------------|
----------------------------------|----------------------------------|
----------------------------------|----------------------------------|
----------------------------------|----------------------------------|
----------------------------------|----------------------------------|


   E   E   E   E   E   E   E   E      E   E   E   E   E   E   E   E
--17--17--17----------------------|--17--17--17--17--20--20--20--20--|
--------------18--18--18--15--15--|----------------------------------|
----------------------------------|----------------------------------|
----------------------------------|----------------------------------|
----------------------------------|----------------------------------|
----------------------------------|----------------------------------|


   E   E   E   E   E   E   E   E     E  E  E  E  E  E  E  E
--22--22--22--22--22--22--22--22--|--------------------------|
----------------------------------|--------------------------|
----------------------------------|--5--5--5--5--5--5--5--5--|
----------------------------------|--x--x--x--x--x--x--x--x--|
----------------------------------|--3--3--3--3--3--3--3--3--|
----------------------------------|--------------------------|


  E  E  E  E  E  E  E  E     E  E  E  E  E  E  E  E
--------------------------|--------------------------|
--------------------------|--------------------------|
--3--3--3--3--2--2--2--2--|--5--5--5--5--5--5--5--5--|
--x--x--x--x--x--x--x--x--|--x--x--x--x--x--x--x--x--|
--1--1--1--1--0--0--0--0--|--3--3--3--3--3--3--3--3--|
--------------------------|--------------------------|


  E  E  E  E  E  E  E  E     W                   W
--------------------------|-------------------|-------------------|
--------------------------|-------------------|-------------------|
--3--3--------2--2--------|-------------------|-------------------|
--x--x--------x--x--------|--1----------------|--L----------------|
--1--1--------0--0--------|--1----------------|--L----------------|
--------------------------|--1----------------|--L----------------|


   S  S  S  S  S  S  S  S  S  S  S  S  S  S  S  S
--20-20-20-20-20-20-20-20-20-20-20-20-20-20-20-20-|
--------------------------------------------------|
--------------------------------------------------|
--------------------------------------------------|
--------------------------------------------------|
--------------------------------------------------|


   S  S  S  S  S  S  S  S  S  S  S  S  S  S  S  S
--18-18-18-18-18-18-18-18-17-17-17-17-17-17-17-17-|
--------------------------------------------------|
--------------------------------------------------|
--------------------------------------------------|
--------------------------------------------------|
--------------------------------------------------|


   E   E   E   E   E   E   E   E      E   E   E   E   E   E   E   E
--18--18--18--18--18--18--18--18--|--18--18--18--18--18--18--18--18--|
----------------------------------|----------------------------------|
----------------------------------|----------------------------------|
----------------------------------|----------------------------------|
----------------------------------|----------------------------------|
----------------------------------|----------------------------------|


   E   E   E   E   E   E   E   E      E   E   E   E   E   E   E   E
--17--17--17--17--17--17--17--17--|--15--15--15--15--14--14--14--14--|
----------------------------------|----------------------------------|
----------------------------------|----------------------------------|
----------------------------------|----------------------------------|
----------------------------------|----------------------------------|
----------------------------------|----------------------------------|


                                           PM    PM    PM PM PM   PM PM PM PM
   W                   W                   E  E  E  E  S  S  S  S S  S  S  S
--------------------|-------------------|-------------------------------------|
--16----------------|--L----------------|-------------------------------------|
--------------------|-------------------|-------------------------------------|
--------------------|-------------------|--0-----0-----0--0--0----0--0--0--0--|
--------------------|-------------------|--0-----0-----0--0--0----0--0--0--0--|
--------------------|-------------------|--0-----0-----0--0--0----0--0--0--0--|


    PM PM PM PM    PM PM PM   PM PM PM PM
  S S  S  S  E  E  S  S  S  S S  S  S  S
------------------------------------------|
------------------------------------------|
------------------------------------------|
----0--0--0--0-----0--0--0----0--0--0--0--|
----0--0--0--0-----0--0--0----0--0--0--0--|
----0--0--0--0-----0--0--0----0--0--0--0--|


  PM    PM    PM PM PM   PM PM PM PM
  E  E  E  E  S  S  S  S S  S  S  S
-------------------------------------|
-------------------------------------|
-------------------------------------|
--0-----0-----0--0--0----0--0--0--0--|
--0-----0-----0--0--0----0--0--0--0--|
--0-----0-----0--0--0----0--0--0--0--|


    PM PM PM PM    PM PM PM   PM PM PM PM    PM    PM    PM PM PM PM PM
  S S  S  S  E  E  S  S  S  S S  S  S  S     E  E  E  E  S  S  S  S  Q
------------------------------------------|-------------------------------|
------------------------------------------|-------------------------------|
------------------------------------------|-------------------------------|
----0--0--0--0-----0--0--0----0--0--0--0--|--0--L--0--L--0--0--0--0--0----|
----0--0--0--0-----0--0--0----0--0--0--0--|--0--L--0--L--0--0--0--0--0----|
----0--0--0--0-----0--0--0----0--0--0--0--|--0--L--0--L--0--0--0--0--0----|


     PM    PM    PM PM PM PM           PM    PM    PM PM PM PM PM
  E  S  E  S  E  S  S  S  S   Q        E  E  E  E  S  S  S  S  Q
------------------------------------|-------------------------------|
------------------------------------|-------------------------------|
------------------------------------|-------------------------------|
--L--------------0--0--0--0---------|--0--L--0--L--0--0--0--0--0----|
--L--------------0--0--0--0---------|--0--L--0--L--0--0--0--0--0----|
--L--0--0--0--0--0--0--0--0--/7\----|--0--L--0--L--0--0--0--0--0----|


     PM    PM
  E  S  E  S  E   S  S  S  S S S S S    H         S  S  S  S  S  S  S  S
-------------------------------------|-----------22-17-------------------|
-------------------------------------|-----------------18----------------|
-----------------14-14-14-14-9-9-9-9-|--------------------19-------------|
--L---------------x--x--x--x-x-x-x-x-|-----------------------19----------|
--L--------------12-12-12-12-7-7-7-7-|--------------------------20-19-17-|
--L--0--0--0--0----------------------|-----------------------------------|


   S  S  S  S  S  S  S  S  S  S  S  S  S  S  S  S
--22-17-------------------------------------------|
--------18----------------------------------------|
-----------19-------------19-14----------------19-|
--------------19----------------15----15-17-19----|
-----------------20-19-17----------17-------------|
--------------------------------------------------|


   S  S  S  S  S  S  S  S  S  S  S  S  S  S  S  S
--21-17-------------------------------------------|
--------17----------------------------------------|
-----------18-------------18-14-------------------|
--------------19----------------14----14-19-14----|
-----------------19-18-17----------16----------16-|
--------------------------------------------------|


   S  S  S  S  S  S  S  S  S  S  S  S  S  S  S  S
--21-17-------------------------------------------|
--------17----------------------------------------|
-----------18-------------18-14-------------------|
--------------19----------------14----14-19-14----|
-----------------19-18-17----------16----------16-|
--------------------------------------------------|


   S  S  S  S  S  S  S  S  S  S  S  S  S  S  S  S
--22-17-------------------------------------------|
--------18----------------------------------------|
-----------19-------------19-14----------------19-|
--------------19----------------15----15-17-19----|
-----------------20-19-17----------17-------------|
--------------------------------------------------|


   S  S  S  S  S  S  S  S  S  S  S  S  S  S  S  S
--22-17-------------------------------------------|
--------18----------------------------------------|
-----------19-------------19-14----------------19-|
--------------19----------------15----15-17-19----|
-----------------20-19-17----------17-------------|
--------------------------------------------------|


   S  S  S  S  S  S  S  S  S  S  S  S  S  S  S  S
--21-17-------------------------------------------|
--------17----------------------------------------|
-----------18-------------18-14-------------------|
--------------19----------------14----14-19-14----|
-----------------19-18-17----------16----------16-|
--------------------------------------------------|


   S  S  S  S  S  S  S  S  S  S  S  S  S  S  S  S    W
--21-17-------------------------------------------|-------------------|
--------17----------------------------------------|-------------------|
-----------18-------------18-14-------------------|-------------------|
--------------19----------------14----14-19-14----|--0----------------|
-----------------19-18-17----------16----------16-|--0----------------|
--------------------------------------------------|--0----------------|


  W                   W                   W
-------------------|-------------------|-------------------|-------------------|
-------------------|-------------------|-------------------|-------------------|
-------------------|-------------------|-------------------|-------------------|
--L----------------|--L----------------|--L----------------|-------------------|
--L----------------|--L----------------|--L----------------|-------------------|
--L----------------|--L----------------|--L----------------|-------------------|


-------------------|-------------------|-------------------|
-------------------|-------------------|-------------------|
-------------------|-------------------|-------------------|
-------------------|-------------------|-------------------|
-------------------|-------------------|-------------------|
-------------------|-------------------|-------------------|


-------------------||
-------------------||
-------------------||
-------------------||
-------------------||
-------------------||


============================================================================
============================================================================


----------------------------------------------------------------------------
                           Heart of Gold
                             Heartist
----------------------------------------------------------------------------


Guitar 1 Rhythmic (C G C F A D)
Guitar 2 Lead     (C G C F A D)
Guitar 3 Acoustic (E A D G B E)

NOTE: This was exported off of guitar pro.


Guitar 1

      Echo Effect
      <
      H          Q     E  S  S     E  E   E  S  E  Q    E  S
D||-------------------------11-|---L-----------11------------|
A||-------------------12--L----|---------12--L---------------|
F||--13----------L-------------|-----------------------------|
C||----------------------------|-----------------------------|
G||----------------------------|-----------------------------|
C||----------------------------|-----------------------------|


   <
   H        Q     E  S  S     E  E   E  S  E  Q    E  S
-----------------------14-|---L-----------16--L----L--L-|
-----------------12--L----|---------12--L---------------|
--11--------L-------------|-----------------------------|
--------------------------|-----------------------------|
--------------------------|-----------------------------|
--------------------------|-----------------------------|


   <                                                 <
   H        Q     E  E      E   E  H        Q        H        Q     E  E
------------------------|------------------------|------------------------|
--14--------L-----------|--14--------------------|--14--------L-----------|
-----------------13-----|------13----------------|-----------------13-----|
------------------------|------------------------|------------------------|
------------------------|------------------------|------------------------|
------------------------|------------------------|------------------------|


                                        Echo Effect
   E   E  H        Q                    E          E   E  E   E  E   E  E
------------------------|-----------|--19-------------19-----19-----19-----|
--14--------------------|-----------|--------------------------------------|
------13----------------|-----------|--------------------------------------|
------------------------|-----------|--------------------------------------|
------------------------|-----------|--------------------------------------|
------------------------|-----------|--------------------------------------|


  W                    E  E   E  E   E  E   E  E
-------------------|--18-----18-----18-----18-----|
-------------------|------------------------------|
-------------------|------------------------------|
-------------------|------------------------------|
-------------------|------------------------------|
-------------------|------------------------------|


   E  E   E  E   E  E   E  E      E  E   E  E   E  E   E  E
------------------------------|------------------------------|
--19-----19-----19-----19-----|------------------------------|
------------------------------|--18-----18-----18-----18-----|
------------------------------|------------------------------|
------------------------------|------------------------------|
------------------------------|------------------------------|


  W                    E  E   E  E   E  E   E  E
-------------------|------------------------------|
-------------------|--17-----17-----17-----17-----|
-------------------|------------------------------|
-------------------|------------------------------|
-------------------|------------------------------|
-------------------|------------------------------|


   E  E   E  E   E  E   E  E      E  E   E  E   E  E   E  E
------------------------------|--19-----19-----19-----19-----|
--16-----16-----16-----16-----|------------------------------|
------------------------------|------------------------------|
------------------------------|------------------------------|
------------------------------|------------------------------|
------------------------------|------------------------------|


  W                    E  E   E  E   E  E   E  E
-------------------|--18-----18-----18-----18-----|
-------------------|------------------------------|
-------------------|------------------------------|
-------------------|------------------------------|
-------------------|------------------------------|
-------------------|------------------------------|


   E  E   E  E   E  E   E  E      E  E   E  E   E  E   E  E
------------------------------|------------------------------|
--19-----19-----19-----19-----|------------------------------|
------------------------------|--18-----18-----18-----18-----|
------------------------------|------------------------------|
------------------------------|------------------------------|
------------------------------|------------------------------|


  W                    E  E   E  E   E  E   E  E
-------------------|------------------------------|
-------------------|--17-----17-----17-----17-----|
-------------------|------------------------------|
-------------------|------------------------------|
-------------------|------------------------------|
-------------------|------------------------------|


   E  E   E  E   E  E   E  E      E  E   E  E   E  E   E  E
------------------------------|--19-----19-----19-----19-----|
--16-----16-----16-----16-----|------------------------------|
------------------------------|------------------------------|
------------------------------|------------------------------|
------------------------------|------------------------------|
------------------------------|------------------------------|


  W                    E  E   E  E   E  E   E  E     H         E  E   E  E
-------------------|--16-----16-----16-----16-----|-----------18-----18-----|
-------------------|------------------------------|-------------------------|
-------------------|------------------------------|-------------------------|
-------------------|------------------------------|-------------------------|
-------------------|------------------------------|-------------------------|
-------------------|------------------------------|-------------------------|


   E  E   E  E   E  E   E  E     W                   Q    Q    Q    Q
--19-----19-----19-----19-----|-------------------|----------------------|
------------------------------|-------------------|----------------------|
------------------------------|-------------------|--4----4----4----4----|
------------------------------|-------------------|--4----4----4----4----|
------------------------------|-------------------|--4----4----4----4----|
------------------------------|-------------------|--4----4----4----4----|


  E  E  E  E  E  E  E  E     E  E  E  E  E  E  E  E
--------------------------|--------------------------|
--------------------------|--------------------------|
--4-----------------------|--------------------------|
--4-----------------------|--6--6--6--6--6--6--6--6--|
--4-----------------------|--6--6--6--6--6--6--6--6--|
--4-----------------------|--6--6--6--6--6--6--6--6--|


  E  E  E  E  E  E  E  E     E  E  E  E  E  E  E  E
--------------------------|--------------------------|
--------------------------|--------------------------|
--------------------------|--9--9--9--9--9--9--9--9--|
--9--9--9--9--9--9--9--9--|--9--9--9--9--9--9--9--9--|
--9--9--9--9--9--9--9--9--|--7--7--7--7--7--7--7--7--|
--9--9--9--9--9--9--9--9--|--------------------------|


  E  E  E  E  E  E  E  E     E  E  E  E  E  E  E  E
--------------------------|--------------------------|
--------------------------|--------------------------|
--9--9--9--9--9--9--9--9--|--------------------------|
--9--9--9--9--9--9--9--9--|--6--6--6--6--6--6--6--6--|
--7--7--7--7--7--7--7--7--|--6--6--6--6--6--6--6--6--|
--------------------------|--6--6--6--6--6--6--6--6--|


  E  E  E  E  E  E  E  E     E  E  E  E  E  E  E  E
--------------------------|--------------------------|
--------------------------|--------------------------|
--------------------------|--9--9--9--9--9--9--9--9--|
--9--9--9--9--9--9--9--9--|--9--9--9--9--9--9--9--9--|
--9--9--9--9--9--9--9--9--|--7--7--7--7--7--7--7--7--|
--9--9--9--9--9--9--9--9--|--------------------------|


  E  E  E  E  E  E  E  E     E  E  E  E  E  E  E  E
--------------------------|--------------------------|
--------------------------|--------------------------|
--9--9--9--9--9--9--9--9--|--------------------------|
--9--9--9--9--9--9--9--9--|--6--6--6--6--6-----------|
--7--7--7--7--7--7--7--7--|--6--6--6--6--6-----------|
--------------------------|--6--6--6--6--6-----------|


  E  E  E  E  E  E  E  E     Q    E  E  E  Q    E     Q    E  E  E  E  E  E
--------------------------|------------------------|-------------------------|
--------------------------|------------------------|-------------------------|
--------------------------|--9----9--9--9--9----9--|--9----9--9--9--9--9--9--|
--9--9--9--9--9-----------|--9----9--9--9--9----9--|--9----9--9--9--9--9--9--|
--9--9--9--9--9-----------|--7----7--7--7--7----7--|--7----7--7--7--7--7--7--|
--9--9--9--9--9-----------|------------------------|-------------------------|


  E  E  E  E  E  E  E  E     E  E  E  E  E  E  E  E
--------------------------|--------------------------|
--------------------------|--------------------------|
--6--6--6--6--6--6--6--6--|--6--6--6--6--6--6--6--6--|
--6--6--6--6--6--6--6--6--|--6--6--6--6--6--6--6--6--|
--4--4--4--4--4--4--4--4--|--4--4--4--4--4--4--4--4--|
--------------------------|--------------------------|


  E  E  E  E  E  E  E  E      E   E   E   E   E  E  E  E     W
--------------------------|-------------------------------|-------------------|
--------------------------|-------------------------------|-------------------|
--9--9--9--9--9--9--9--9--|--11--11--11--11--11-----------|-------------------|
--9--9--9--9--9--9--9--9--|--11--11--11--11--11-----------|--9----------------|
--7--7--7--7--7--7--7--7--|---9---9---9---9---9-----------|--6----------------|
--------------------------|-------------------------------|--6----------------|


  W                   W                   W
-------------------|-------------------|-------------------|
-------------------|-------------------|-------------------|
-------------------|-------------------|-------------------|
--L----------------|-------------------|-------------------|
--L----------------|-------------------|-------------------|
--L----------------|-------------------|-------------------|


   E  E  E  E   E  E  E  E      E  E  E  E   E  E  E  E
--16-----------18-----------|--19-----------23-----------|
----------------------------|----------------------------|
----------------------------|----------------------------|
----------------------------|----------------------------|
----------------------------|----------------------------|
----------------------------|----------------------------|


   E  E  E  E  E  E  E  E      E  E  E  E  E  E  E  E
--19-----------------------|--16-----------------------|
---------------------------|---------------------------|
---------------------------|---------------------------|
---------------------------|---------------------------|
---------------------------|---------------------------|
---------------------------|---------------------------|


   E  E  E  E  E  E  E  E      E  E  E  E  E  E  E  E     W
---------------------------|---------------------------|-------------------|
--17-----------------------|--16-----------------------|-------------------|
---------------------------|---------------------------|-------------------|
---------------------------|---------------------------|-------------------|
---------------------------|---------------------------|-------------------|
---------------------------|---------------------------|-------------------|


  W                    E  E  E  E   E  E  E  E      E  E  E  E   E  E  E  E
-------------------|--16-----------18-----------|--19-----------23-----------|
-------------------|----------------------------|----------------------------|
-------------------|----------------------------|----------------------------|
-------------------|----------------------------|----------------------------|
-------------------|----------------------------|----------------------------|
-------------------|----------------------------|----------------------------|


   E  E  E  E  E  E  E  E      E  E  E  E  E  E  E  E
--19-----------------------|--16-----------------------|
---------------------------|---------------------------|
---------------------------|---------------------------|
---------------------------|---------------------------|
---------------------------|---------------------------|
---------------------------|---------------------------|


   E  E  E  E  E  E  E  E      E  E  E  E  E  E  E  E     W
---------------------------|---------------------------|-------------------|
--17-----------------------|--16-----------------------|-------------------|
---------------------------|---------------------------|-------------------|
---------------------------|---------------------------|-------------------|
---------------------------|---------------------------|-------------------|
---------------------------|---------------------------|-------------------|


  W                   Q    Q    Q    Q       E  E  E  E  E  E  E  E
-------------------|----------------------|--------------------------|
-------------------|----------------------|--------------------------|
-------------------|--4----4----4----4----|--4-----------------------|
-------------------|--4----4----4----4----|--4-----------------------|
-------------------|--4----4----4----4----|--4-----------------------|
-------------------|--4----4----4----4----|--4-----------------------|


  E  E  E  E  E  E  E  E     E  E  E  E  E  E  E  E
--------------------------|--------------------------|
--------------------------|--------------------------|
--------------------------|--------------------------|
--6--6--6--6--6--6--6--6--|--9--9--9--9--9--9--9--9--|
--6--6--6--6--6--6--6--6--|--9--9--9--9--9--9--9--9--|
--6--6--6--6--6--6--6--6--|--9--9--9--9--9--9--9--9--|


  E  E  E  E  E  E  E  E     E  E  E  E  E  E  E  E
--------------------------|--------------------------|
--------------------------|--------------------------|
--9--9--9--9--9--9--9--9--|--9--9--9--9--9--9--9--9--|
--9--9--9--9--9--9--9--9--|--9--9--9--9--9--9--9--9--|
--7--7--7--7--7--7--7--7--|--7--7--7--7--7--7--7--7--|
--------------------------|--------------------------|


  E  E  E  E  E  E  E  E     E  E  E  E  E  E  E  E
--------------------------|--------------------------|
--------------------------|--------------------------|
--------------------------|--------------------------|
--6--6--6--6--6--6--6--6--|--9--9--9--9--9--9--9--9--|
--6--6--6--6--6--6--6--6--|--9--9--9--9--9--9--9--9--|
--6--6--6--6--6--6--6--6--|--9--9--9--9--9--9--9--9--|


  E  E  E  E  E  E  E  E     E  E  E  E  E  E  E  E
--------------------------|--------------------------|
--------------------------|--------------------------|
--9--9--9--9--9--9--9--9--|--9--9--9--9--9--9--9--9--|
--9--9--9--9--9--9--9--9--|--9--9--9--9--9--9--9--9--|
--7--7--7--7--7--7--7--7--|--7--7--7--7--7--7--7--7--|
--------------------------|--------------------------|


  E  E  E  E  E  E  E  E     E  E  E  E  E  E  E  E     Q    E  E  E  Q    E
--------------------------|--------------------------|------------------------|
--------------------------|--------------------------|------------------------|
--------------------------|--------------------------|--9----9--9--9--9----9--|
--6--6--6--6--6-----------|--9--9--9--9--9-----------|--9----9--9--9--9----9--|
--6--6--6--6--6-----------|--9--9--9--9--9-----------|--7----7--7--7--7----7--|
--6--6--6--6--6-----------|--9--9--9--9--9-----------|------------------------|


  Q    E  E  E  E  E  E     E  E  E  E  E  E  E  E     E  E  E  E  E  E  E  E
-------------------------|--------------------------|--------------------------|
-------------------------|--------------------------|--------------------------|
--9----9--9--9--9--9--9--|--6--6--6--6--6--6--6--6--|--6--6--6--6--6--6--6--6--|
--9----9--9--9--9--9--9--|--6--6--6--6--6--6--6--6--|--6--6--6--6--6--6--6--6--|
--7----7--7--7--7--7--7--|--4--4--4--4--4--4--4--4--|--4--4--4--4--4--4--4--4--|
-------------------------|--------------------------|--------------------------|


  E  E  E  E  E  E  E  E      E   E   E   E   E  E  E  E     W
--------------------------|-------------------------------|-------------------|
--------------------------|-------------------------------|-------------------|
--9--9--9--9--9--9--9--9--|--11--11--11--11--11-----------|-------------------|
--9--9--9--9--9--9--9--9--|--11--11--11--11--11-----------|--9----------------|
--7--7--7--7--7--7--7--7--|---9---9---9---9---9-----------|--6----------------|
--------------------------|-------------------------------|--6----------------|


  W                   W                   W                   W
-------------------|-------------------|-------------------|-------------------|
-------------------|-------------------|-------------------|--7----------------|
-------------------|-------------------|-------------------|--6----------------|
--L----------------|--9----------------|--L----------------|--4----------------|
--L----------------|--9----------------|--L----------------|--4----------------|
--L----------------|--9----------------|--L----------------|--4----------------|


  W                   W                   E  Q    E  E  E  E  E
-------------------|-------------------|-------------------------|
--L----------------|--5----------------|----------5--------------|
--L----------------|--4----------------|--4----------4-----------|
--L----------------|--2----------------|-----2----------2--------|
--L----------------|--2----------------|-------------------2-----|
--L----------------|--2----------------|----------------------2--|


  W                   W                   W                   W
-------------------|-------------------|-------------------|-------------------|
-------------------|-------------------|-------------------|-------------------|
--1----------------|--L----------------|--4----------------|--L----------------|
--2----------------|--L----------------|--4----------------|--L----------------|
--2----------------|--L----------------|--4----------------|--L----------------|
--2----------------|--L----------------|--4----------------|--L----------------|


  W                   W                   E  E  E  E  E  E  E  E
-------------------|-------------------|--------------------------|
-------------------|-------------------|--------------------------|
--1----------------|--L----------------|--4--4--4--4--4--4--4--4--|
--2----------------|--L----------------|--4--4--4--4--4--4--4--4--|
--2----------------|--L----------------|--4--4--4--4--4--4--4--4--|
--2----------------|--L----------------|--4--4--4--4--4--4--4--4--|


  E  E  E  E  E  E  E  E     E  E  E  E  E  E  E  E
--------------------------|--------------------------|
--------------------------|--------------------------|
--4--4--4--4--4-----------|--------------------------|
--4--4--4--4--4-----------|--8--8--8--8--8--8--8--8--|
--4--4--4--4--4-----------|--8--8--8--8--8--8--8--8--|
--4--4--4--4--4-----------|--8--8--8--8--8--8--8--8--|


   E   E   E   E   E   E   E   E      E   E   E   E   E   E   E   E
----------------------------------|----------------------------------|
----------------------------------|----------------------------------|
----------------------------------|--11--11--11--11--11--11--11--11--|
--11--11--11--11--11--11--11--11--|--11--11--11--11--11--11--11--11--|
--11--11--11--11--11--11--11--11--|---9---9---9---9---9---9---9---9--|
--11--11--11--11--11--11--11--11--|----------------------------------|


   E   E   E   E   E   E   E   E     E  E  E  E  E  E  E  E
----------------------------------|--------------------------|
----------------------------------|--------------------------|
--11--11--11--11--11--11--11--11--|--------------------------|
--11--11--11--11--11--11--11--11--|--8--8--8--8--8--8--8--8--|
---9---9---9---9---9---9---9---9--|--8--8--8--8--8--8--8--8--|
----------------------------------|--8--8--8--8--8--8--8--8--|


   E   E   E   E   E   E   E   E      E   E   E   E   E   E   E   E
----------------------------------|----------------------------------|
----------------------------------|----------------------------------|
----------------------------------|--11--11--11--11--11--11--11--11--|
--11--11--11--11--11--11--11--11--|--11--11--11--11--11--11--11--11--|
--11--11--11--11--11--11--11--11--|---9---9---9---9---9---9---9---9--|
--11--11--11--11--11--11--11--11--|----------------------------------|


   E   E   E   E   E   E   E   E     E  E  E  E  E  E  E  E
----------------------------------|--------------------------|
----------------------------------|--------------------------|
--11--11--11--11--11--11--11--11--|--------------------------|
--11--11--11--11--11--11--11--11--|--8--8--8--8--8-----------|
---9---9---9---9---9---9---9---9--|--8--8--8--8--8-----------|
----------------------------------|--8--8--8--8--8-----------|


   E   E   E   E   E  E  E  E      Q     E   E   E   Q     E
-------------------------------|------------------------------|
-------------------------------|------------------------------|
-------------------------------|--11----11--11--11--11----11--|
--11--11--11--11--11-----------|--11----11--11--11--11----11--|
--11--11--11--11--11-----------|---9-----9---9---9---9-----9--|
--11--11--11--11--11-----------|------------------------------|


   Q     E   E   E   E   E   E     E  E  E  E  E  E  E  E
--------------------------------|--------------------------|
--------------------------------|--------------------------|
--11----11--11--11--11--11--11--|--8--8--8--8--8--8--8--8--|
--11----11--11--11--11--11--11--|--8--8--8--8--8--8--8--8--|
---9-----9---9---9---9---9---9--|--6--6--6--6--6--6--6--6--|
--------------------------------|--------------------------|


  E  E  E  E  E  E  E  E      E   E   E   E   E   E   E   E
--------------------------|----------------------------------|
--------------------------|----------------------------------|
--8--8--8--8--8--8--8--8--|--11--11--11--11--11--11--11--11--|
--8--8--8--8--8--8--8--8--|--11--11--11--11--11--11--11--11--|
--6--6--6--6--6--6--6--6--|---9---9---9---9---9---9---9---9--|
--------------------------|----------------------------------|


   E   E   E   E   E   E   E   E     E  E  E  E  E  E  E  E
----------------------------------|--------------------------|
----------------------------------|--------------------------|
--13--13--13--13--13--13--13--13--|--------------------------|
--13--13--13--13--13--13--13--13--|--8--8--8--8--8--8--8--8--|
--11--11--11--11--11--11--11--11--|--8--8--8--8--8--8--8--8--|
----------------------------------|--8--8--8--8--8--8--8--8--|


   E   E   E   E   E   E   E   E      E   E   E   E   E   E   E   E
----------------------------------|----------------------------------|
----------------------------------|----------------------------------|
----------------------------------|--11--11--11--11--11--11--11--11--|
--11--11--11--11--11--11--11--11--|--11--11--11--11--11--11--11--11--|
--11--11--11--11--11--11--11--11--|---9---9---9---9---9---9---9---9--|
--11--11--11--11--11--11--11--11--|----------------------------------|


   E   E   E   E   E   E   E   E     E  E  E  E  E  E  E  E
----------------------------------|--------------------------|
----------------------------------|--------------------------|
--11--11--11--11--11--11--11--11--|--------------------------|
--11--11--11--11--11--11--11--11--|--8--8--8--8--8--8--8--8--|
---9---9---9---9---9---9---9---9--|--8--8--8--8--8--8--8--8--|
----------------------------------|--8--8--8--8--8--8--8--8--|


   E   E   E   E   E   E   E   E      E   E   E   E   E   E   E   E
----------------------------------|----------------------------------|
----------------------------------|----------------------------------|
----------------------------------|--11--11--11--11--11--11--11--11--|
--11--11--11--11--11--11--11--11--|--11--11--11--11--11--11--11--11--|
--11--11--11--11--11--11--11--11--|---9---9---9---9---9---9---9---9--|
--11--11--11--11--11--11--11--11--|----------------------------------|


   E   E   E   E   E   E   E   E     E  E  E  E  E  E  E  E
----------------------------------|--------------------------|
----------------------------------|--------------------------|
--11--11--11--11--11--11--11--11--|--------------------------|
--11--11--11--11--11--11--11--11--|--8--8--8--8--8-----------|
---9---9---9---9---9---9---9---9--|--8--8--8--8--8-----------|
----------------------------------|--8--8--8--8--8-----------|


   E   E   E   E   E  E  E  E      Q     E   E   E   Q     E
-------------------------------|------------------------------|
-------------------------------|------------------------------|
-------------------------------|--11----11--11--11--11----11--|
--11--11--11--11--11-----------|--11----11--11--11--11----11--|
--11--11--11--11--11-----------|---9-----9---9---9---9-----9--|
--11--11--11--11--11-----------|------------------------------|


   Q     E   E   E   E   E   E     E  E  E  E  E  E  E  E
--------------------------------|--------------------------|
--------------------------------|--------------------------|
--11----11--11--11--11--11--11--|--8--8--8--8--8--8--8--8--|
--11----11--11--11--11--11--11--|--8--8--8--8--8--8--8--8--|
---9-----9---9---9---9---9---9--|--6--6--6--6--6--6--6--6--|
--------------------------------|--------------------------|


  E  E  E  E  E  E  E  E      E   E   E   E   E   E   E   E
--------------------------|----------------------------------|
--------------------------|----------------------------------|
--8--8--8--8--8--8--8--8--|--11--11--11--11--11--11--11--11--|
--8--8--8--8--8--8--8--8--|--11--11--11--11--11--11--11--11--|
--6--6--6--6--6--6--6--6--|---9---9---9---9---9---9---9---9--|
--------------------------|----------------------------------|


   E   E   E   E   E   E   E   E     E  E  E  E  E  E  E  E
----------------------------------|--------------------------|
----------------------------------|--------------------------|
--11--11--11--11--11--11--11--11--|--8--8--8--8--8--8--8--8--|
--11--11--11--11--11--11--11--11--|--8--8--8--8--8--8--8--8--|
---9---9---9---9---9---9---9---9--|--6--6--6--6--6--6--6--6--|
----------------------------------|--------------------------|


  E  E  E  E  E  E  E  E      E   E   E   E   E   E   E   E
--------------------------|----------------------------------|
--------------------------|----------------------------------|
--8--8--8--8--8--8--8--8--|--11--11--11--11--11--11--11--11--|
--8--8--8--8--8--8--8--8--|--11--11--11--11--11--11--11--11--|
--6--6--6--6--6--6--6--6--|---9---9---9---9---9---9---9---9--|
--------------------------|----------------------------------|


   E   E  E  E   E   E  E  E      W                   W
------------------------------|--------------------|-------------------|
------------------------------|--------------------|-------------------|
--13--13--------13--13--------|--------------------|-------------------|
--13--13--------13--13--------|--11----------------|--L----------------|
--11--11--------11--11--------|---8----------------|--L----------------|
------------------------------|---8----------------|--L----------------|


  W                   W
-------------------|-------------------||
-------------------|-------------------||
-------------------|-------------------||
--L----------------|--L----------------||
--L----------------|--L----------------||
--L----------------|--L----------------||


Guitar 2



D||-------|-------|-------|-------|-------|-------|-------|-------|-------|
A||-------|-------|-------|-------|-------|-------|-------|-------|-------|
F||-------|-------|-------|-------|-------|-------|-------|-------|-------|
C||-------|-------|-------|-------|-------|-------|-------|-------|-------|
G||-------|-------|-------|-------|-------|-------|-------|-------|-------|
C||-------|-------|-------|-------|-------|-------|-------|-------|-------|


   E  E   E  E   E  E   E  E     W
--16-----16-----16-----16-----|-------------------|
------------------------------|-------------------|
------------------------------|-------------------|
------------------------------|-------------------|
------------------------------|-------------------|
------------------------------|-------------------|


   E  E   E  E   E  E   E  E      E  E   E  E   E  E   E  E
------------------------------|------------------------------|
--19-----19-----19-----19-----|------------------------------|
------------------------------|--18-----18-----18-----18-----|
------------------------------|------------------------------|
------------------------------|------------------------------|
------------------------------|------------------------------|


   E  E   E  E   E  E   E  E            E  E   E  E   E  E   E  E
------------------------------|-----|------------------------------|
------------------------------|-----|------------------------------|
------------------------------|-----|--16-----16-----16-----16-----|
--18-----18-----18-----18-----|-----|------------------------------|
------------------------------|-----|------------------------------|
------------------------------|-----|------------------------------|


   E  E   E  E   E  E   E  E      E  E   E  E   E  E   E  E
------------------------------|--16-----16-----16-----16-----|
------------------------------|------------------------------|
--15-----15-----15-----15-----|------------------------------|
------------------------------|------------------------------|
------------------------------|------------------------------|
------------------------------|------------------------------|


  W                    E  E   E  E   E  E   E  E
-------------------|------------------------------|
-------------------|--19-----19-----19-----19-----|
-------------------|------------------------------|
-------------------|------------------------------|
-------------------|------------------------------|
-------------------|------------------------------|


   E  E   E  E   E  E   E  E      E  E   E  E   E  E   E  E
------------------------------|------------------------------|-----|
------------------------------|------------------------------|-----|
--18-----18-----18-----18-----|------------------------------|-----|
------------------------------|--18-----18-----18-----18-----|-----|
------------------------------|------------------------------|-----|
------------------------------|------------------------------|-----|


   E  E   E  E   E  E   E  E      E  E   E  E   E  E   E  E
------------------------------|------------------------------|
------------------------------|------------------------------|
--16-----16-----16-----16-----|--15-----15-----15-----15-----|
------------------------------|------------------------------|
------------------------------|------------------------------|
------------------------------|------------------------------|


           T          T          T          T
  S  S  S  S S  S  S  S S  S  S  S S  S  S  S
----------------------------------------------|
----------------------------------------------|
--9-11-13-16-9-11-13-16-9-11-13-16-9-11-13-16-|
----------------------------------------------|
----------------------------------------------|
----------------------------------------------|


           T          T          T          T
  S  S  S  S S  S  S  S S  S  S  S S  S  S  S
----------------------------------------------|
----------------------------------------------|
--9-11-13-16-9-11-13-16-9-11-13-16-9-11-13-16-|
----------------------------------------------|
----------------------------------------------|
----------------------------------------------|


          T         T         T         T
  S S  S  S S S  S  S S S  S  S S S  S  S
------------------------------------------|
--7-9-11-14-7-9-11-14-7-9-11-14-7-9-11-14-|
------------------------------------------|
------------------------------------------|
------------------------------------------|
------------------------------------------|


          T         T         T         T
  S S  S  S S S  S  S S S  S  S S S  S  S
------------------------------------------|
--7-9-11-14-7-9-11-14-7-9-11-14-7-9-11-14-|
------------------------------------------|
------------------------------------------|
------------------------------------------|
------------------------------------------|


            T           T           T           T
   S  S  S  S  S  S  S  S  S  S  S  S  S  S  S  S
--12-14-16-19-12-14-16-19-12-14-16-19-12-14-16-19-|
--------------------------------------------------|
--------------------------------------------------|
--------------------------------------------------|
--------------------------------------------------|
--------------------------------------------------|


            T           T           T           T
   S  S  S  S  S  S  S  S  S  S  S  S  S  S  S  S
--12-14-16-19-12-14-16-19-12-14-16-19-12-14-16-19-|
--------------------------------------------------|
--------------------------------------------------|
--------------------------------------------------|
--------------------------------------------------|
--------------------------------------------------|


            T           T           T           T
   S  S  S  S  S  S  S  S  S  S  S  S  S  S  S  S
--14-16-18-21-14-16-18-21-14-16-18-21-14-16-18-21-|
--------------------------------------------------|
--------------------------------------------------|
--------------------------------------------------|
--------------------------------------------------|
--------------------------------------------------|


   T       T       T       T       T       T       T       T
   S   S   S   S   S   S   S   S   S   S   S   S   S   S   S   S
--23-(11)-23-(11)-23-(11)-23-(11)-23-(11)-23-(11)-23-(11)-23-(11)-|
------------------------------------------------------------------|
------------------------------------------------------------------|
------------------------------------------------------------------|
------------------------------------------------------------------|
------------------------------------------------------------------|


  E  E  E  E  E  E   E   E      E  E  E  E  E  E  E  E
----------------------------|---------------------------|
----------------------------|---------------------------|
--------------------11--11--|--11-----------------------|
--9--8--8--9--8--9----------|------9--8--9--8--8--9--9--|
----------------------------|---------------------------|
----------------------------|---------------------------|


  E  E  E  E  E  E   E   E      E  E  E  E  E  E  E   E
----------------------------|----------------------------|
----------------------------|----------------------------|
--------------------11--11--|--11------------------------|
--9--8--8--9--8--9----------|------9--8--8--8--9--8------|
----------------------------|------------------------11--|
----------------------------|----------------------------|


  E  E  E  E  E  E   E   E      E  E  E  E  E  E  E  E
----------------------------|---------------------------|
----------------------------|---------------------------|
--------------------11--11--|--11-----------------------|
--9--8--8--9--8--9----------|------9--8--9--8--8--9--9--|
----------------------------|---------------------------|
----------------------------|---------------------------|


  E  E  E  E  E  E   E   E      E  E  E  E  E  E  E   E
----------------------------|----------------------------|
----------------------------|----------------------------|
--------------------11--11--|--11------------------------|
--9--8--8--9--8--9----------|------9--8--8--8--9--8------|
----------------------------|------------------------11--|
----------------------------|----------------------------|


  E  E  E  E  E  E   E   E      E  E  E  E  E  E  E  E
----------------------------|---------------------------|
----------------------------|---------------------------|
--------------------11--11--|--11-----------------------|
--9--8--8--9--8--9----------|------9--8--9--8--8--9--9--|
----------------------------|---------------------------|
----------------------------|---------------------------|


  E  E  E  E  E  E   E   E      E  E  E  E  E  E  E   E
----------------------------|----------------------------|
----------------------------|----------------------------|
--------------------11--11--|--11------------------------|
--9--8--8--9--8--9----------|------9--8--8--8--9--8------|
----------------------------|------------------------11--|
----------------------------|----------------------------|


  E  E  E  E  E  E   E   E      E  E  E  E  E  E  E  E
----------------------------|---------------------------|
----------------------------|---------------------------|
--------------------11--11--|--11-----------------------|
--9--8--8--9--8--9----------|------9--8--9--8--8--9--9--|
----------------------------|---------------------------|
----------------------------|---------------------------|


  E  E  E  E  E  E   E   E      E   E   E   E   E   E   E   E
----------------------------|----------------------------------|
----------------------------|--11--11--11--11--12--11----------|
--------------------11--11--|--------------------------13--11--|
--9--8--8--9--8--9----------|----------------------------------|
----------------------------|----------------------------------|
----------------------------|----------------------------------|


   W                   W
--------------------|-------------------|
--------------------|-------------------|
--13----------------|--L----------------|
--------------------|-------------------|
--------------------|-------------------|
--------------------|-------------------|


  S S  S S S  S S S  S S S  S S S  S S    S  S S S  S S S  S S S  S S S  S S S
---------------------------------------|---------------------------------------|
---------------------------------------|---------------------------------------|
---------------------------------------|---------------------------------------|
--6-9-13-6-9-13-6-9-13-6-9-13-6-9-13-6-|--9-13-6-9-13-6-9-13-6-9-13-6-9-13-6-9-|
---------------------------------------|---------------------------------------|
---------------------------------------|---------------------------------------|


  S S  S S S  S S S  S S S  S S S  S S    S S S S S S S S S S S S S S S S
---------------------------------------|----------------------------------|
---------------------------------------|--4-7-9-4-7-9-4-7-9-4-7-9-4-7-9-4-|
--4-8-11-4-8-11-4-8-11-4-8-11-4-8-11-4-|----------------------------------|
---------------------------------------|----------------------------------|
---------------------------------------|----------------------------------|
---------------------------------------|----------------------------------|


  S S  S S S  S S S  S S S  S S S  S S    S  S S S  S S S  S S S  S S S  S S S
---------------------------------------|---------------------------------------|
---------------------------------------|---------------------------------------|
--4-8-11-4-8-11-4-8-11-4-8-11-4-8-11-4-|--8-11-4-8-11-4-8-11-4-8-11-4-8-11-4-8-|
---------------------------------------|---------------------------------------|
---------------------------------------|---------------------------------------|
---------------------------------------|---------------------------------------|


  S S S S S S S S S S S S S S S S    S S S S S S S S S S S S S S S S
----------------------------------|----------------------------------|
--4-7-9-4-7-9-4-7-9-4-7-9-4-7-9-4-|--7-9-4-7-9-4-7-9-4-7-9-4-7-9-4-7-|
----------------------------------|----------------------------------|
----------------------------------|----------------------------------|
----------------------------------|----------------------------------|
----------------------------------|----------------------------------|


  S S  S S S  S S S  S S S  S S S  S S    S  S S S  S S S  S S S  S S S  S S S
---------------------------------------|---------------------------------------|
---------------------------------------|---------------------------------------|
---------------------------------------|---------------------------------------|
--6-9-13-6-9-13-6-9-13-6-9-13-6-9-13-6-|--9-13-6-9-13-6-9-13-6-9-13-6-9-13-6-9-|
---------------------------------------|---------------------------------------|
---------------------------------------|---------------------------------------|


  S S  S S S  S S S  S S S  S S S  S S    S S S S S S S S S S S S S S S S
---------------------------------------|----------------------------------|
---------------------------------------|--4-7-9-4-7-9-4-7-9-4-7-9-4-7-9-4-|
--4-8-11-4-8-11-4-8-11-4-8-11-4-8-11-4-|----------------------------------|
---------------------------------------|----------------------------------|
---------------------------------------|----------------------------------|
---------------------------------------|----------------------------------|


  S S  S S S  S S S  S S S  S S S  S S    S  S S S  S S S  S S S  S S S  S S S
---------------------------------------|---------------------------------------|
---------------------------------------|---------------------------------------|
--4-8-11-4-8-11-4-8-11-4-8-11-4-8-11-4-|--8-11-4-8-11-4-8-11-4-8-11-4-8-11-4-8-|
---------------------------------------|---------------------------------------|
---------------------------------------|---------------------------------------|
---------------------------------------|---------------------------------------|


  S S S S S S S S S S S S S S S S    S S S S S S S S S S S S S S S S
----------------------------------|----------------------------------|
--4-7-9-4-7-9-4-7-9-4-7-9-4-7-9-4-|--7-9-4-7-9-4-7-9-4-7-9-4-7-9-4-7-|
----------------------------------|----------------------------------|
----------------------------------|----------------------------------|
----------------------------------|----------------------------------|
----------------------------------|----------------------------------|


           T          T          T          T
  S  S  S  S S  S  S  S S  S  S  S S  S  S  S
----------------------------------------------|
----------------------------------------------|
--9-11-13-16-9-11-13-16-9-11-13-16-9-11-13-16-|
----------------------------------------------|
----------------------------------------------|
----------------------------------------------|


           T          T          T          T
  S  S  S  S S  S  S  S S  S  S  S S  S  S  S
----------------------------------------------|
----------------------------------------------|
--9-11-13-16-9-11-13-16-9-11-13-16-9-11-13-16-|
----------------------------------------------|
----------------------------------------------|
----------------------------------------------|


          T         T         T         T            T         T
  S S  S  S S S  S  S S S  S  S S S  S  S    S S  S  S S S  S  S H
------------------------------------------|-------------------------------|
--7-9-11-14-7-9-11-14-7-9-11-14-7-9-11-14-|--7-9-11-14-7-9-11-14----------|
------------------------------------------|-------------------------------|
------------------------------------------|-------------------------------|
------------------------------------------|-------------------------------|
------------------------------------------|-------------------------------|


  E  E  E  E  E  E   E   E      E  E  E  E  E  E  E  E
----------------------------|---------------------------|
----------------------------|---------------------------|
--------------------11--11--|--11-----------------------|
--9--8--8--9--8--9----------|------9--8--9--8--8--9--9--|
----------------------------|---------------------------|
----------------------------|---------------------------|


  E  E  E  E  E  E   E   E      E  E  E  E  E  E  E   E
----------------------------|----------------------------|
----------------------------|----------------------------|
--------------------11--11--|--11------------------------|
--9--8--8--9--8--9----------|------9--8--8--8--9--8------|
----------------------------|------------------------11--|
----------------------------|----------------------------|


  E  E  E  E  E  E   E   E      E  E  E  E  E  E  E  E
----------------------------|---------------------------|
----------------------------|---------------------------|
--------------------11--11--|--11-----------------------|
--9--8--8--9--8--9----------|------9--8--9--8--8--9--9--|
----------------------------|---------------------------|
----------------------------|---------------------------|


  E  E  E  E  E  E   E   E      E  E  E  E  E  E  E   E
----------------------------|----------------------------|
----------------------------|----------------------------|
--------------------11--11--|--11------------------------|
--9--8--8--9--8--9----------|------9--8--8--8--9--8------|
----------------------------|------------------------11--|
----------------------------|----------------------------|


  E  E  E  E  E  E   E   E      E  E  E  E  E  E  E  E
----------------------------|---------------------------|
----------------------------|---------------------------|
--------------------11--11--|--11-----------------------|
--9--8--8--9--8--9----------|------9--8--9--8--8--9--9--|
----------------------------|---------------------------|
----------------------------|---------------------------|


  E  E  E  E  E  E   E   E      E  E  E  E  E  E  E   E
----------------------------|----------------------------|
----------------------------|----------------------------|
--------------------11--11--|--11------------------------|
--9--8--8--9--8--9----------|------9--8--8--8--9--8------|
----------------------------|------------------------11--|
----------------------------|----------------------------|


  E  E  E  E  E  E   E   E      E  E  E  E  E  E  E  E
----------------------------|---------------------------|
----------------------------|---------------------------|
--------------------11--11--|--11-----------------------|
--9--8--8--9--8--9----------|------9--8--9--8--8--9--9--|
----------------------------|---------------------------|
----------------------------|---------------------------|


  E  E  E  E  E  E   E   E      E   E   E   E   E   E   E   E
----------------------------|----------------------------------|
----------------------------|--11--11--11--11--12--11----------|
--------------------11--11--|--------------------------13--11--|
--9--8--8--9--8--9----------|----------------------------------|
----------------------------|----------------------------------|
----------------------------|----------------------------------|


   |--3--|  |--3--|  |--3--|  |--3--|  |--3--|  |--3--|  |--3--|  |--3--|
   S  S  S  S  S  S  S  S  S  S  S  S  S  S  S  S  S  S  S  S  S  S  S  S
--19-19-19-19-19-19-19-19-19-19-19-19-19-19-19-19-19-19-19-19-19-19-19-19-|
--------------------------------------------------------------------------|
--------------------------------------------------------------------------|
--------------------------------------------------------------------------|
--------------------------------------------------------------------------|
--------------------------------------------------------------------------|


   |--3--|  |--3--|  |--3--|  |--3--|  |--3--|  |--3--|  |--3--|  |--3--|
   S  S  S  S  S  S  S  S  S  S  S  S  S  S  S  S  S  S  S  S  S  S  S  S
--19-19-19-19-19-19-19-19-19-19-19-19-19-19-19-19-19-19-19-19-19-19-19-19-|
--------------------------------------------------------------------------|
--------------------------------------------------------------------------|
--------------------------------------------------------------------------|
--------------------------------------------------------------------------|
--------------------------------------------------------------------------|


   |--3--|  |--3--|  |--3--|  |--3--|  |--3--|  |--3--|  |--3--|  |--3--|
   S  S  S  S  S  S  S  S  S  S  S  S  S  S  S  S  S  S  S  S  S  S  S  S
--18-18-18-18-18-18-18-18-18-18-18-18-18-18-18-18-18-18-18-18-18-18-18-18-|
--------------------------------------------------------------------------|
--------------------------------------------------------------------------|
--------------------------------------------------------------------------|
--------------------------------------------------------------------------|
--------------------------------------------------------------------------|


   |--3--|  |--3--|  |--3--|  |--3--|  |--3--|  |--3--|  |--3--|  |--3--|
   S  S  S  S  S  S  S  S  S  S  S  S  S  S  S  S  S  S  S  S  S  S  S  S
--------------------------------------------------------------------------|
--19-19-19-19-19-19-19-19-19-19-19-19-19-19-19-19-19-19-19-19-19-19-19-19-|
--------------------------------------------------------------------------|
--------------------------------------------------------------------------|
--------------------------------------------------------------------------|
--------------------------------------------------------------------------|


   |--3--|  |--3--|  |--3--|  |--3--|  |--3--|  |--3--|  |--3--|  |--3--|
   S  S  S  S  S  S  S  S  S  S  S  S  S  S  S  S  S  S  S  S  S  S  S  S
--------------------------------------------------------------------------|
--------------------------------------------------------------------------|
--16-16-16-16-16-16-16-16-16-16-16-16-16-16-16-16-16-16-16-16-16-16-16-16-|
--------------------------------------------------------------------------|
--------------------------------------------------------------------------|
--------------------------------------------------------------------------|


   |--3--|  |--3--|  |--3--|  |--3--|  |--3--|  |--3--|  |--3--|  |--3--|
   S  S  S  S  S  S  S  S  S  S  S  S  S  S  S  S  S  S  S  S  S  S  S  S
--------------------------------------------------------------------------|
--------------------------------------------------------------------------|
--16-16-16-16-16-16-16-16-16-16-16-16-16-16-16-16-16-16-16-16-16-16-16-16-|
--------------------------------------------------------------------------|
--------------------------------------------------------------------------|
--------------------------------------------------------------------------|


   |--3--|  |--3--|  |--3--|  |--3--|  |--3--|  |--3--|  |--3--|  |--3--|
   S  S  S  S  S  S  S  S  S  S  S  S  S  S  S  S  S  S  S  S  S  S  S  S
--------------------------------------------------------------------------|
--------------------------------------------------------------------------|
--15-15-15-15-15-15-15-15-15-15-15-15-15-15-15-15-15-15-15-15-15-15-15-15-|
--------------------------------------------------------------------------|
--------------------------------------------------------------------------|
--------------------------------------------------------------------------|


   |--3--|  |--3--|  |---3---|   |---3---|   |---3---|   |---3---|   |---3---|
   S  S  S  S  S  S  S   S   S   S   S   S   S   S   S   S   S   S   S   S   S
--------------------------------------------------------------------------------|
--------------------------------------------------------------------------------|
--18-18-18-18-18-18-18b-18b-18b-18b-18b-18b-18b-18b-18b-18b-18b-18b-18b-18b-18b-|
--------------------------------------------------------------------------------|
--------------------------------------------------------------------------------|
--------------------------------------------------------------------------------|


   W                    W
---------------------|-------------------|
---------------------|-------------------|
--18b----------------|--L----------------|
---------------------|-------------------|
---------------------|-------------------|
---------------------|-------------------|


          T         T         T         T
  S S  S  S S S  S  S S S  S  S S S  S  S
------------------------------------------|
--7-9-11-14-7-9-11-14-7-9-11-14-7-9-11-14-|
------------------------------------------|
------------------------------------------|
------------------------------------------|
------------------------------------------|


          T         T         T         T
  S S  S  S S S  S  S S S  S  S S S  S  S
------------------------------------------|
--7-9-11-14-7-9-11-14-7-9-11-14-7-9-11-14-|
------------------------------------------|
------------------------------------------|
------------------------------------------|
------------------------------------------|


            T           T           T           T
   S  S  S  S  S  S  S  S  S  S  S  S  S  S  S  S
--12-14-16-19-12-14-16-19-12-14-16-19-12-14-16-19-|
--------------------------------------------------|
--------------------------------------------------|
--------------------------------------------------|
--------------------------------------------------|
--------------------------------------------------|


            T           T           T           T
   S  S  S  S  S  S  S  S  S  S  S  S  S  S  S  S
--12-14-16-19-12-14-16-19-12-14-16-19-12-14-16-19-|
--------------------------------------------------|
--------------------------------------------------|
--------------------------------------------------|
--------------------------------------------------|
--------------------------------------------------|


            T           T           T           T
   S  S  S  S  S  S  S  S  S  S  S  S  S  S  S  S
--14-16-18-21-14-16-18-21-14-16-18-21-14-16-18-21-|
--------------------------------------------------|
--------------------------------------------------|
--------------------------------------------------|
--------------------------------------------------|
--------------------------------------------------|


   T       T       T       T       T       T       T       T
   S   S   S   S   S   S   S   S   S   S   S   S   S   S   S   S
--23-(11)-23-(11)-23-(11)-23-(11)-23-(11)-23-(11)-23-(11)-23-(11)-|
------------------------------------------------------------------|
------------------------------------------------------------------|
------------------------------------------------------------------|
------------------------------------------------------------------|
------------------------------------------------------------------|


   E   E   E   E   E   E   E   E      E   E   E   E   E   E   E   E
----------------------------------|----------------------------------|
----------------------------------|----------------------------------|
--------------------------13--13--|--13------------------------------|
--11--10--10--11--10--11----------|------11--10--11--10--10--11--11--|
----------------------------------|----------------------------------|
----------------------------------|----------------------------------|


   E   E   E   E   E   E   E   E      E   E   E   E   E   E   E   E
----------------------------------|----------------------------------|
----------------------------------|----------------------------------|
--------------------------13--13--|--13------------------------------|
--11--10--10--11--10--11----------|------11--10--10--10--11--10------|
----------------------------------|------------------------------13--|
----------------------------------|----------------------------------|


   E   E   E   E   E   E   E   E      E   E   E   E   E   E   E   E
----------------------------------|----------------------------------|
----------------------------------|----------------------------------|
--------------------------13--13--|--13------------------------------|
--11--10--10--11--10--11----------|------11--10--11--10--10--11--11--|
----------------------------------|----------------------------------|
----------------------------------|----------------------------------|


   E   E   E   E   E   E   E   E      E   E   E   E   E   E   E   E
----------------------------------|----------------------------------|
----------------------------------|----------------------------------|
--------------------------13--13--|--13------------------------------|
--11--10--10--11--10--11----------|------11--10--10--10--11--10------|
----------------------------------|------------------------------13--|
----------------------------------|----------------------------------|


   E   E   E   E   E   E   E   E      E   E   E   E   E   E   E   E
----------------------------------|----------------------------------|
----------------------------------|----------------------------------|
--------------------------13--13--|--13------------------------------|
--11--10--10--11--10--11----------|------11--10--11--10--10--11--11--|
----------------------------------|----------------------------------|
----------------------------------|----------------------------------|


   E   E   E   E   E   E   E   E      E   E   E   E   E   E   E   E
----------------------------------|----------------------------------|
----------------------------------|----------------------------------|
--------------------------13--13--|--13------------------------------|
--11--10--10--11--10--11----------|------11--10--10--10--11--10------|
----------------------------------|------------------------------13--|
----------------------------------|----------------------------------|


   E   E   E   E   E   E   E   E      E   E   E   E   E   E   E   E
----------------------------------|----------------------------------|
----------------------------------|----------------------------------|
--------------------------13--13--|--13------------------------------|
--11--10--10--11--10--11----------|------11--10--11--10--10--11--11--|
----------------------------------|----------------------------------|
----------------------------------|----------------------------------|


   E   E   E   E   E   E   E   E      E   E   E   E   E   E   E   E
----------------------------------|----------------------------------|
----------------------------------|--13--13--13--13--14--13----------|
--------------------------13--13--|--------------------------15--13--|
--11--10--10--11--10--11----------|----------------------------------|
----------------------------------|----------------------------------|
----------------------------------|----------------------------------|


   E   E   E   E   E   E   E   E      E   E   E   E   E   E   E   E
----------------------------------|----------------------------------|
----------------------------------|----------------------------------|
--------------------------13--13--|--13------------------------------|
--11--10--10--11--10--11----------|------11--10--11--10--10--11--11--|
----------------------------------|----------------------------------|
----------------------------------|----------------------------------|


   E   E   E   E   E   E   E   E      E   E   E   E   E   E   E   E
----------------------------------|----------------------------------|
----------------------------------|----------------------------------|
--------------------------13--13--|--13------------------------------|
--11--10--10--11--10--11----------|------11--10--10--10--11--10------|
----------------------------------|------------------------------13--|
----------------------------------|----------------------------------|


   E   E   E   E   E   E   E   E      E   E   E   E   E   E   E   E
----------------------------------|----------------------------------|
----------------------------------|----------------------------------|
--------------------------13--13--|--13------------------------------|
--11--10--10--11--10--11----------|------11--10--11--10--10--11--11--|
----------------------------------|----------------------------------|
----------------------------------|----------------------------------|


   E   E   E   E   E   E   E   E      E   E   E   E   E   E   E   E
----------------------------------|----------------------------------|
----------------------------------|----------------------------------|
--------------------------13--13--|--13------------------------------|
--11--10--10--11--10--11----------|------11--10--10--10--11--10------|
----------------------------------|------------------------------13--|
----------------------------------|----------------------------------|


   E   E   E   E   E   E   E   E      E   E   E   E   E   E   E   E
----------------------------------|----------------------------------|
----------------------------------|----------------------------------|
--------------------------13--13--|--13------------------------------|
--11--10--10--11--10--11----------|------11--10--11--10--10--11--11--|
----------------------------------|----------------------------------|
----------------------------------|----------------------------------|


   E   E   E   E   E   E   E   E      E   E   E   E   E   E   E   E
----------------------------------|----------------------------------|
----------------------------------|----------------------------------|
--------------------------13--13--|--13------------------------------|
--11--10--10--11--10--11----------|------11--10--10--10--11--10------|
----------------------------------|------------------------------13--|
----------------------------------|----------------------------------|


   E   E   E   E   E   E   E   E      E   E   E   E   E   E   E   E
----------------------------------|----------------------------------|
----------------------------------|----------------------------------|
--------------------------13--13--|--13------------------------------|
--11--10--10--11--10--11----------|------11--10--11--10--10--11--11--|
----------------------------------|----------------------------------|
----------------------------------|----------------------------------|


   E   E   E   E   E   E   E   E      E   E   E   E   E   E   E   E
----------------------------------|----------------------------------|
----------------------------------|----------------------------------|
--------------------------13--13--|--13------------------------------|
--11--10--10--11--10--11----------|------11--10--10--10--11--10------|
----------------------------------|------------------------------13--|
----------------------------------|----------------------------------|


   E   E   E   E   E   E   E   E      E   E   E   E   E   E   E   E
----------------------------------|----------------------------------|
----------------------------------|----------------------------------|
--------------------------13--13--|--13------------------------------|
--11--10--10--11--10--11----------|------11--10--11--10--10--11--11--|
----------------------------------|----------------------------------|
----------------------------------|----------------------------------|


   E   E   E   E   E   E   E   E      E   E   E   E   E   E   E   E
----------------------------------|----------------------------------|
----------------------------------|--13--13--13--13--14--13----------|
--------------------------13--13--|--------------------------15--13--|
--11--10--10--11--10--11----------|----------------------------------|
----------------------------------|----------------------------------|
----------------------------------|----------------------------------|


   W                   W                   W
--------------------|-------------------|-------------------|
--------------------|-------------------|-------------------|
--15----------------|--L----------------|--L----------------|
--------------------|-------------------|-------------------|
--------------------|-------------------|-------------------|
--------------------|-------------------|-------------------|


  W
-------------------||
-------------------||
--L----------------||
-------------------||
-------------------||
-------------------||


Guitar 3


E||-------|-------|-------|-------|-------|-------|-------|-------|-------|
B||-------|-------|-------|-------|-------|-------|-------|-------|-------|
G||-------|-------|-------|-------|-------|-------|-------|-------|-------|
D||-------|-------|-------|-------|-------|-------|-------|-------|-------|
A||-------|-------|-------|-------|-------|-------|-------|-------|-------|
E||-------|-------|-------|-------|-------|-------|-------|-------|-------|


  Q    E  E  Q    E  E     E  E  E  E  Q    E  E     Q    E  E  Q    E  E
--2----2--2--2----2--2--|--L--2--2--2--2----2--2--|--0----0--0--0----0--0--|
--2----2--2--2----2--2--|--L--2--2--2--2----2--2--|--2----2--2--2----2--2--|
--2----2--2--2----2--2--|--L--2--2--2--2----2--2--|--2----2--2--2----2--2--|
--4----4--4--4----4--4--|--L--4--4--4--4----4--4--|--2----2--2--2----2--2--|
--4----4--4--4----4--4--|--L--4--4--4--4----4--4--|--0----0--0--0----0--0--|
------------------------|-------------------------|------------------------|


  E  E  E  E  Q    E  E     Q    E  E  Q    E  E     E  E  E  E  Q    E  E
--L--0--0--0--0----0--0--|--0----0--0--0----0--0--|--L--0--0--0--0----0--0--|
--L--2--2--2--2----2--2--|--0----0--0--0----0--0--|--L--0--0--0--0----0--0--|
--L--2--2--2--2----2--2--|--4----4--4--4----4--4--|--L--4--4--4--4----4--4--|
--L--2--2--2--2----2--2--|--4----4--4--4----4--4--|--L--4--4--4--4----4--4--|
--L--0--0--0--0----0--0--|------------------------|-------------------------|
-------------------------|------------------------|-------------------------|


  Q    E  E  Q    E  E     E  E  E  E  Q    E  E     Q    E  E  Q    E  E
--0----0--0--0----0--0--|--L--0--0--0--0----0--0--|--2----2--2--2----2--2--|
--3----3--3--3----3--2--|--L--2--2--2--2----2--2--|--2----2--2--2----2--2--|
--4----4--4--4----4--4--|--L--4--4--4--4----4--4--|--2----2--2--2----2--2--|
--4----4--4--4----4--4--|--L--4--4--4--4----4--4--|--4----4--4--4----4--4--|
------------------------|-------------------------|--4----4--4--4----4--4--|
------------------------|-------------------------|------------------------|


  E  E  E  E  Q    E  E     Q    E  E  Q    E  E     E  E  E  E  Q    E  E
--L--2--2--2--2----2--2--|--0----0--0--0----0--0--|--L--0--0--0--0----0--0--|
--L--2--2--2--2----2--2--|--2----2--2--2----2--2--|--L--2--2--2--2----2--2--|
--L--2--2--2--2----2--2--|--2----2--2--2----2--2--|--L--2--2--2--2----2--2--|
--L--4--4--4--4----4--4--|--2----2--2--2----2--2--|--L--2--2--2--2----2--2--|
--L--4--4--4--4----4--4--|--0----0--0--0----0--0--|--L--0--0--0--0----0--0--|
-------------------------|------------------------|-------------------------|


  Q    E  E  Q    E  E     E  E  E  E  Q    E  E     Q    E  E  Q    E  E
--0----0--0--0----0--0--|--L--0--0--0--0----0--0--|--0----0--0--0----0--0--|
--0----0--0--0----0--0--|--L--0--0--0--0----0--0--|--3----3--3--3----3--2--|
--4----4--4--4----4--4--|--L--4--4--4--4----4--4--|--4----4--4--4----4--4--|
--4----4--4--4----4--4--|--L--4--4--4--4----4--4--|--4----4--4--4----4--4--|
------------------------|-------------------------|------------------------|
------------------------|-------------------------|------------------------|


  E  E  E  E  Q    E  E     Q    E  E  Q    E  E     E  E  E  E  Q    E  E
--L--0--0--0--0----0--0--|--2----2--2--2----2--2--|--L--2--2--2--2----2--2--|
--L--2--2--2--2----2--2--|--3----3--3--3----3--3--|--L--3--3--3--3----3--3--|
--L--4--4--4--4----4--4--|--2----2--2--2----2--2--|--L--2--2--2--2----2--2--|
--L--4--4--4--4----4--4--|--0----0--0--0----0--0--|--L--0--0--0--0----0--0--|
-------------------------|--0----0--0--0----0--0--|--L--0--0--0--0----0--0--|
-------------------------|------------------------|-------------------------|


  Q    E  E  Q    E  E     E  E  E  E  Q    E  E     Q    E  E  Q    E  E
--0----0--0--0----0--0--|--L--0--0--0--0----0--0--|--2----2--2--2----2--2--|
--0----0--0--0----0--0--|--L--0--0--0--0----0--0--|--3----3--3--3----3--3--|
--1----1--1--1----1--1--|--L--1--1--1--1----1--1--|--2----2--2--2----2--2--|
--2----2--2--2----2--2--|--L--2--2--2--2----2--2--|--0----0--0--0----0--0--|
--2----2--2--2----2--2--|--L--2--2--2--2----2--2--|--0----0--0--0----0--0--|
--0----0--0--0----0--0--|--L--0--0--0--0----0--0--|------------------------|


  E  E  E  E  Q    E  E     Q    Q    Q    Q       E  E  E  E  E  E  E  E
--L--2--2--2--2----2--2--|--0----0----0----0----|--0-----------------------|
--L--3--3--3--3----3--3--|--0----0----0----0----|--0-----------------------|
--L--2--2--2--2----2--2--|--1----1----1----1----|--1-----------------------|
--L--0--0--0--0----0--0--|--2----2----2----2----|--2-----------------------|
--L--0--0--0--0----0--0--|--2----2----2----2----|--2-----------------------|
-------------------------|--0----0----0----0----|--0-----------------------|


  E  E  E  E  E  E  E  E     E  E  E  E  E  E  E  E
--2--2--2--2--2--2--2--2--|--0--0--0--0--0--0--0--0--|
--2--2--2--2--2--2--2--2--|--0--0--0--0--0--0--0--0--|
--2--2--2--2--2--2--2--2--|--2--2--2--2--2--2--2--2--|
--4--4--4--4--4--4--4--4--|--2--2--2--2--2--2--2--2--|
--4--4--4--4--4--4--4--4--|--0--0--0--0--0--0--0--0--|
--------------------------|--------------------------|


  E  E  E  E  E  E  E  E     E  E  E  E  E  E  E  E
--0--0--0--0--0--0--0--0--|--0--0--0--0--0--0--0--0--|
--3--3--3--3--3--3--3--3--|--3--3--3--3--3--3--3--3--|
--2--2--2--2--2--2--2--2--|--2--2--2--2--2--2--2--2--|
--0--0--0--0--0--0--0--0--|--0--0--0--0--0--0--0--0--|
--0--0--0--0--0--0--0--0--|--0--0--0--0--0--0--0--0--|
--------------------------|--------------------------|


  E  E  E  E  E  E  E  E     E  E  E  E  E  E  E  E
--2--2--2--2--2--2--2--2--|--0--0--0--0--0--0--0--0--|
--2--2--2--2--2--2--2--2--|--0--0--0--0--0--0--0--0--|
--2--2--2--2--2--2--2--2--|--2--2--2--2--2--2--2--2--|
--4--4--4--4--4--4--4--4--|--2--2--2--2--2--2--2--2--|
--4--4--4--4--4--4--4--4--|--0--0--0--0--0--0--0--0--|
--------------------------|--------------------------|


  E  E  E  E  E  E  E  E     E  E  E  E  E  E  E  E
--0--0--0--0--0--0--0--0--|--0--0--0--0--0--0--0--0--|
--3--3--3--3--3--3--3--3--|--3--3--3--3--3--3--3--3--|
--2--2--2--2--2--2--2--2--|--2--2--2--2--2--2--2--2--|
--0--0--0--0--0--0--0--0--|--0--0--0--0--0--0--0--0--|
--0--0--0--0--0--0--0--0--|--0--0--0--0--0--0--0--0--|
--------------------------|--------------------------|


  E  E  E  E  E  E  E  E     E  E  E  E  E  E  E  E     Q    E  E  E  Q    E
--2--2--2--2--2-----------|--0--0--0--0--0-----------|--0----0--0--0--0----0--|
--2--2--2--2--2-----------|--0--0--0--0--0-----------|--3----3--3--3--3----3--|
--2--2--2--2--2-----------|--2--2--2--2--2-----------|--2----2--2--2--2----2--|
--4--4--4--4--4-----------|--2--2--2--2--2-----------|--0----0--0--0--0----0--|
--4--4--4--4--4-----------|--0--0--0--0--0-----------|--0----0--0--0--0----0--|
--------------------------|--------------------------|------------------------|


  Q    E  E  E  E  E  E     E  E  E  E  E  E  E  E     E  E  E  E  E  E  E  E
--0----0--0--0--0--0--0--|--0--0--0--0--0--0--0--0--|--0--0--0--0--0--0--0--0--|
--3----3--3--3--3--3--3--|--0--0--0--0--0--0--0--0--|--0--0--0--0--0--0--0--0--|
--2----2--2--2--2--2--2--|--4--4--4--4--4--4--4--4--|--4--4--4--4--4--4--4--4--|
--0----0--0--0--0--0--0--|--4--4--4--4--4--4--4--4--|--4--4--4--4--4--4--4--4--|
--0----0--0--0--0--0--0--|--------------------------|--------------------------|
-------------------------|--------------------------|--------------------------|


  E  E  E  E  E  E  E  E     E  E  E  E  E  E  E  E     W
--0--0--0--0--0--0--0--0--|--0--0--0--0--0-----------|--2----------------|
--3--3--3--3--3--3--3--3--|--0--0--0--0--0-----------|--2----------------|
--2--2--2--2--2--2--2--2--|--1--1--1--1--1-----------|--2----------------|
--0--0--0--0--0--0--0--0--|--2--2--2--2--2-----------|--4----------------|
--0--0--0--0--0--0--0--0--|--2--2--2--2--2-----------|--4----------------|
--------------------------|--0--0--0--0--0-----------|-------------------|


  W                   Q    E  E  Q    E  E     E  E  E  E  Q    E  E
--L----------------|--2----2--2--2----2--2--|--L--2--2--2--2----2--2--|
--L----------------|--2----2--2--2----2--2--|--L--2--2--2--2----2--2--|
--L----------------|--2----2--2--2----2--2--|--L--2--2--2--2----2--2--|
--L----------------|--4----4--4--4----4--4--|--L--4--4--4--4----4--4--|
--L----------------|--4----4--4--4----4--4--|--L--4--4--4--4----4--4--|
-------------------|------------------------|-------------------------|


  Q    E  E  Q    E  E     E  E  E  E  Q    E  E     Q    E  E  Q    E  E
--0----0--0--0----0--0--|--L--0--0--0--0----0--0--|--0----0--0--0----0--0--|
--2----2--2--2----2--2--|--L--2--2--2--2----2--2--|--0----0--0--0----0--0--|
--2----2--2--2----2--2--|--L--2--2--2--2----2--2--|--4----4--4--4----4--4--|
--2----2--2--2----2--2--|--L--2--2--2--2----2--2--|--4----4--4--4----4--4--|
--0----0--0--0----0--0--|--L--0--0--0--0----0--0--|------------------------|
------------------------|-------------------------|------------------------|


  E  E  E  E  Q    E  E     Q    E  E  Q    E  E     E  E  E  E  Q    E  E
--L--0--0--0--0----0--0--|--0----0--0--0----0--0--|--L--0--0--0--0----0--0--|
--L--0--0--0--0----0--0--|--3----3--3--3----3--2--|--L--2--2--2--2----2--2--|
--L--4--4--4--4----4--4--|--4----4--4--4----4--4--|--L--4--4--4--4----4--4--|
--L--4--4--4--4----4--4--|--4----4--4--4----4--4--|--L--4--4--4--4----4--4--|
-------------------------|------------------------|-------------------------|
-------------------------|------------------------|-------------------------|


  Q    E  E  Q    E  E     E  E  E  E  Q    E  E     Q    E  E  Q    E  E
--2----2--2--2----2--2--|--L--2--2--2--2----2--2--|--0----0--0--0----0--0--|
--2----2--2--2----2--2--|--L--2--2--2--2----2--2--|--2----2--2--2----2--2--|
--2----2--2--2----2--2--|--L--2--2--2--2----2--2--|--2----2--2--2----2--2--|
--4----4--4--4----4--4--|--L--4--4--4--4----4--4--|--2----2--2--2----2--2--|
--4----4--4--4----4--4--|--L--4--4--4--4----4--4--|--0----0--0--0----0--0--|
------------------------|-------------------------|------------------------|


  E  E  E  E  Q    E  E     Q    E  E  Q    E  E     E  E  E  E  Q    E  E
--L--0--0--0--0----0--0--|--0----0--0--0----0--0--|--L--0--0--0--0----0--0--|
--L--2--2--2--2----2--2--|--0----0--0--0----0--0--|--L--0--0--0--0----0--0--|
--L--2--2--2--2----2--2--|--4----4--4--4----4--4--|--L--4--4--4--4----4--4--|
--L--2--2--2--2----2--2--|--4----4--4--4----4--4--|--L--4--4--4--4----4--4--|
--L--0--0--0--0----0--0--|------------------------|-------------------------|
-------------------------|------------------------|-------------------------|


  Q    E  E  Q    E  E     E  E  E  E  Q    E  E     Q    E  E  Q    E  E
--0----0--0--0----0--0--|--L--0--0--0--0----0--0--|--2----2--2--2----2--2--|
--3----3--3--3----3--2--|--L--2--2--2--2----2--2--|--3----3--3--3----3--3--|
--4----4--4--4----4--4--|--L--4--4--4--4----4--4--|--2----2--2--2----2--2--|
--4----4--4--4----4--4--|--L--4--4--4--4----4--4--|--0----0--0--0----0--0--|
------------------------|-------------------------|--0----0--0--0----0--0--|
------------------------|-------------------------|------------------------|


  E  E  E  E  Q    E  E     Q    Q    Q    Q       E  E  E  E  E  E  E  E
--L--2--2--2--2----2--2--|--0----0----0----0----|--0-----------------------|
--L--3--3--3--3----3--3--|--0----0----0----0----|--0-----------------------|
--L--2--2--2--2----2--2--|--1----1----1----1----|--1-----------------------|
--L--0--0--0--0----0--0--|--2----2----2----2----|--2-----------------------|
--L--0--0--0--0----0--0--|--2----2----2----2----|--2-----------------------|
-------------------------|--0----0----0----0----|--0-----------------------|


  E  E  E  E  E  E  E  E     E  E  E  E  E  E  E  E
--2--2--2--2--2--2--2--2--|--0--0--0--0--0--0--0--0--|
--2--2--2--2--2--2--2--2--|--0--0--0--0--0--0--0--0--|
--2--2--2--2--2--2--2--2--|--2--2--2--2--2--2--2--2--|
--4--4--4--4--4--4--4--4--|--2--2--2--2--2--2--2--2--|
--4--4--4--4--4--4--4--4--|--0--0--0--0--0--0--0--0--|
--------------------------|--------------------------|


  E  E  E  E  E  E  E  E     E  E  E  E  E  E  E  E
--0--0--0--0--0--0--0--0--|--0--0--0--0--0--0--0--0--|
--3--3--3--3--3--3--3--3--|--3--3--3--3--3--3--3--3--|
--2--2--2--2--2--2--2--2--|--2--2--2--2--2--2--2--2--|
--0--0--0--0--0--0--0--0--|--0--0--0--0--0--0--0--0--|
--0--0--0--0--0--0--0--0--|--0--0--0--0--0--0--0--0--|
--------------------------|--------------------------|


  E  E  E  E  E  E  E  E     E  E  E  E  E  E  E  E
--2--2--2--2--2--2--2--2--|--0--0--0--0--0--0--0--0--|
--2--2--2--2--2--2--2--2--|--0--0--0--0--0--0--0--0--|
--2--2--2--2--2--2--2--2--|--2--2--2--2--2--2--2--2--|
--4--4--4--4--4--4--4--4--|--2--2--2--2--2--2--2--2--|
--4--4--4--4--4--4--4--4--|--0--0--0--0--0--0--0--0--|
--------------------------|--------------------------|


  E  E  E  E  E  E  E  E     E  E  E  E  E  E  E  E
--0--0--0--0--0--0--0--0--|--0--0--0--0--0--0--0--0--|
--3--3--3--3--3--3--3--3--|--3--3--3--3--3--3--3--3--|
--2--2--2--2--2--2--2--2--|--2--2--2--2--2--2--2--2--|
--0--0--0--0--0--0--0--0--|--0--0--0--0--0--0--0--0--|
--0--0--0--0--0--0--0--0--|--0--0--0--0--0--0--0--0--|
--------------------------|--------------------------|


  E  E  E  E  E  E  E  E     E  E  E  E  E  E  E  E     Q    E  E  E  Q    E
--2--2--2--2--2-----------|--0--0--0--0--0-----------|--0----0--0--0--0----0--|
--2--2--2--2--2-----------|--0--0--0--0--0-----------|--3----3--3--3--3----3--|
--2--2--2--2--2-----------|--2--2--2--2--2-----------|--2----2--2--2--2----2--|
--4--4--4--4--4-----------|--2--2--2--2--2-----------|--0----0--0--0--0----0--|
--4--4--4--4--4-----------|--0--0--0--0--0-----------|--0----0--0--0--0----0--|
--------------------------|--------------------------|------------------------|


  Q    E  E  E  E  E  E     E  E  E  E  E  E  E  E     E  E  E  E  E  E  E  E
--0----0--0--0--0--0--0--|--0--0--0--0--0--0--0--0--|--0--0--0--0--0--0--0--0--|
--3----3--3--3--3--3--3--|--0--0--0--0--0--0--0--0--|--0--0--0--0--0--0--0--0--|
--2----2--2--2--2--2--2--|--4--4--4--4--4--4--4--4--|--4--4--4--4--4--4--4--4--|
--0----0--0--0--0--0--0--|--4--4--4--4--4--4--4--4--|--4--4--4--4--4--4--4--4--|
--0----0--0--0--0--0--0--|--------------------------|--------------------------|
-------------------------|--------------------------|--------------------------|


  E  E  E  E  E  E  E  E     E  E  E  E  E  E  E  E     W
--0--0--0--0--0--0--0--0--|--0--0--0--0--0-----------|--2----------------|
--3--3--3--3--3--3--3--3--|--0--0--0--0--0-----------|--2----------------|
--2--2--2--2--2--2--2--2--|--1--1--1--1--1-----------|--2----------------|
--0--0--0--0--0--0--0--0--|--2--2--2--2--2-----------|--4----------------|
--0--0--0--0--0--0--0--0--|--2--2--2--2--2-----------|--4----------------|
--------------------------|--0--0--0--0--0-----------|-------------------|


  W                   W                   W                   W
--L----------------|--0----------------|--L----------------|--0----------------|
--L----------------|--2----------------|--L----------------|--0----------------|
--L----------------|--2----------------|--L----------------|--4----------------|
--L----------------|--2----------------|--L----------------|--4----------------|
--L----------------|--0----------------|--L----------------|-------------------|
-------------------|-------------------|-------------------|-------------------|


  W                   W                   W
--L----------------|--0----------------|--L----------------|
--L----------------|--2----------------|--L----------------|
--L----------------|--4----------------|--L----------------|
--L----------------|--4----------------|--L----------------|
-------------------|-------------------|-------------------|
-------------------|-------------------|-------------------|


  Q    E  E  E  E  E  E     E  E  E  E  E  E  E  E     Q    E  E  E  E  E  E
--2----2--2--2--2-----2--|--L--2--2--2--2--2--2--2--|--0----0--0--0--0-----0--|
--3----3--3--3--3-----3--|--L--3--3--3--3--3--3--3--|--0----0--0--0--0-----0--|
--2----2--2--2--2-----2--|--L--2--2--2--2--2--2--2--|--1----1--1--1--1-----1--|
--0----0--0--0--0-----0--|--L--0--0--0--0--0--0--0--|--2----2--2--2--2-----2--|
--0----0--0--0--0-----0--|--L--0--0--0--0--0--0--0--|--2----2--2--2--2-----2--|
-------------------------|--------------------------|--0----0--0--0--0-----0--|


  E  E  E  E  E  E  E  E     Q    E  E  E  E  E  E     E  E  E  E  E  E  E  E
--L--0--0--0--0--0--0--0--|--2----2--2--2--2-----2--|--L--2--2--2--2--2--2--2--|
--L--0--0--0--0--0--0--0--|--3----3--3--3--3-----3--|--L--3--3--3--3--3--3--3--|
--L--1--1--1--1--1--1--1--|--2----2--2--2--2-----2--|--L--2--2--2--2--2--2--2--|
--L--2--2--2--2--2--2--2--|--0----0--0--0--0-----0--|--L--0--0--0--0--0--0--0--|
--L--2--2--2--2--2--2--2--|--0----0--0--0--0-----0--|--L--0--0--0--0--0--0--0--|
--L--0--0--0--0--0--0--0--|-------------------------|--------------------------|


  E  E  E  E  E  E  E  E     E  E  E  E  E  E  E  E
--0--0--0--0--0--0--0--0--|--0--0--0--0--0-----------|
--0--0--0--0--0--0--0--0--|--0--0--0--0--0-----------|
--1--1--1--1--1--1--1--1--|--1--1--1--1--1-----------|
--2--2--2--2--2--2--2--2--|--2--2--2--2--2-----------|
--2--2--2--2--2--2--2--2--|--2--2--2--2--2-----------|
--0--0--0--0--0--0--0--0--|--0--0--0--0--0-----------|


(Increase tuning to F# B  E  A  C# F#)
  E  E  E  E  E  E  E  E     E  E  E  E  E  E  E  E
--2--2--2--2--2--2--2--2--|--0--0--0--0--0--0--0--0--|
--2--2--2--2--2--2--2--2--|--0--0--0--0--0--0--0--0--|
--2--2--2--2--2--2--2--2--|--2--2--2--2--2--2--2--2--|
--4--4--4--4--4--4--4--4--|--2--2--2--2--2--2--2--2--|
--4--4--4--4--4--4--4--4--|--0--0--0--0--0--0--0--0--|
--------------------------|--------------------------|


  E  E  E  E  E  E  E  E     E  E  E  E  E  E  E  E
--0--0--0--0--0--0--0--0--|--0--0--0--0--0--0--0--0--|
--3--3--3--3--3--3--3--3--|--3--3--3--3--3--3--3--3--|
--2--2--2--2--2--2--2--2--|--2--2--2--2--2--2--2--2--|
--0--0--0--0--0--0--0--0--|--0--0--0--0--0--0--0--0--|
--0--0--0--0--0--0--0--0--|--0--0--0--0--0--0--0--0--|
--------------------------|--------------------------|


  E  E  E  E  E  E  E  E     E  E  E  E  E  E  E  E
--2--2--2--2--2--2--2--2--|--0--0--0--0--0--0--0--0--|
--2--2--2--2--2--2--2--2--|--0--0--0--0--0--0--0--0--|
--2--2--2--2--2--2--2--2--|--2--2--2--2--2--2--2--2--|
--4--4--4--4--4--4--4--4--|--2--2--2--2--2--2--2--2--|
--4--4--4--4--4--4--4--4--|--0--0--0--0--0--0--0--0--|
--------------------------|--------------------------|


  E  E  E  E  E  E  E  E     E  E  E  E  E  E  E  E
--0--0--0--0--0--0--0--0--|--0--0--0--0--0--0--0--0--|
--3--3--3--3--3--3--3--3--|--3--3--3--3--3--3--3--3--|
--2--2--2--2--2--2--2--2--|--2--2--2--2--2--2--2--2--|
--0--0--0--0--0--0--0--0--|--0--0--0--0--0--0--0--0--|
--0--0--0--0--0--0--0--0--|--0--0--0--0--0--0--0--0--|
--------------------------|--------------------------|


  E  E  E  E  E  E  E  E     E  E  E  E  E  E  E  E     Q    E  E  E  Q    E
--2--2--2--2--2-----------|--0--0--0--0--0-----------|--0----0--0--0--0----0--|
--2--2--2--2--2-----------|--0--0--0--0--0-----------|--3----3--3--3--3----3--|
--2--2--2--2--2-----------|--2--2--2--2--2-----------|--2----2--2--2--2----2--|
--4--4--4--4--4-----------|--2--2--2--2--2-----------|--0----0--0--0--0----0--|
--4--4--4--4--4-----------|--0--0--0--0--0-----------|--0----0--0--0--0----0--|
--------------------------|--------------------------|------------------------|


  Q    E  E  E  E  E  E     E  E  E  E  E  E  E  E     E  E  E  E  E  E  E  E
--0----0--0--0--0--0--0--|--0--0--0--0--0--0--0--0--|--0--0--0--0--0--0--0--0--|
--3----3--3--3--3--3--3--|--0--0--0--0--0--0--0--0--|--0--0--0--0--0--0--0--0--|
--2----2--2--2--2--2--2--|--4--4--4--4--4--4--4--4--|--4--4--4--4--4--4--4--4--|
--0----0--0--0--0--0--0--|--4--4--4--4--4--4--4--4--|--4--4--4--4--4--4--4--4--|
--0----0--0--0--0--0--0--|--------------------------|--------------------------|
-------------------------|--------------------------|--------------------------|


  E  E  E  E  E  E  E  E     E  E  E  E  E  E  E  E
--0--0--0--0--0--0--0--0--|--0--0--0--0--0--0--0--0--|
--3--3--3--3--3--3--3--3--|--0--0--0--0--0--0--0--0--|
--2--2--2--2--2--2--2--2--|--1--1--1--1--1--1--1--1--|
--0--0--0--0--0--0--0--0--|--2--2--2--2--2--2--2--2--|
--0--0--0--0--0--0--0--0--|--2--2--2--2--2--2--2--2--|
--------------------------|--0--0--0--0--0--0--0--0--|


  E  E  E  E  E  E  E  E     E  E  E  E  E  E  E  E
--2--2--2--2--2--2--2--2--|--0--0--0--0--0--0--0--0--|
--2--2--2--2--2--2--2--2--|--0--0--0--0--0--0--0--0--|
--2--2--2--2--2--2--2--2--|--2--2--2--2--2--2--2--2--|
--4--4--4--4--4--4--4--4--|--2--2--2--2--2--2--2--2--|
--4--4--4--4--4--4--4--4--|--0--0--0--0--0--0--0--0--|
--------------------------|--------------------------|


  E  E  E  E  E  E  E  E     E  E  E  E  E  E  E  E
--0--0--0--0--0--0--0--0--|--0--0--0--0--0--0--0--0--|
--3--3--3--3--3--3--3--3--|--3--3--3--3--3--3--3--3--|
--2--2--2--2--2--2--2--2--|--2--2--2--2--2--2--2--2--|
--0--0--0--0--0--0--0--0--|--0--0--0--0--0--0--0--0--|
--0--0--0--0--0--0--0--0--|--0--0--0--0--0--0--0--0--|
--------------------------|--------------------------|


  E  E  E  E  E  E  E  E     E  E  E  E  E  E  E  E
--2--2--2--2--2--2--2--2--|--0--0--0--0--0--0--0--0--|
--2--2--2--2--2--2--2--2--|--0--0--0--0--0--0--0--0--|
--2--2--2--2--2--2--2--2--|--2--2--2--2--2--2--2--2--|
--4--4--4--4--4--4--4--4--|--2--2--2--2--2--2--2--2--|
--4--4--4--4--4--4--4--4--|--0--0--0--0--0--0--0--0--|
--------------------------|--------------------------|


  E  E  E  E  E  E  E  E     E  E  E  E  E  E  E  E
--0--0--0--0--0--0--0--0--|--0--0--0--0--0--0--0--0--|
--3--3--3--3--3--3--3--3--|--3--3--3--3--3--3--3--3--|
--2--2--2--2--2--2--2--2--|--2--2--2--2--2--2--2--2--|
--0--0--0--0--0--0--0--0--|--0--0--0--0--0--0--0--0--|
--0--0--0--0--0--0--0--0--|--0--0--0--0--0--0--0--0--|
--------------------------|--------------------------|


  E  E  E  E  E  E  E  E     E  E  E  E  E  E  E  E     Q    E  E  E  Q    E
--2--2--2--2--2-----------|--0--0--0--0--0-----------|--0----0--0--0--0----0--|
--2--2--2--2--2-----------|--0--0--0--0--0-----------|--3----3--3--3--3----3--|
--2--2--2--2--2-----------|--2--2--2--2--2-----------|--2----2--2--2--2----2--|
--4--4--4--4--4-----------|--2--2--2--2--2-----------|--0----0--0--0--0----0--|
--4--4--4--4--4-----------|--0--0--0--0--0-----------|--0----0--0--0--0----0--|
--------------------------|--------------------------|------------------------|


  Q    E  E  E  E  E  E     E  E  E  E  E  E  E  E     E  E  E  E  E  E  E  E
--0----0--0--0--0--0--0--|--0--0--0--0--0--0--0--0--|--0--0--0--0--0--0--0--0--|
--3----3--3--3--3--3--3--|--0--0--0--0--0--0--0--0--|--0--0--0--0--0--0--0--0--|
--2----2--2--2--2--2--2--|--4--4--4--4--4--4--4--4--|--4--4--4--4--4--4--4--4--|
--0----0--0--0--0--0--0--|--4--4--4--4--4--4--4--4--|--4--4--4--4--4--4--4--4--|
--0----0--0--0--0--0--0--|--------------------------|--------------------------|
-------------------------|--------------------------|--------------------------|


  E  E  E  E  E  E  E  E     E  E  E  E  E  E  E  E
--0--0--0--0--0--0--0--0--|--0--0--0--0--0--0--0--0--|
--3--3--3--3--3--3--3--3--|--3--3--3--3--3--3--3--3--|
--2--2--2--2--2--2--2--2--|--2--2--2--2--2--2--2--2--|
--0--0--0--0--0--0--0--0--|--0--0--0--0--0--0--0--0--|
--0--0--0--0--0--0--0--0--|--0--0--0--0--0--0--0--0--|
--------------------------|--------------------------|


  E  E  E  E  E  E  E  E     E  E  E  E  E  E  E  E
--0--0--0--0--0--0--0--0--|--0--0--0--0--0--0--0--0--|
--0--0--0--0--0--0--0--0--|--0--0--0--0--0--0--0--0--|
--4--4--4--4--4--4--4--4--|--4--4--4--4--4--4--4--4--|
--4--4--4--4--4--4--4--4--|--4--4--4--4--4--4--4--4--|
--------------------------|--------------------------|
--------------------------|--------------------------|


  E  E  E  E  E  E  E  E     E  E  E  E  E  E  E  E     W
--0--0--0--0--0--0--0--0--|--0--0--------0--0--------|--2----------------|
--3--3--3--3--3--3--3--3--|--0--0--------0--0--------|--2----------------|
--2--2--2--2--2--2--2--2--|--1--1--------1--1--------|--2----------------|
--0--0--0--0--0--0--0--0--|--2--2--------2--2--------|--4----------------|
--0--0--0--0--0--0--0--0--|--2--2--------2--2--------|--4----------------|
--------------------------|--0--0--------0--0--------|-------------------|


  W                   W                   W
--L----------------|--L----------------|--L----------------||
--L----------------|--L----------------|--L----------------||
--L----------------|--L----------------|--L----------------||
--L----------------|--L----------------|--L----------------||
--L----------------|--L----------------|--L----------------||
-------------------|-------------------|-------------------||


Duration Legend
---------------
W - whole
H - half
Q - quarter
E - 8th
S - 16th
T - 32nd
X - 64th
. - note dotted
|-n-|  - n-tuplets


Tablature Legend
----------------
L - tied note
x - dead note
g - grace note
(n) - ghost note
> - accentuded note
NH - natural harmonic
AH - artificial harmonic
TH - tapped harmonic
SH - semi harmonic
PH - pitch harmonic
h - hammer on
p - pull off
b - bend
br - bendRelease
pb - preBend
pbr - preBendRelease
brb - bendReleaseBend
\n/ - tremolo bar dip
\n - tremolo bar dive
-/n - tremolo bar Release up
/n\ - tremolo bar inverted dip
/n - tremolo bar return
-\n - tremolo bar Release down
S - shift slide
s - legato slide
/ -  slide into from below or out of upwards
\ -  slide into from above or out of downwards
~ - vibrato
W - wide vibrato
tr - trill
TP - tremolo picking
T - tapping
S - slap
P - pop
< - fade in
^ - brush up
v - brush down


That is all! I hope this helped, and be sure to check out my cover if you are
having problems with the tab. Thanks, oh and one last thing... ROCK OUT!!!!
comments
We did not receive enough feedback on this tab! Please rate:
print report bad tab
1 2 3 4 5
I want to post or [tab]
guest
You may want to rate the tab now too:
select rating
Please do not post tabs as comments. Select "correction" instead!