Oops, an error
Loading. Please wait.

Rhinestone Tab

527 views 3 this week
no commentswrite comment
1 2 3 4 5
please rate
Autoscroll
+/-
esc
set tempo
stop
Contributor
Difficulty
Tuning
intermediate
C G C F A D
WARNING: You are trying to view
                                    content from Ultimate-Guitar.com
                                    in an unauthorized application,
                                    which is prohibited.

                                    Please use an official Ultimate
                                    Guitar Tabs application for iPhone,
                                    iPad or Android to access legitimate
                                    chords, guitar, bass, and drum tabs
                                    from Ultimate-Guitar.com database.

                                    Type "ultimate guitar tabs" in Apple
                                    App Store's or Android Market's
                                    search to find the application.
----------------------------------------------------------------------------
                            Rhinestone
                             Heartist
----------------------------------------------------------------------------

This is by far the greatest EP I every bought. There is so much passion that can’t be
found from other bands. Every song Heartist makes is a masterpiece, while with most other
bands, there are about 2 or 3 you would think are mediocre. This song proves that 
Heartist can write catchy songs. Enjoy!

Username: dkm817 (same on X box live)
Youtube Cover: http://www.youtube.com/watch?v=0vPQCSe6xhw
Email: guitardrums@rockfan.com

Guitar 1 Rhythmic (C G C F A D)
Guitar 2 Lead     (C G C F A D)
Guitar 3 Mixed    (C G C F A D)

NOTE: This was exported off of guitar pro.


Guitar 1

                           PM PM
     E   E  E  E  E  E  E  S  S     E  E  E  E  E  E  E  E
D||------------------------------|--------------------------|
A||------------------------------|--------------------------|
F||------------------------------|--------------------------|
C||---------7-----7--------------|--------------------3--L--|
G||------------0-----8--0--0--0--|--5--0-----7--0--7--L--7--|
C||--5S--8-----------------------|--------3-----------------|


  E   E  E  E  E  E  E  E     E  S S E  E  S S E  S S E
---------------------------|-----------------------------|
---------------------------|-----------------------------|
---------------------------|---------------9-9-9--9-9-9--|
---------5-----------7-----|---------------x-x-x--x-x-x--|
------------0--7--8-----8--|--0--8-8-8-----8-8-8--8-8-8--|
--5S--8--------------------|------------8----------------|


                        PM PM
  E   E  E  E  E  E  E  S  S     E  E  E  E  E  E  E  E
------------------------------|--------------------------|
------------------------------|--------------------------|
------------------------------|--------------------------|
---------7-----7--------------|--------------------3--L--|
------------0-----8--0--0--0--|--5--0-----7--0--7--L--7--|
--5S--8-----------------------|--------3-----------------|


                                           PM PM PM PM PM PM
  E   E  E  E  E  E  E  E     E  S S E  E  S  S  E  S  S  E
---------------------------|---------------------------------|
---------------------------|---------------------------------|
---------------------------|---------------------------------|
---------5-----------7-----|---------------0--0--0--0--0--0--|
------------0--7--8-----8--|--0--8-8-8-----0--0--0--0--0--0--|
--5S--8--------------------|------------8--0--0--0--0--0--0--|


  S  S S S E  E  E  E  E  E     E   Q     E  E  E  E  E
-----------------------------|---------------------------|
-----------------------------|---------------------------|
-----------------------------|---------------------------|
--------------------8--8--8--|-----10b----L--------------|
--------------------5--5--5--|------7b----L--7--0--8--7--|
--8-10-8-0-7--0--------------|---------------------------|


  S  S S S E  E  E  E  E  E     E   Q     E  E  E  E  E
-----------------------------|---------------------------|
-----------------------------|---------------------------|
-----------------------------|---------------------------|
--------------------8--8--8--|-----10b----L--------------|
--------------------5--5--5--|------7b----L--7--0--8--7--|
--8-10-8-0-7--0--------------|---------------------------|


  S  S S S E  E  E  E  E  E     S E  S E  S E   S  E  E  E
-----------------------------|------------------------------|
-----------------------------|------------------------------|
-----------------------------|------------------------------|
--------------------8--8--8--|------------------------------|
--------------------5--5--5--|------------------------------|
--8-10-8-0-7--0--------------|--0-0--8-8--7-7--10-10--8--7--|


  E  E  E  E  E  S S E  E     S E  S E  E   S  S  S E  S E
---------------------------|--------------------------------|
---------------------------|--------------------------------|
---------------------------|--------------------------------|
---------------------------|--------------------------------|
---------------------------|--------------------------------|
--5--------------5-5-5--7--|--8-8----------10-10-10-8--7-7--|


  PM                         PM PM     PM PM     PM PM PM PM PM PM
  E  E  E  E  E  E  E  E     S  S  S S S  S  S S S  S  S  E  S  E
--------------5--L--L--L--|----------------------------------------|
--------6--L--L--6--L--6--|----------------------------------------|
-----7--L--7--L--L--7--L--|----------------------------------------|
--0-----------------------|--0--0------0--0------0--0--0--0--0--0--|
--0-----------------------|--0--0------0--0------0--0--0--0--0--0--|
--0-----------------------|--0--0------0--0------0--0--0--0--0--0--|


  S  S S S E  E  E  E  E  E     E   Q     E  E  E  E  E
-----------------------------|---------------------------|
-----------------------------|---------------------------|
-----------------------------|---------------------------|
--------------------8--8--8--|-----10b----L--------------|
--------------------5--5--5--|------7b----L--7--0--8--7--|
--8-10-8-0-7--0--------------|---------------------------|


  S  S S S E  E  E  E  E  E     S E  S E  S E   S  E  E  E
-----------------------------|------------------------------|
-----------------------------|------------------------------|
-----------------------------|------------------------------|
--------------------8--8--8--|------------------------------|
--------------------5--5--5--|------------------------------|
--8-10-8-0-7--0--------------|--0-0--8-8--7-7--10-10--8--7--|


  E  E  E  E  E  S S E  E     S E  S E  E   S  S  S E  S E
---------------------------|--------------------------------|
---------------------------|--------------------------------|
---------------------------|--------------------------------|
---------------------------|--------------------------------|
---------------------------|--------------------------------|
--5--------------5-5-5--7--|--8-8----------10-10-10-8--7-7--|


  PM                         PM PM     PM PM     PM PM PM PM PM PM
  E  E  E  E  E  E  E  E     S  S  S S S  S  S S S  S  S  E  S  E
--------------5--L--L--L--|----------------------------------------|
--------6--L--L--6--L--6--|----------------------------------------|
-----7--L--7--L--L--7--L--|----------------------------------------|
--0-----------------------|--0--0------0--0------0--0--0--0--0--0--|
--0-----------------------|--0--0------0--0------0--0--0--0--0--0--|
--0-----------------------|--0--0------0--0------0--0--0--0--0--0--|


  E  E  E  E  E  E  E  E     E  E  E  E  E  E  E  E
--------------------------|--------------------------|
--------------------------|--------------------------|
--9--9--9--9--9--9--9--9--|--9--9--9--9--9--9--9--9--|
--x--x--x--x--x--x--x--x--|--x--x--x--x--x--x--x--x--|
--8--8--8--8--8--8--8--8--|--8--8--8--8--8--8--8--8--|
--------------------------|--------------------------|


  E  E  E  E  E  E  E  E     E  E  E  E  E  E  E  E
--------------------------|--------------------------|
--------------------------|--------------------------|
--------------------------|--------------------------|
--0--0--0--0--0--0--0--0--|--8--8--8--8--8--8--8--8--|
--0--0--0--0--0--0--0--0--|--8--8--8--8--8--8--8--8--|
--0--0--0--0--0--0--0--0--|--8--8--8--8--8--8--8--8--|


  E  E  E  E  E  E  E  E     E  E  E  E  E  E  E  E
--------------------------|--------------------------|
--------------------------|--------------------------|
--------------------------|-----------------5--5--5--|
--3--3--3--3--3--3--3--3--|--3--3--3--3--3--5--5--5--|
--3--3--3--3--3--3--3--3--|--3--3--3--3--3--3--3--3--|
--3--3--3--3--3--3--3--3--|--3--3--3--3--3-----------|


  E  E  E  E  E  E  E  E     E  E  E  E  E  E  E  E
--------------------------|--------------------------|
--------------------------|--------------------------|
--------------------------|--------------------------|
--0--0--0--0--0--0--0--0--|--8--8--8--8--8--8--8--8--|
--0--0--0--0--0--0--0--0--|--8--8--8--8--8--8--8--8--|
--0--0--0--0--0--0--0--0--|--8--8--8--8--8--8--8--8--|


  E  E  E  E  E  E  E  E     E  E  E  E  E  E  E  E
--------------------------|--------------------------|
--------------------------|--------------------------|
--------------------------|--------------------------|
--------------------------|--------------------------|
--------------------------|--------------8--8--7--7--|
--3--3--3--3--5--5--5--5--|--7--7--8--8--------------|


  E  E  E  E  E  E  E  E     E  E  E  E  E  E  E  E
--------------------------|--------------------------|
--------------------------|--------------------------|
--------------------------|--------------------------|
--0--0--0--0--0--0--0--0--|--8--8--8--8--8--8--8--8--|
--0--0--0--0--0--0--0--0--|--8--8--8--8--8--8--8--8--|
--0--0--0--0--0--0--0--0--|--8--8--8--8--8--8--8--8--|


  E  E  E  E  E  E  E  E     E  E  E  E  E  E  E  E
--------------------------|--------------------------|
--------------------------|--------------------------|
--------------------------|-----------------5--5--5--|
--3--3--3--3--3--3--3--3--|--3--3--3--3--3--5--5--5--|
--3--3--3--3--3--3--3--3--|--3--3--3--3--3--3--3--3--|
--3--3--3--3--3--3--3--3--|--3--3--3--3--3-----------|


  E  E  E  E  E  E  E  E     E  E  E  E  E  E  E  E
--------------------------|--------------------------|
--------------------------|--------------------------|
--------------------------|--------------------------|
--0--0--0--0--0--0--0--0--|--8--8--8--8--8--8--8--8--|
--0--0--0--0--0--0--0--0--|--8--8--8--8--8--8--8--8--|
--0--0--0--0--0--0--0--0--|--8--8--8--8--8--8--8--8--|


  E  E  E  E  E  E  E  E     E  E  E  E  E  E  E  E
--------------------------|--------------------------|
--------------------------|--------------------------|
--------------------------|--------------------------|
--------------------------|--------------------------|
--------------------------|--------------8--8--7--7--|
--3--3--3--3--5--5--5--5--|--7--7--8--8--------------|


                        PM PM
  E   E  E  E  E  E  E  S  S     E  E  E  E  E  E  E  E
------------------------------|--------------------------|
------------------------------|--------------------------|
------------------------------|--------------------------|
---------7-----7--------------|--------------------3--L--|
------------0-----8--0--0--0--|--5--0-----7--0--7--L--7--|
--5S--8-----------------------|--------3-----------------|


  E   E  E  E  E  E  E  E     E  S S E  E  S S E  S S E
---------------------------|-----------------------------|-----|
---------------------------|-----------------------------|-----|
---------------------------|---------------9-9-9--9-9-9--|-----|
---------5-----------7-----|---------------x-x-x--x-x-x--|-----|
------------0--7--8-----8--|--0--8-8-8-----8-8-8--8-8-8--|-----|
--5S--8--------------------|------------8----------------|-----|


  S  S S S E  E  E  E  E  E     E   Q     E  E  E  E  E
-----------------------------|---------------------------|
-----------------------------|---------------------------|
-----------------------------|---------------------------|
--------------------8--8--8--|-----10b----L--------------|
--------------------5--5--5--|------7b----L--7--0--8--7--|
--8-10-8-0-7--0--------------|---------------------------|


  S  S S S E  E  E  E  E  E     S E  S E  S E   S  E  E  E
-----------------------------|------------------------------|
-----------------------------|------------------------------|
-----------------------------|------------------------------|
--------------------8--8--8--|------------------------------|
--------------------5--5--5--|------------------------------|
--8-10-8-0-7--0--------------|--0-0--8-8--7-7--10-10--8--7--|


  E  E  E  E  E  S S E  E     S E  S E  E   S  S  S E  S E
---------------------------|--------------------------------|
---------------------------|--------------------------------|
---------------------------|--------------------------------|
---------------------------|--------------------------------|
---------------------------|--------------------------------|
--5--------------5-5-5--7--|--8-8----------10-10-10-8--7-7--|


  PM                         PM PM     PM PM     PM PM PM PM PM PM
  E  E  E  E  E  E  E  E     S  S  S S S  S  S S S  S  S  E  S  E
--------------5--L--L--L--|----------------------------------------|
--------6--L--L--6--L--6--|----------------------------------------|
-----7--L--7--L--L--7--L--|----------------------------------------|
--0-----------------------|--0--0------0--0------0--0--0--0--0--0--|
--0-----------------------|--0--0------0--0------0--0--0--0--0--0--|
--0-----------------------|--0--0------0--0------0--0--0--0--0--0--|


  S  S S S E  E  E  E  E  E     E   Q     E  E  E  E  E
-----------------------------|---------------------------|
-----------------------------|---------------------------|
-----------------------------|---------------------------|
--------------------8--8--8--|-----10b----L--------------|
--------------------5--5--5--|------7b----L--7--0--8--7--|
--8-10-8-0-7--0--------------|---------------------------|


  S  S S S E  E  E  E  E  E     S E  S E  S E   S  E  E  E
-----------------------------|------------------------------|
-----------------------------|------------------------------|
-----------------------------|------------------------------|
--------------------8--8--8--|------------------------------|
--------------------5--5--5--|------------------------------|
--8-10-8-0-7--0--------------|--0-0--8-8--7-7--10-10--8--7--|


  E  E  E  E  E  S S E  E     S E  S E  E   S  S  S E  S E
---------------------------|--------------------------------|
---------------------------|--------------------------------|
---------------------------|--------------------------------|
---------------------------|--------------------------------|
---------------------------|--------------------------------|
--5--------------5-5-5--7--|--8-8----------10-10-10-8--7-7--|


  PM                         PM PM   PM PM   PM PM   PM PM   PM
  E  E  E  E  E  E  E  E     S  S  S S  S  S S  S  S S  S  S E  E
--------------5--L--L--L--|----------------------------------------|
--------6--L--L--6--L--6--|----------------------------------------|
-----7--L--7--L--L--7--L--|----------------------------------------|
--0-----------------------|--0--0----0--0----0--0----0--0----0-----|
--0-----------------------|--0--0----0--0----0--0----0--0----0-----|
--0-----------------------|--0--0----0--0----0--0----0--0----0-----|


  E  E  E  E  E  E  E  E     E  E  E  E  E  E  E  E
--------------------------|--------------------------|
--------------------------|--------------------------|
--------------------------|--------------------------|
--0--0--0--0--0--0--0--0--|--8--8--8--8--8--8--8--8--|
--0--0--0--0--0--0--0--0--|--8--8--8--8--8--8--8--8--|
--0--0--0--0--0--0--0--0--|--8--8--8--8--8--8--8--8--|


  E  E  E  E  E  E  E  E     E  E  E  E  E  E  E  E
--------------------------|--------------------------|
--------------------------|--------------------------|
--------------------------|-----------------5--5--5--|
--3--3--3--3--3--3--3--3--|--3--3--3--3--3--5--5--5--|
--3--3--3--3--3--3--3--3--|--3--3--3--3--3--3--3--3--|
--3--3--3--3--3--3--3--3--|--3--3--3--3--3-----------|


  E  E  E  E  E  E  E  E     E  E  E  E  E  E  E  E
--------------------------|--------------------------|
--------------------------|--------------------------|
--------------------------|--------------------------|
--0--0--0--0--0--0--0--0--|--8--8--8--8--8--8--8--8--|
--0--0--0--0--0--0--0--0--|--8--8--8--8--8--8--8--8--|
--0--0--0--0--0--0--0--0--|--8--8--8--8--8--8--8--8--|


  E  E  E  E  E  E  E  E     E  E  E  E  E  E  E  E
--------------------------|--------------------------|
--------------------------|--------------------------|
--------------------------|--------------------------|
--------------------------|--------------------------|
--------------------------|--------------8--8--7--7--|
--3--3--3--3--5--5--5--5--|--7--7--8--8--------------|


  E  E  E  E  E  E  E  E     E  E  E  E  E  E  E  E
--------------------------|--------------------------|
--------------------------|--------------------------|
--------------------------|--------------------------|
--0--0--0--0--0--0--0--0--|--8--8--8--8--8--8--8--8--|
--0--0--0--0--0--0--0--0--|--8--8--8--8--8--8--8--8--|
--0--0--0--0--0--0--0--0--|--8--8--8--8--8--8--8--8--|


  E  E  E  E  E  E  E  E     E  E  E  E  E  E  E  E
--------------------------|--------------------------|
--------------------------|--------------------------|
--------------------------|-----------------5--5--5--|
--3--3--3--3--3--3--3--3--|--3--3--3--3--3--5--5--5--|
--3--3--3--3--3--3--3--3--|--3--3--3--3--3--3--3--3--|
--3--3--3--3--3--3--3--3--|--3--3--3--3--3-----------|


  E  E  E  E  E  E  E  E     E  E  E  E  E  E  E  E
--------------------------|--------------------------|
--------------------------|--------------------------|
--------------------------|--------------------------|
--0--0--0--0--0--0--0--0--|--8--8--8--8--8--8--8--8--|
--0--0--0--0--0--0--0--0--|--8--8--8--8--8--8--8--8--|
--0--0--0--0--0--0--0--0--|--8--8--8--8--8--8--8--8--|


  E  E  E  E  E  E  E  E     E  E  E  E  E  E  E  E
--------------------------|--------------------------|
--------------------------|--------------------------|
--------------------------|--------------------------|
--------------------------|--------------------------|
--------------------------|--------------8--8--7--7--|
--3--3--3--3--5--5--5--5--|--7--7--8--8--------------|


  S S S S E  E  S  S S S E  E     S S S S E  E  S S S E  S E
-------------------------------|------------------------------|
-------------------------------|------------------------------|
-------------------------------|------------------------------|
-------------------------------|------------------------------|
--7-8-7-0----------------------|------------------------------|
----------8--0--8-10-8-0-7--0--|--5-7-5-0-3--0--8-8-0-8--8-7--|


  S S S S E  E  S  S S S E  E     S S S S E  E  H
-------------------------------|-------------------------|
-------------------------------|-------------------------|
-------------------------------|-------------------------|
-------------------------------|-------------------------|
--7-8-7-0----------------------|-------------------------|
----------8--0--8-10-8-0-7--0--|--5-7-5-0-3--0-----------|


  S S S S S S S S S S S S S S S S    S S S S S S S S S S S S S S S S
----------------------------------|----------------------------------|
----------------------------------|----------------------------------|
----------------------------------|----------------------------------|
----------------------------------|----------------------------------|
----------------------------------|----------------------------------|
--1-1-1-1-1-1-1-1-1-1-1-1-1-1-1-1-|--1-1-1-1-1-1-1-1-1-1-1-1-2-2-2-2-|


  S S S S S S S S S S S S S S S S    S S S S S S S S S S S S S S S S
----------------------------------|----------------------------------|
----------------------------------|----------------------------------|
----------------------------------|----------------------------------|
----------------------------------|----------------------------------|
----------------------------------|----------------------------------|
--1-1-1-1-1-1-1-1-1-1-1-1-1-1-1-1-|--1-1-1-1-1-1-1-1-1---------------|


  PM PM PM PM PM PM    PM PM PM PM      PM PM PM PM PM PM PM PM PM PM
  S  S  S  S  E  E  E  E  E  S  S     S E  S  E  E  S  S  S  S  E  E
-----------------------------------|----------------------------------|
-----------------------------------|----------------------------------|
-----------------------------------|----------------------------------|
--0--0--0--0--0--0-----0--0--0--0--|--L-0--0--0--0--0--0--0--0--0--0--|
--0--0--0--0--0--0-----0--0--0--0--|--L-0--0--0--0--0--0--0--0--0--0--|
--0--0--0--0--0--0-----0--0--0--0--|--L-0--0--0--0--0--0--0--0--0--0--|


  PM PM PM PM PM PM    PM PM PM PM      PM PM PM PM PM PM PM PM PM PM
  S  S  S  S  E  E  E  E  E  S  S     S E  S  E  E  S  S  S  S  E  E
-----------------------------------|----------------------------------|
-----------------------------------|----------------------------------|
-----------------------------------|----------------------------------|
--0--0--0--0--0--0-----0--0--0--0--|--L-0--0--0--0--0--0--0--0--0--0--|
--0--0--0--0--0--0-----0--0--0--0--|--L-0--0--0--0--0--0--0--0--0--0--|
--0--0--0--0--0--0-----0--0--0--0--|--L-0--0--0--0--0--0--0--0--0--0--|


  PM PM PM PM PM PM    PM PM PM PM      PM PM PM PM PM PM PM PM PM PM
  S  S  S  S  E  E  E  E  E  S  S     S E  S  E  E  S  S  S  S  E  E
-----------------------------------|----------------------------------|
-----------------------------------|----------------------------------|
-----------------------------------|----------------------------------|
--0--0--0--0--0--0-----0--0--0--0--|--L-0--0--0--0--0--0--0--0--0--0--|
--0--0--0--0--0--0-----0--0--0--0--|--L-0--0--0--0--0--0--0--0--0--0--|
--0--0--0--0--0--0-----0--0--0--0--|--L-0--0--0--0--0--0--0--0--0--0--|


  PM PM PM PM PM PM    PM PM PM PM
  S  S  S  S  E  E  E  E  E  S  S
-----------------------------------|
-----------------------------------|
-----------------------------------|
--0--0--0--0--0--0-----0--0--0--0--|
--0--0--0--0--0--0-----0--0--0--0--|
--0--0--0--0--0--0-----0--0--0--0--|


    PM PM PM PM PM PM PM PM PM PM PM PM PM PM PM PM
  S E  S  E  E  S  S  S  S  T  T  T  T  T  T  T  T
----------------------------------------------------|
----------------------------------------------------|
----------------------------------------------------|
--L-0--0--0--0--0--0--0--0--------------------------|
--L-0--0--0--0--0--0--0--0--------------------------|
--L-0--0--0--0--0--0--0--0--0--0--0--0--0--0--0--0--|


  PM PM   PM PM   PM PM   PM PM   PM PM   PM
  S  S  S S  S  S S  S  S S  S  S S  S  S S
---------------------------------------------|
---------------------------------------------|
---------------------------------------------|
--0--0----0--0----0--0----0--0----0--0----0--|
--0--0----0--0----0--0----0--0----0--0----0--|
--0--0----0--0----0--0----0--0----0--0----0--|


  PM   PM PM   PM PM   PM PM PM PM PM PM PM PM    PM                   PM PM
  S  S S  S  S S  S  S S  S  S  S  S  S  S  S     E  E  E  E  E  S S S S  S  S
-----------------------------------------------|-------------------------------|
-----------------------------------------------|-------------------------------|
-----------------------------------------------|-------------------------------|
--0----0--0----0--0----0--0--0--0--0--0--0--0--|--0--------------------0--0----|
--0----0--0----0--0----0--0--0--0--0--0--0--0--|--0--------------------0--0----|
--0----0--0----0--0----0--0--0--0--0--0--0--0--|--0--------------------0--0----|


  PM PM             PM PM PM PM PM PM    PM PM PM PM PM PM    PM PM PM PM
  S  S  S S S S S S S  S  S  S  E  E     S  S  S  S  E  E  E  E  E  S  S
--------------------------------------|-----------------------------------|
--------------------------------------|-----------------------------------|
--------------------------------------|-----------------------------------|
--0--0--------------0--0--0--0--0--0--|--0--0--0--0--0--0-----0--0--0--0--|
--0--0--------------0--0--0--0--0--0--|--0--0--0--0--0--0-----0--0--0--0--|
--0--0--------------0--0--0--0--0--0--|--0--0--0--0--0--0-----0--0--0--0--|


    PM PM PM PM PM PM PM PM PM PM    PM PM PM PM PM PM    PM PM PM PM
  S E  S  E  E  S  S  S  S  E  E     S  S  S  S  E  E  E  E  E  S  S
----------------------------------|-----------------------------------|
----------------------------------|-----------------------------------|
----------------------------------|-----------------------------------|
--L-0--0--0--0--0--0--0--0--0--0--|--0--0--0--0--0--0-----0--0--0--0--|
--L-0--0--0--0--0--0--0--0--0--0--|--0--0--0--0--0--0-----0--0--0--0--|
--L-0--0--0--0--0--0--0--0--0--0--|--0--0--0--0--0--0-----0--0--0--0--|


    PM PM PM PM PM PM PM PM PM PM    PM PM PM PM PM PM PM PM
  S E  S  E  E  S  S  S  S  E  E     E  E  E  E  E  E  E  E
----------------------------------|--------------------------|
----------------------------------|--------------------------|
----------------------------------|--7--7--7--7--7--7--7--7--|
--L-0--0--0--0--0--0--0--0--0--0--|--7--7--7--7--7--7--7--7--|
--L-0--0--0--0--0--0--0--0--0--0--|--5--5--5--5--5--5--5--5--|
--L-0--0--0--0--0--0--0--0--0--0--|--------------------------|


  PM PM PM PM PM PM PM PM    PM PM PM PM PM PM PM PM
  E  E  E  E  E  E  E  E     E  E  E  E  E  E  E  E
--------------------------|--------------------------|
--------------------------|--------------------------|
--------------------------|--------------------------|
--8--8--8--8--8--8--8--8--|--3--3--3--3--3--3--3--3--|
--8--8--8--8--8--8--8--8--|--3--3--3--3--3--3--3--3--|
--8--8--8--8--8--8--8--8--|--3--3--3--3--3--3--3--3--|


  PM PM PM PM PM PM PM PM    PM PM PM PM PM PM PM PM
  E  E  E  E  E  E  E  E     E  E  E  E  E  E  E  E
--------------------------|--------------------------|
--------------------------|--------------------------|
-----------------5--5--5--|--7--7--7--7--7--7--7--7--|
--3--3--3--3--3--5--5--5--|--7--7--7--7--7--7--7--7--|
--3--3--3--3--3--3--3--3--|--5--5--5--5--5--5--5--5--|
--3--3--3--3--3-----------|--------------------------|


  PM PM PM PM PM PM PM PM
  E  E  E  E  E  E  E  E     E  E  E  E  E  E  E  E
--------------------------|--------------------------|
--------------------------|--------------------------|
--------------------------|--------------------------|
--8--8--8--8--8--8--8--8--|--------------------------|
--8--8--8--8--8--8--8--8--|--------------------------|
--8--8--8--8--8--8--8--8--|--3--3--3--3--5--5--5--5--|


  E  E  E  E  E  E  E  E     E  E  E  E  E  E  E  E
--------------------------|--------------------------|
--------------------------|--------------------------|
--------------------------|--------------------------|
--------------------------|--0--0--0--0--0--0--0--0--|
--------------8--8--7--7--|--0--0--0--0--0--0--0--0--|
--7--7--8--8--------------|--0--0--0--0--0--0--0--0--|


  E  E  E  E  E  E  E  E     E  E  E  E  E  E  E  E
--------------------------|--------------------------|
--------------------------|--------------------------|
--------------------------|--------------------------|
--8--8--8--8--8--8--8--8--|--3--3--3--3--3--3--3--3--|
--8--8--8--8--8--8--8--8--|--3--3--3--3--3--3--3--3--|
--8--8--8--8--8--8--8--8--|--3--3--3--3--3--3--3--3--|


  E  E  E  E  E  E  E  E     E  E  E  E  E  E  E  E
--------------------------|--------------------------|
--------------------------|--------------------------|
-----------------5--5--5--|--------------------------|
--3--3--3--3--3--5--5--5--|--0--0--0--0--0--0--0--0--|
--3--3--3--3--3--3--3--3--|--0--0--0--0--0--0--0--0--|
--3--3--3--3--3-----------|--0--0--0--0--0--0--0--0--|


  E  E  E  E  E  E  E  E     E  E  E  E  E  E  E  E
--------------------------|--------------------------|
--------------------------|--------------------------|
--------------------------|--------------------------|
--8--8--8--8--8--8--8--8--|--------------------------|
--8--8--8--8--8--8--8--8--|--------------------------|
--8--8--8--8--8--8--8--8--|--3--3--3--3--5--5--5--5--|


  E  E  E  E  E  E  E  E     E  E  E  E  E  E  E  E
--------------------------|--------------------------|
--------------------------|--------------------------|
--------------------------|--------------------------|
--------------------------|--0--0--0--0--0--0--0--0--|
--------------8--8--7--7--|--0--0--0--0--0--0--0--0--|
--7--7--8--8--------------|--0--0--0--0--0--0--0--0--|


  E  E  E  E  E  E  E  E     E  E  E  E  E  E  E  E
--------------------------|--------------------------|
--------------------------|--------------------------|
--------------------------|--------------------------|
--8--8--8--8--8--8--8--8--|--3--3--3--3--3--3--3--3--|
--8--8--8--8--8--8--8--8--|--3--3--3--3--3--3--3--3--|
--8--8--8--8--8--8--8--8--|--3--3--3--3--3--3--3--3--|


  E  E  E  E  E  E  E  E     E  E  E  E  E  E  E  E
--------------------------|--------------------------|
--------------------------|--------------------------|
-----------------5--5--5--|--------------------------|
--3--3--3--3--3--5--5--5--|--0--0--0--0--0--0--0--0--|
--3--3--3--3--3--3--3--3--|--0--0--0--0--0--0--0--0--|
--3--3--3--3--3-----------|--0--0--0--0--0--0--0--0--|


  E  E  E  E  E  E  E  E     E  E  E  E  E  E  E  E
--------------------------|--------------------------|
--------------------------|--------------------------|
--------------------------|--------------------------|
--8--8--8--8--8--8--8--8--|--------------------------|
--8--8--8--8--8--8--8--8--|--------------------------|
--8--8--8--8--8--8--8--8--|--3--3--3--3--5--5--5--5--|


                             PM PM PM PM PM PM    PM PM PM PM
  E  E  E  E  E  E  E  E     S  S  S  S  E  E  E  E  E  S  S
--------------------------|-----------------------------------|
--------------------------|-----------------------------------|
--------------------------|-----------------------------------|
--------------------------|--0--0--0--0--0--0-----0--0--0--0--|
--------------8--8--7--7--|--0--0--0--0--0--0-----0--0--0--0--|
--7--7--8--8--------------|--0--0--0--0--0--0-----0--0--0--0--|


    PM PM PM PM PM PM PM PM PM PM    PM PM PM PM PM PM    PM PM PM PM
  S E  S  E  E  S  S  S  S  E  E     S  S  S  S  E  E  E  E  E  S  S
----------------------------------|-----------------------------------|
----------------------------------|-----------------------------------|
----------------------------------|-----------------------------------|
--L-0--0--0--0--0--0--0--0--0--0--|--0--0--0--0--0--0-----0--0--0--0--|
--L-0--0--0--0--0--0--0--0--0--0--|--0--0--0--0--0--0-----0--0--0--0--|
--L-0--0--0--0--0--0--0--0--0--0--|--0--0--0--0--0--0-----0--0--0--0--|


    PM PM PM PM         PM PM    PM PM   PM PM   PM PM   PM PM   PM PM   PM
  S E  S  E  E  S S S S E  E     S  S  S S  S  S S  S  S S  S  S S  S  S S
------------------------------|---------------------------------------------|
------------------------------|---------------------------------------------|
------------------------------|---------------------------------------------|
--L-0--0--0--0----------0--0--|--0--0----0--0----0--0----0--0----0--0----0--|
--L-0--0--0--0----------0--0--|--0--0----0--0----0--0----0--0----0--0----0--|
--L-0--0--0--0----------0--0--|--0--0----0--0----0--0----0--0----0--0----0--|


  PM   PM PM   PM PM   PM PM PM PM PM PM PM PM
  S  S S  S  S S  S  S S  S  S  S  S  S  S  S
-----------------------------------------------|
-----------------------------------------------|
-----------------------------------------------|
--0----0--0----0--0----0--0--0--0--0--0--0--0--|
--0----0--0----0--0----0--0--0--0--0--0--0--0--|
--0----0--0----0--0----0--0--0--0--0--0--0--0--|


  PM             PM PM   PM PM      PM PM             PM PM PM PM PM PM
  E  E  E  E  E  S  S  S S  S  S    S  S  S S S S S S S  S  S  S  E  E
---------------------------------|--------------------------------------|-----||
---------------------------------|--------------------------------------|-----||
---------------------------------|--------------------------------------|-----||
--0--------------0--0----0--0----|--0--0--------------0--0--0--0--0--0--|-----||
--0--------------0--0----0--0----|--0--0--------------0--0--0--0--0--0--|-----||
--0--------------0--0----0--0----|--0--0--------------0--0--0--0--0--0--|-----||


Guitar 2

                           PM PM
     E   E  E  E  E  E  E  S  S     E  E  E  E  E  E  E  E
D||------------------------------|--------------------------|
A||------------------------------|--------------------------|
F||------------------------------|--------------------------|
C||---------7-----7--------------|--------------------3--L--|
G||------------0-----8--0--0--0--|--5--0-----7--0--7--L--7--|
C||--5S--8-----------------------|--------3-----------------|


  E   E  E  E  E  E  E  E     E  S S E  E  S S E  S S E
---------------------------|-----------------------------|
---------------------------|-----------------------------|
---------------------------|---------------9-9-9--9-9-9--|
---------5-----------7-----|---------------x-x-x--x-x-x--|
------------0--7--8-----8--|--0--8-8-8-----8-8-8--8-8-8--|
--5S--8--------------------|------------8----------------|


                        PM PM
  E   E  E  E  E  E  E  S  S     E  E  E  E  E  E  E  E
------------------------------|--------------------------|
------------------------------|--------------------------|
------------------------------|--------------------------|
---------7-----7--------------|--------------------3--L--|
------------0-----8--0--0--0--|--5--0-----7--0--7--L--7--|
--5S--8-----------------------|--------3-----------------|


                                           PM PM PM PM PM PM
  E   E  E  E  E  E  E  E     E  S S E  E  S  S  E  S  S  E
---------------------------|---------------------------------|-----|-----|
---------------------------|---------------------------------|-----|-----|
---------------------------|---------------------------------|-----|-----|
---------5-----------7-----|---------------0--0--0--0--0--0--|-----|-----|
------------0--7--8-----8--|--0--8-8-8-----0--0--0--0--0--0--|-----|-----|
--5S--8--------------------|------------8--0--0--0--0--0--0--|-----|-----|


  S  S S S E  E  E  E  E  E     E   Q     E  E  E   E  E
-----------------------------|----------------------------|
-----------------------------|----------------------------|
-----------------------------|---------------9-----10--9--|
--------------------8--8--8--|-----10b----L-----7---------|
--------------------5--5--5--|------7b----L---------------|
--8-10-8-0-7--0--------------|----------------------------|


  S  S S S E  E  E  E  E  E     S E  S E  S E   S  E  E  E
-----------------------------|------------------------------|
-----------------------------|------------------------------|
-----------------------------|------------------------------|
--------------------8--8--8--|------------------------------|
--------------------5--5--5--|------------------------------|
--8-10-8-0-7--0--------------|--0-0--8-8--7-7--10-10--8--7--|


  E  E  E  E  E  S S E  E     S E  S E  E   S  S  S E  S E
---------------------------|--------------------------------|
---------------------------|--------------------------------|
---------------------------|--------------------------------|
---------------------------|--------------------------------|
---------------------------|--------------------------------|
--5--------------5-5-5--7--|--8-8----------10-10-10-8--7-7--|


  PM                                PM PM     PM PM     PM PM PM PM PM PM
  E   E   E   E   E   E   E   E     S  S  S S S  S  S S S  S  S  E  S  E
-----------------10---L---L---L--|----------------------------------------|
---------10---L---L--10---L--10--|----------------------------------------|
-----12---L--12---L---L--12---L--|----------------------------------------|
--0------------------------------|--0--0------0--0------0--0--0--0--0--0--|
--0------------------------------|--0--0------0--0------0--0--0--0--0--0--|
--0------------------------------|--0--0------0--0------0--0--0--0--0--0--|


  S  S S S E  E  E  E  E  E     E   Q     E  E  E   E  E
-----------------------------|----------------------------|
-----------------------------|----------------------------|
-----------------------------|---------------9-----10--9--|
--------------------8--8--8--|-----10b----L-----7---------|
--------------------5--5--5--|------7b----L---------------|
--8-10-8-0-7--0--------------|----------------------------|


  S  S S S E  E  E  E  E  E     S E  S E  S E   S  E  E  E
-----------------------------|------------------------------|
-----------------------------|------------------------------|
-----------------------------|------------------------------|
--------------------8--8--8--|------------------------------|
--------------------5--5--5--|------------------------------|
--8-10-8-0-7--0--------------|--0-0--8-8--7-7--10-10--8--7--|


  E  E  E  E  E  S S E  E     S E  S E  E   S  S  S E  S E
---------------------------|--------------------------------|
---------------------------|--------------------------------|
---------------------------|--------------------------------|
---------------------------|--------------------------------|
---------------------------|--------------------------------|
--5--------------5-5-5--7--|--8-8----------10-10-10-8--7-7--|


  PM                                PM PM     PM PM     PM PM PM PM PM PM
  E   E   E   E   E   E   E   E     S  S  S S S  S  S S S  S  S  E  S  E
-----------------10---L---L---L--|----------------------------------------|
---------10---L---L--10---L--10--|----------------------------------------|
-----12---L--12---L---L--12---L--|----------------------------------------|
--0------------------------------|--0--0------0--0------0--0--0--0--0--0--|
--0------------------------------|--0--0------0--0------0--0--0--0--0--0--|
--0------------------------------|--0--0------0--0------0--0--0--0--0--0--|


  PM
  E  E  E  E  E  E  E  E            E   E   E   E   E   E   E   E
--------------------------|-----|--17------------------------------|
--------------------------|-----|------15--18--15--17--15------15--|
--------------------------|-----|--------------------------17------|
--0-----------------------|-----|----------------------------------|
--0-----------------------|-----|----------------------------------|
--0-----------------------|-----|----------------------------------|


   E   E   E   E   E   E   E   E      E   E   E   E   E   E   E   E
--17------------------------------|--18------------------------------|
------15--18--15--17--15------15--|------15--18--15--17--15------15--|
--------------------------17------|--------------------------17------|
----------------------------------|----------------------------------|
----------------------------------|----------------------------------|
----------------------------------|----------------------------------|


   E   E   E   E   E   E   E   E      E   E   E   E   E   E   E   E
--------------------------15------|--17------------------------------|
--17--15------15--18--15------15--|------15--18--15--17--15------15--|
----------17----------------------|--------------------------17------|
----------------------------------|----------------------------------|
----------------------------------|----------------------------------|
----------------------------------|----------------------------------|


   E   E   E   E   E   E   E   E      E   E   E   E   E   E   E   E
--17------------------------------|--18------------------------------|
------15--18--15--17--15------15--|------15--18--15--17--15------15--|
--------------------------17------|--------------------------17------|
----------------------------------|----------------------------------|
----------------------------------|----------------------------------|
----------------------------------|----------------------------------|


   E   E   E   E   E   E   E   E      E   E   E   E   E   E   E   E
--------------------------15------|--17------------------------------|
--17--15------15--18--15------15--|------15--18--15--17--15------15--|
----------17----------------------|--------------------------17------|
----------------------------------|----------------------------------|
----------------------------------|----------------------------------|
----------------------------------|----------------------------------|


   E   E   E   E   E   E   E   E      E   E   E   E   E   E   E   E
--17------------------------------|--18------------------------------|
------15--18--15--17--15------15--|------15--18--15--17--15------15--|
--------------------------17------|--------------------------17------|
----------------------------------|----------------------------------|
----------------------------------|----------------------------------|
----------------------------------|----------------------------------|


   E   E   E   E   E   E   E   E      E   E   E   E   E   E   E   E
--------------------------15------|--17------------------------------|
--17--15------15--18--15------15--|------15--18--15--17--15------15--|
----------17----------------------|--------------------------17------|
----------------------------------|----------------------------------|
----------------------------------|----------------------------------|
----------------------------------|----------------------------------|


   E   E   E   E   E   E   E   E      E   E   E   E   E   E   E   E
--17------------------------------|--18------------------------------|
------15--18--15--17--15------15--|------15--18--15--17--15------15--|
--------------------------17------|--------------------------17------|
----------------------------------|----------------------------------|
----------------------------------|----------------------------------|
----------------------------------|----------------------------------|


                                                           PM PM
   E   E   E   E   E   E   E   E     E   E  E  E  E  E  E  S  S
--------------------------15------|------------------------------|
--17--15------15--18--15------15--|------------------------------|
----------17----------------------|------------------------------|
----------------------------------|---------7-----7--------------|
----------------------------------|------------0-----8--0--0--0--|
----------------------------------|--5S--8-----------------------|


  E  E  E  E  E  E  E  E     E   E  E  E  E  E  E  E
--------------------------|---------------------------|
--------------------------|---------------------------|
--------------------------|---------------------------|
--------------------3--L--|---------5-----------7-----|
--5--0-----7--0--7--L--7--|------------0--7--8-----8--|
--------3-----------------|--5S--8--------------------|


  E  S S E  E  S S E  S S E           S  S S S E  E  E  E  E  E
-----------------------------|---s-|-----------------------------|
-----------------------------|-p-l-|-----------------------------|
---------------9-9-9--9-9-9--|-i-i-|-----------------------------|
---------------x-x-x--x-x-x--|-c-d-|--------------------8--8--8--|
--0--8-8-8-----8-8-8--8-8-8--|-k-e-|--------------------5--5--5--|
------------8----------------|-----|--8-10-8-0-7--0--------------|


  E   Q     E  E  E   E  E     S  S S S E  E  E  E  E  E
----------------------------|-----------------------------|
----------------------------|-----------------------------|
---------------9-----10--9--|-----------------------------|
-----10b----L-----7---------|--------------------8--8--8--|
------7b----L---------------|--------------------5--5--5--|
----------------------------|--8-10-8-0-7--0--------------|


  S E  S E  S E   S  E  E  E     E  E  E  E  E  S S E  E
------------------------------|---------------------------|
------------------------------|---------------------------|
------------------------------|---------------------------|
------------------------------|---------------------------|
------------------------------|---------------------------|
--0-0--8-8--7-7--10-10--8--7--|--5--------------5-5-5--7--|


                                   PM
  S E  S E  E   S  S  S E  S E     E   E   E   E   E   E   E   E
--------------------------------|-----------------10---L---L---L--|
--------------------------------|---------10---L---L--10---L--10--|
--------------------------------|-----12---L--12---L---L--12---L--|
--------------------------------|--0------------------------------|
--------------------------------|--0------------------------------|
--8-8----------10-10-10-8--7-7--|--0------------------------------|


  PM PM     PM PM     PM PM PM PM PM PM
  S  S  S S S  S  S S S  S  S  E  S  E     S  S S S E  E  E  E  E  E
----------------------------------------|-----------------------------|
----------------------------------------|-----------------------------|
----------------------------------------|-----------------------------|
--0--0------0--0------0--0--0--0--0--0--|--------------------8--8--8--|
--0--0------0--0------0--0--0--0--0--0--|--------------------5--5--5--|
--0--0------0--0------0--0--0--0--0--0--|--8-10-8-0-7--0--------------|


  E   Q     E  E  E   E  E     S  S S S E  E  E  E  E  E
----------------------------|-----------------------------|
----------------------------|-----------------------------|
---------------9-----10--9--|-----------------------------|
-----10b----L-----7---------|--------------------8--8--8--|
------7b----L---------------|--------------------5--5--5--|
----------------------------|--8-10-8-0-7--0--------------|


  S E  S E  S E   S  E  E  E     E  E  E  E  E  S S E  E
------------------------------|---------------------------|
------------------------------|---------------------------|
------------------------------|---------------------------|
------------------------------|---------------------------|
------------------------------|---------------------------|
--0-0--8-8--7-7--10-10--8--7--|--5--------------5-5-5--7--|


                                   PM
  S E  S E  E   S  S  S E  S E     E   E   E   E   E   E   E   E
--------------------------------|-----------------10---L---L---L--|
--------------------------------|---------10---L---L--10---L--10--|
--------------------------------|-----12---L--12---L---L--12---L--|
--------------------------------|--0------------------------------|
--------------------------------|--0------------------------------|
--8-8----------10-10-10-8--7-7--|--0------------------------------|


  PM PM   PM PM   PM PM   PM PM   PM
  S  S  S S  S  S S  S  S S  S  S E  E      E   E   E   E   E   E   E   E
----------------------------------------|--17------------------------------|
----------------------------------------|------15--18--15--17--15------15--|
----------------------------------------|--------------------------17------|
--0--0----0--0----0--0----0--0----0-----|----------------------------------|
--0--0----0--0----0--0----0--0----0-----|----------------------------------|
--0--0----0--0----0--0----0--0----0-----|----------------------------------|


   E   E   E   E   E   E   E   E      E   E   E   E   E   E   E   E
--17------------------------------|--18------------------------------|
------15--18--15--17--15------15--|------15--18--15--17--15------15--|
--------------------------17------|--------------------------17------|
----------------------------------|----------------------------------|
----------------------------------|----------------------------------|
----------------------------------|----------------------------------|


   E   E   E   E   E   E   E   E      E   E   E   E   E   E   E   E
--------------------------15------|--17------------------------------|
--17--15------15--18--15------15--|------15--18--15--17--15------15--|
----------17----------------------|--------------------------17------|
----------------------------------|----------------------------------|
----------------------------------|----------------------------------|
----------------------------------|----------------------------------|


   E   E   E   E   E   E   E   E      E   E   E   E   E   E   E   E
--17------------------------------|--18------------------------------|
------15--18--15--17--15------15--|------15--18--15--17--15------15--|
--------------------------17------|--------------------------17------|
----------------------------------|----------------------------------|
----------------------------------|----------------------------------|
----------------------------------|----------------------------------|


   E   E   E   E   E   E   E   E      E   E   E   E   E   E   E   E
--------------------------15------|--17------------------------------|
--17--15------15--18--15------15--|------15--18--15--17--15------15--|
----------17----------------------|--------------------------17------|
----------------------------------|----------------------------------|
----------------------------------|----------------------------------|
----------------------------------|----------------------------------|


   E   E   E   E   E   E   E   E      E   E   E   E   E   E   E   E
--17------------------------------|--18------------------------------|
------15--18--15--17--15------15--|------15--18--15--17--15------15--|
--------------------------17------|--------------------------17------|
----------------------------------|----------------------------------|
----------------------------------|----------------------------------|
----------------------------------|----------------------------------|


   E   E   E   E   E   E   E   E      E   E   E   E   E   E   E   E
--------------------------15------|--17------------------------------|
--17--15------15--18--15------15--|------15--18--15--17--15------15--|
----------17----------------------|--------------------------17------|
----------------------------------|----------------------------------|
----------------------------------|----------------------------------|
----------------------------------|----------------------------------|


   E   E   E   E   E   E   E   E      E   E   E   E   E   E   E   E
--17------------------------------|--18------------------------------|
------15--18--15--17--15------15--|------15--18--15--17--15------15--|
--------------------------17------|--------------------------17------|
----------------------------------|----------------------------------|
----------------------------------|----------------------------------|
----------------------------------|----------------------------------|


   E   E   E   E   E   E   E   E     S S S S E  E  S  S S S E  E
--------------------------15------|-------------------------------|
--17--15------15--18--15------15--|-------------------------------|
----------17----------------------|-------------------------------|
----------------------------------|-------------------------------|
----------------------------------|--7-8-7-0----------------------|
----------------------------------|----------8--0--8-10-8-0-7--0--|


  S S S S E  E  S S S E  S E     S S S S E  E  S  S S S E  E
------------------------------|-------------------------------|
------------------------------|-------------------------------|
------------------------------|-------------------------------|
------------------------------|-------------------------------|
------------------------------|--7-8-7-0----------------------|
--5-7-5-0-3--0--8-8-0-8--8-7--|----------8--0--8-10-8-0-7--0--|


  S S S S E  E  H           S S S S S S S S S S S S S S S S
-------------------------|----------------------------------|
-------------------------|----------------------------------|
-------------------------|----------------------------------|
-------------------------|----------------------------------|
-------------------------|----------------------------------|
--5-7-5-0-3--0-----------|--1-1-1-1-1-1-1-1-1-1-1-1-1-1-1-1-|


  S S S S S S S S S S S S S S S S    S S S S S S S S S S S S S S S S
----------------------------------|----------------------------------|
----------------------------------|----------------------------------|
----------------------------------|----------------------------------|
----------------------------------|----------------------------------|
----------------------------------|----------------------------------|
--1-1-1-1-1-1-1-1-1-1-1-1-2-2-2-2-|--1-1-1-1-1-1-1-1-1-1-1-1-1-1-1-1-|


                                     PM PM PM PM PM PM    PM PM PM PM
  S S S S S S S S S S S S S S S S    S  S  S  S  E  E  E  E  E  S  S
----------------------------------|-----------------------------------|
----------------------------------|-----------------------------------|
----------------------------------|-----------------------------------|
----------------------------------|--0--0--0--0--0--0-----0--0--0--0--|
----------------------------------|--0--0--0--0--0--0-----0--0--0--0--|
--1-1-1-1-1-1-1-1-1---------------|--0--0--0--0--0--0-----0--0--0--0--|


    PM PM PM PM PM PM PM PM PM PM    PM PM PM PM PM PM    PM PM PM PM
  S E  S  E  E  S  S  S  S  E  E     S  S  S  S  E  E  E  E  E  S  S
----------------------------------|-----------------------------------|
----------------------------------|-----------------------------------|
----------------------------------|-----------------------------------|
--L-0--0--0--0--0--0--0--0--0--0--|--0--0--0--0--0--0-----0--0--0--0--|
--L-0--0--0--0--0--0--0--0--0--0--|--0--0--0--0--0--0-----0--0--0--0--|
--L-0--0--0--0--0--0--0--0--0--0--|--0--0--0--0--0--0-----0--0--0--0--|


    PM PM PM PM PM PM PM PM PM PM    PM PM PM PM PM PM    PM PM PM PM
  S E  S  E  E  S  S  S  S  E  E     S  S  S  S  E  E  E  E  E  S  S
----------------------------------|-----------------------------------|
----------------------------------|-----------------------------------|
----------------------------------|-----------------------------------|
--L-0--0--0--0--0--0--0--0--0--0--|--0--0--0--0--0--0-----0--0--0--0--|
--L-0--0--0--0--0--0--0--0--0--0--|--0--0--0--0--0--0-----0--0--0--0--|
--L-0--0--0--0--0--0--0--0--0--0--|--0--0--0--0--0--0-----0--0--0--0--|


    PM PM PM PM PM PM PM PM PM PM    PM PM PM PM PM PM    PM PM PM PM
  S E  S  E  E  S  S  S  S  E  E     S  S  S  S  E  E  E  E  E  S  S
----------------------------------|-----------------------------------|
----------------------------------|-----------------------------------|
----------------------------------|-----------------------------------|
--L-0--0--0--0--0--0--0--0--0--0--|--0--0--0--0--0--0-----0--0--0--0--|
--L-0--0--0--0--0--0--0--0--0--0--|--0--0--0--0--0--0-----0--0--0--0--|
--L-0--0--0--0--0--0--0--0--0--0--|--0--0--0--0--0--0-----0--0--0--0--|


    PM PM PM PM PM PM PM PM PM PM PM PM PM PM PM PM
  S E  S  E  E  S  S  S  S  T  T  T  T  T  T  T  T
----------------------------------------------------|
----------------------------------------------------|
----------------------------------------------------|
--L-0--0--0--0--0--0--0--0--------------------------|
--L-0--0--0--0--0--0--0--0--------------------------|
--L-0--0--0--0--0--0--0--0--0--0--0--0--0--0--0--0--|


  PM PM   PM PM   PM PM   PM PM   PM PM   PM
  S  S  S S  S  S S  S  S S  S  S S  S  S S
---------------------------------------------|
---------------------------------------------|
---------------------------------------------|
--0--0----0--0----0--0----0--0----0--0----0--|
--0--0----0--0----0--0----0--0----0--0----0--|
--0--0----0--0----0--0----0--0----0--0----0--|


  PM   PM PM   PM PM   PM PM PM PM PM PM PM PM    PM             PM PM
  S  S S  S  S S  S  S S  S  S  S  S  S  S  S     E  E  E  E  E  S  S  S S S S
-----------------------------------------------|-------------------------------|
-----------------------------------------------|-------------------------------|
-----------------------------------------------|-------------------------------|
--0----0--0----0--0----0--0--0--0--0--0--0--0--|--0--------------0--0----------|
--0----0--0----0--0----0--0--0--0--0--0--0--0--|--0--------------0--0----------|
--0----0--0----0--0----0--0--0--0--0--0--0--0--|--0--------------0--0----------|


  PM PM             PM PM PM PM PM PM    PM PM PM PM PM PM    PM PM PM PM
  S  S  S S S S S S S  S  S  S  E  E     S  S  S  S  E  E  E  E  E  S  S
--------------------------------------|-----------------------------------|
--------------------------------------|-----------------------------------|
--------------------------------------|-----------------------------------|
--0--0--------------0--0--0--0--0--0--|--0--0--0--0--0--0-----0--0--0--0--|
--0--0--------------0--0--0--0--0--0--|--0--0--0--0--0--0-----0--0--0--0--|
--0--0--------------0--0--0--0--0--0--|--0--0--0--0--0--0-----0--0--0--0--|


    PM PM PM PM PM PM PM PM PM PM    PM PM PM PM PM PM    PM PM PM PM
  S E  S  E  E  S  S  S  S  E  E     S  S  S  S  E  E  E  E  E  S  S
----------------------------------|-----------------------------------|
----------------------------------|-----------------------------------|
----------------------------------|-----------------------------------|
--L-0--0--0--0--0--0--0--0--0--0--|--0--0--0--0--0--0-----0--0--0--0--|
--L-0--0--0--0--0--0--0--0--0--0--|--0--0--0--0--0--0-----0--0--0--0--|
--L-0--0--0--0--0--0--0--0--0--0--|--0--0--0--0--0--0-----0--0--0--0--|


    PM PM PM PM PM PM PM PM PM PM
  S E  S  E  E  S  S  S  S  E  E      Q    E   Q    E   Q
----------------------------------|--------------------------|
----------------------------------|--------------------------|
----------------------------------|--------------------------|
--L-0--0--0--0--0--0--0--0--0--0--|--14----L--12----L--15----|
--L-0--0--0--0--0--0--0--0--0--0--|--------------------------|
--L-0--0--0--0--0--0--0--0--0--0--|--------------------------|


  W                    Q    E   Q    E   Q       E   Q     H        E
-------------------|--------------------------|------------------------|
-------------------|--------------------------|------------------------|
-------------------|--------------------------|-----14b----L--------L--|
--L----------------|--14----L--12----L--15----|--L---------------------|
-------------------|--------------------------|------------------------|
-------------------|--------------------------|------------------------|


   Q    E   Q    E   Q       W                   W
--------------------------|-------------------|-------------------|
--------------------------|-------------------|-------------------|
--------------------------|-------------------|-------------------|
--14----L--12----L--15----|--L----------------|--L----------------|
--------------------------|-------------------|-------------------|
--------------------------|-------------------|-------------------|


  W                    E   E   E   E   E   E   E   E
-------------------|--17------------------------------|
-------------------|------15--18--15--17--15------15--|
-------------------|--------------------------17------|
--L----------------|----------------------------------|
-------------------|----------------------------------|
-------------------|----------------------------------|


   E   E   E   E   E   E   E   E      E   E   E   E   E   E   E   E
--17------------------------------|--18------------------------------|
------15--18--15--17--15------15--|------15--18--15--17--15------15--|
--------------------------17------|--------------------------17------|
----------------------------------|----------------------------------|
----------------------------------|----------------------------------|
----------------------------------|----------------------------------|


   E   E   E   E   E   E   E   E      E   E   E   E   E   E   E   E
--------------------------15------|--17------------------------------|
--17--15------15--18--15------15--|------15--18--15--17--15------15--|
----------17----------------------|--------------------------17------|
----------------------------------|----------------------------------|
----------------------------------|----------------------------------|
----------------------------------|----------------------------------|


   E   E   E   E   E   E   E   E      E   E   E   E   E   E   E   E
--17------------------------------|--18------------------------------|
------15--18--15--17--15------15--|------15--18--15--17--15------15--|
--------------------------17------|--------------------------17------|
----------------------------------|----------------------------------|
----------------------------------|----------------------------------|
----------------------------------|----------------------------------|


   E   E   E   E   E   E   E   E      E   E   E   E   E   E   E   E
--------------------------15------|--17------------------------------|
--17--15------15--18--15------15--|------15--18--15--17--15------15--|
----------17----------------------|--------------------------17------|
----------------------------------|----------------------------------|
----------------------------------|----------------------------------|
----------------------------------|----------------------------------|


   E   E   E   E   E   E   E   E      E   E   E   E   E   E   E   E
--17------------------------------|--18------------------------------|
------15--18--15--17--15------15--|------15--18--15--17--15------15--|
--------------------------17------|--------------------------17------|
----------------------------------|----------------------------------|
----------------------------------|----------------------------------|
----------------------------------|----------------------------------|


   E   E   E   E   E   E   E   E      E   E   E   E   E   E   E   E
--------------------------15------|--17------------------------------|
--17--15------15--18--15------15--|------15--18--15--17--15------15--|
----------17----------------------|--------------------------17------|
----------------------------------|----------------------------------|
----------------------------------|----------------------------------|
----------------------------------|----------------------------------|


   E   E   E   E   E   E   E   E      E   E   E   E   E   E   E   E
--17------------------------------|--18------------------------------|
------15--18--15--17--15------15--|------15--18--15--17--15------15--|
--------------------------17------|--------------------------17------|
----------------------------------|----------------------------------|
----------------------------------|----------------------------------|
----------------------------------|----------------------------------|


                                     PM PM PM PM PM PM    PM PM PM PM
   E   E   E   E   E   E   E   E     S  S  S  S  E  E  E  E  E  S  S
--------------------------15------|-----------------------------------|
--17--15------15--18--15------15--|-----------------------------------|
----------17----------------------|-----------------------------------|
----------------------------------|--0--0--0--0--0--0-----0--0--0--0--|
----------------------------------|--0--0--0--0--0--0-----0--0--0--0--|
----------------------------------|--0--0--0--0--0--0-----0--0--0--0--|


    PM PM PM PM PM PM PM PM PM PM    PM PM PM PM PM PM    PM PM PM PM
  S E  S  E  E  S  S  S  S  E  E     S  S  S  S  E  E  E  E  E  S  S
----------------------------------|-----------------------------------|
----------------------------------|-----------------------------------|
----------------------------------|-----------------------------------|
--L-0--0--0--0--0--0--0--0--0--0--|--0--0--0--0--0--0-----0--0--0--0--|
--L-0--0--0--0--0--0--0--0--0--0--|--0--0--0--0--0--0-----0--0--0--0--|
--L-0--0--0--0--0--0--0--0--0--0--|--0--0--0--0--0--0-----0--0--0--0--|


    PM PM PM PM PM PM PM PM
  S E  S  E  E  S  S  S  S  E  E
----------------------------------|
----------------------------------|
----------------------------------|
--L-0--0--0--0--0--0--0--0--------|
--L-0--0--0--0--0--0--0--0--------|
--L-0--0--0--0--0--0--0--0--------|


  PM PM   PM PM   PM PM   PM PM   PM PM   PM
  S  S  S S  S  S S  S  S S  S  S S  S  S S
---------------------------------------------|
---------------------------------------------|
---------------------------------------------|
--0--0----0--0----0--0----0--0----0--0----0--|
--0--0----0--0----0--0----0--0----0--0----0--|
--0--0----0--0----0--0----0--0----0--0----0--|


  PM   PM PM   PM PM   PM PM PM PM PM PM PM PM
  S  S S  S  S S  S  S S  S  S  S  S  S  S  S
-----------------------------------------------|
-----------------------------------------------|
-----------------------------------------------|
--0----0--0----0--0----0--0--0--0--0--0--0--0--|
--0----0--0----0--0----0--0--0--0--0--0--0--0--|
--0----0--0----0--0----0--0--0--0--0--0--0--0--|


  PM             PM PM   PM PM      PM PM             PM PM PM PM PM PM
  E  E  E  E  E  S  S  S S  S  S    S  S  S S S S S S S  S  S  S  E  E
---------------------------------|--------------------------------------|-----||
---------------------------------|--------------------------------------|-----||
---------------------------------|--------------------------------------|-----||
--0--------------0--0----0--0----|--0--0--------------0--0--0--0--0--0--|-----||
--0--------------0--0----0--0----|--0--0--------------0--0--0--0--0--0--|-----||
--0--------------0--0----0--0----|--0--0--------------0--0--0--0--0--0--|-----||


Guitar 3

Starts at (02:32)


   Q     Q     Q    Q        Q     Q     Q    Q        Q     Q     Q    Q
-------------------------|-------------------------|-------------------------|
--------------15----L----|--------------15----L----|--------------18----L----|
--------14----------L----|--------14----------L----|--------14----------L----|
--12----------------L----|--12----------------L----|--15----------------L----|
-------------------------|-------------------------|-------------------------|
-------------------------|-------------------------|-------------------------|


   Q     Q     Q    Q        Q     Q     Q    Q        Q     Q     Q    Q
-------------------------|-------------------------|-------------------------|
--------------17----L----|--------------15----L----|--------------15----L----|
--------14----------L----|--------14----------L----|--------14----------L----|
--14----------------L----|--12----------------L----|--12----------------L----|
-------------------------|-------------------------|-------------------------|
-------------------------|-------------------------|-------------------------|


   Q     Q     Q    Q        Q     Q     Q    Q
-------------------------|-------------------------|-------|-------|-------|
--------------18----L----|--------------17----L----|-------|-------|-------|
--------14----------L----|--------14----------L----|-------|-------|-------|
--15----------------L----|--14----------------L----|-------|-------|-------|
-------------------------|-------------------------|-------|-------|-------|
-------------------------|-------------------------|-------|-------|-------|


Duration Legend
---------------
W - whole
H - half
Q - quarter
E - 8th
S - 16th
T - 32nd
X - 64th
. - note dotted
|-n-|  - n-tuplets


Tablature Legend
----------------
L - tied note
x - dead note
g - grace note
(n) - ghost note
> - accentuded note
NH - natural harmonic
AH - artificial harmonic
TH - tapped harmonic
SH - semi harmonic
PH - pitch harmonic
h - hammer on
p - pull off
b - bend
br - bendRelease
pb - preBend
pbr - preBendRelease
brb - bendReleaseBend
\n/ - tremolo bar dip
\n - tremolo bar dive
-/n - tremolo bar Release up
/n\ - tremolo bar inverted dip
/n - tremolo bar return
-\n - tremolo bar Release down
S - shift slide
s - legato slide
/ -  slide into from below or out of upwards
\ -  slide into from above or out of downwards
~ - vibrato
W - wide vibrato
tr - trill
TP - tremolo picking
T - tapping
S - slap
P - pop
< - fade in
^ - brush up
v - brush down


That is all! I hope this helped, and be sure to check out my cover if you are
having problems with the tab. Thanks, oh and one last thing... ROCK OUT!!!!
comments
We did not receive enough feedback on this tab! Please rate:
print report bad tab
1 2 3 4 5
I want to post or [tab]
guest
You may want to rate the tab now too:
select rating
Please do not post tabs as comments. Select "correction" instead!