Oops, an error
Loading. Please wait.

The Answer Tab

535 views 3 this week
no commentswrite comment
1 2 3 4 5
please rate
Autoscroll
+/-
esc
set tempo
stop
Contributor
Difficulty
Tuning
intermediate
C G C F A D
WARNING: You are trying to view
                                    content from Ultimate-Guitar.com
                                    in an unauthorized application,
                                    which is prohibited.

                                    Please use an official Ultimate
                                    Guitar Tabs application for iPhone,
                                    iPad or Android to access legitimate
                                    chords, guitar, bass, and drum tabs
                                    from Ultimate-Guitar.com database.

                                    Type "ultimate guitar tabs" in Apple
                                    App Store's or Android Market's
                                    search to find the application.
----------------------------------------------------------------------------
                            The Answer
                             Heartist
----------------------------------------------------------------------------

Heartist is The Answer. Enjoy!

Username: dkm817 (same on X box live)
Youtube Cover: http://www.youtube.com/watch?v=KHGnM7zCqY4
Email: guitardrums@rockfan.com
Band Page: http://www.heartistband.com/

Guitar 1 Rhythmic (C# G# C# F# A# D#)
Guitar 2 Lead     (C# G# C# F# A# D#)

NOTE: This was exported off of guitar pro.


Guitar 1

      Echo Effect                                                   
      >                 >           >                               
      |--------3--------|     |-----3-----|                         
      Q           Q     Q     Q     Q     Q       W                 
D||--19----------19-----------L----18----18----|--L----------------|
A||--------------------16----16-----------L----|-------------------|
F||--------------------------------------------|-------------------|
C||--------------------------------------------|-------------------|
G||--------------------------------------------|-------------------|
C||--------------------------------------------|-------------------|


   >           >           >                            >          >     
   |-----3-----|     |-----3-----|       |----3---|     |-----3----|     
   Q     Q     Q     Q     Q     Q       H        Q     H          Q     
--19----19-----------L----------------|----------------18b--------------|
--------------16----16-----------L----|---------------------------19----|
--------------------------18----18----|--L--------L---------------------|
--------------------------------------|---------------------------------|
--------------------------------------|---------------------------------|
--------------------------------------|---------------------------------|


   >           >           >                               
   |-----3-----|     |-----3-----|                         
   Q     Q     Q     Q     Q     Q       W                 
--19----19-----------L----18----18----|--L----------------|
--------------16----16-----------L----|-------------------|
--------------------------------------|-------------------|
--------------------------------------|-------------------|
--------------------------------------|-------------------|
--------------------------------------|-------------------|


   >                                     >                                  
   |------3-----|     |----3----|        |------3-----|     |----3----|     
   Q     Q      Q     Q    Q    Q        Q     Q      Q     Q    Q    Q     
--16----16----(16)----L----L----L----|--15----15----(15)----L----L----L----|
-------------------------------------|-------------------------------------|
-------------------------------------|-------------------------------------|
-------------------------------------|-------------------------------------|
-------------------------------------|-------------------------------------|
-------------------------------------|-------------------------------------|


  E  E  E  E  E  E  E  E     E  E  E  E  E  E  E  E   
--------------------------|--------------------------|
--------------------------|--------------------------|
--------------------------|--4--4--4--4--4--4--4--4--|
--6--6--6--6--6--6--6--6--|--4--4--4--4--4--4--4--4--|
--6--6--6--6--6--6--6--6--|--2--2--2--2--2--2--2--2--|
--6--6--6--6--6--6--6--6--|--------------------------|


  E  E  E  E  E  E  E  E     E  E  E  E  E  E  E  E   
--------------------------|--------------------------|
--------------------------|--------------------------|
--------------------------|--------------------------|
--2--2--2--2--2--2--2--2--|--2--2--2--2--2--4--4--4--|
--2--2--2--2--2--2--2--2--|--2--2--2--2--2--4--4--4--|
--2--2--2--2--2--2--2--2--|--2--2--2--2--2--4--4--4--|


  E  E  E  E  E  E  E  E     E  E  E  E  E  E  E  E   
--------------------------|--------------------------|
--------------------------|--------------------------|
--------------------------|--4--4--4--4--4--4--4--4--|
--6--6--6--6--6--6--6--6--|--4--4--4--4--4--4--4--4--|
--6--6--6--6--6--6--6--6--|--2--2--2--2--2--2--2--2--|
--6--6--6--6--6--6--6--6--|--------------------------|


  E  E  E  E  E  E  E  E      E   E   E   E   E   E   E   E   
--------------------------|----------------------------------|
--------------------------|----------------------------------|
--9--9--9--9--9--9--9--9--|--12--12--12--12--12--12--12--12--|
--9--9--9--9--9--9--9--9--|--12--12--12--12--12--12--12--12--|
--7--7--7--7--7--7--7--7--|--10--10--10--10--10--10--10--10--|
--------------------------|----------------------------------|


  E  E  E  E  E  E  E  E     E  E  E  E  E  E  E  E   
--------------------------|--------------------------|
--------------------------|--------------------------|
--------------------------|--4--4--4--4--4--4--4--4--|
--6--6--6--6--6--6--6--6--|--4--4--4--4--4--4--4--4--|
--6--6--6--6--6--6--6--6--|--2--2--2--2--2--2--2--2--|
--6--6--6--6--6--6--6--6--|--------------------------|


  E  E  E  E  E  E  E  E     E  E  E  E  E  E  E  E   
--------------------------|--------------------------|
--------------------------|--------------------------|
--------------------------|--------------------------|
--2--2--2--2--2--2--2--2--|--2--2--2--2--2--4--4--4--|
--2--2--2--2--2--2--2--2--|--2--2--2--2--2--4--4--4--|
--2--2--2--2--2--2--2--2--|--2--2--2--2--2--4--4--4--|


  E  E  E  E  E  E  E  E     E  E  E  E  E  E  E  E   
--------------------------|--------------------------|
--------------------------|--------------------------|
--------------------------|--4--4--4--4--4--4--4--4--|
--6--6--6--6--6--6--6--6--|--4--4--4--4--4--4--4--4--|
--6--6--6--6--6--6--6--6--|--2--2--2--2--2--2--2--2--|
--6--6--6--6--6--6--6--6--|--------------------------|


  E  E  E  E  E  E  E  E      E   E   E   E   E   E   E   E   
--------------------------|----------------------------------|
--------------------------|----------------------------------|
--9--9--9--9--9--9--9--9--|--12--12--12--12--12--12--12--12--|
--9--9--9--9--9--9--9--9--|--12--12--12--12--12--12--12--12--|
--7--7--7--7--7--7--7--7--|--10--10--10--10--10--10--10--10--|
--------------------------|----------------------------------|


  PM PM PM PM PM PM PM PM    PM PM PM PM PM PM PM PM PM PM PM PM  
  E  E  E  E  E  E  E  E     E  E  E  E  S  S  S  S  S  S  S  S   
--------------------------|--------------------------------------|
--------------------------|--------------------------------------|
--------------------------|--------------------------------------|
--------------------------|--------------------------------------|
--------------6-----------|--------------------------------------|
--6--9--8--6-----9--8--9--|--6--9--8--6--2--2--2--2--1--1--1--1--|


     PM PM       PM    PM                                
  E  S  S  E  E  E  E  E  E     E  E  E  E  E  E  E  E   
-----------------------------|--------------------------|
-----------------------------|--------------------------|
-----------------------------|--------------------------|
--6--6--6--6--9--6--6--6--2--|--L--1-----1--2--1--------|
--6--6--6--6--9--6--6--6--2--|--L-----4-----------2--1--|
--6--6--6--6--9--6--6--6--2--|--L-----------------------|


     PM PM       PM    PM                     PM       
  E  S  S  E  E  E  E  E  E     E  E  E  Q    E  Q     
-----------------------------|------------------------|
-----------------------------|-------------------5----|
-----------------------------|-------------------8----|
--6--6--6--6--9--6--6--6--2--|--L--2--2--5----5-------|
--6--6--6--6--9--6--6--6--2--|--L--2--2--5----5-------|
--6--6--6--6--9--6--6--6--2--|--L--2--2--5----5-------|


     PM PM       PM    PM                                
  E  S  S  E  E  E  E  E  E     E  E  E  E  E  E  E  E   
-----------------------------|--------------------------|
-----------------------------|--------------------------|
-----------------------------|--------------------------|
--6--6--6--6--9--6--6--6--2--|--L--1-----1--2--1--------|
--6--6--6--6--9--6--6--6--2--|--L-----4-----------2--1--|
--6--6--6--6--9--6--6--6--2--|--L-----------------------|


     PM PM       PM    PM                     PM       
  E  S  S  E  E  E  E  E  E     E  E  E  Q    E  Q     
-----------------------------|------------------------|
-----------------------------|------------------------|
-----------------------------|------------------------|
--6--6--6--6--9--6--6--6--2--|--L--2--2--5----5-------|
--6--6--6--6--9--6--6--6--2--|--L--2--2--5----5-------|
--6--6--6--6--9--6--6--6--2--|--L--2--2--5----5-------|


        PM       PM             PM PM PM PM PM PM PM  
  E  E  E  E  E  E  E  E     E  E  E  E  E  E  E  E   
--------------------------|--------------------------|
--------------------------|--------------------------|
--------------------------|--------------------------|
--6--6--6--6--6--6--6--6--|-----6--6--6--6--6--6--6--|
--6--6--6--6--6--6--6--6--|-----6--6--6--6--6--6--6--|
--6--6--6--6--6--6--6--6--|-----6--6--6--6--6--6--6--|


        PM       PM             PM PM PM PM PM PM PM  
  E  E  E  E  E  E  E  E     E  E  E  E  E  E  E  E   
--------------------------|--------------------------|
--------------------------|--------------------------|
--------------------------|--------------------------|
--6--6--6--6--6--6--6--6--|-----6--6--6--6--6--6--6--|
--6--6--6--6--6--6--6--6--|-----6--6--6--6--6--6--6--|
--6--6--6--6--6--6--6--6--|-----6--6--6--6--6--6--6--|


        PM       PM             PM PM PM PM PM PM PM                         
  E  E  E  E  E  E  E  E     E  E  E  E  E  E  E  E     Q    E  H        E   
--------------------------|--------------------------|----------------------|
--------------------------|--------------------------|----------------------|
--------------------------|--------------------------|----------------------|
--6--6--6--6--6--6--6--6--|-----6--6--6--6--6--6--6--|--6----L--1--------L--|
--6--6--6--6--6--6--6--6--|-----6--6--6--6--6--6--6--|--6----L--1--------L--|
--6--6--6--6--6--6--6--6--|-----6--6--6--6--6--6--6--|--6----L--1--------L--|


  Q    E   E  E  E  E  E     S S S S S S S S S S S S S S S S  
--------------------------|----------------------------------|
--------------------------|----------------------------------|
--------------------------|----------------------------------|
--2----2S--5-----5--------|----------------------------------|
--2----2S--5-----5--------|----------------------------------|
--2----2S--5-----5--------|--6-6-L-6-6-L-6-6-6-6-L-6-6-L-6-6-|


  S S E  E  E  S S S S E  E     S S S S E  E  S S S S E  E   
-----------------------------|------------------------------|
-----------------------------|------------------------------|
-----------------------------|------------------------------|
-----------------------------|------------------------------|
-----------------------------|------------------------------|
--6-6-6--6-----6-6-L-6-6-----|--6-6-6-6-6-----6-6-6-6-6--6--|


  S S S S S S S S S S S S S S S S    S S E  E  E  S S S S E  E   
----------------------------------|-----------------------------|
----------------------------------|-----------------------------|
----------------------------------|-----------------------------|
----------------------------------|-----------------------------|
----------------------------------|-----------------------------|
--6-6-L-6-6-L-6-6-6-6-L-6-6-L-6-6-|--6-6-6--6-----6-6-L-6-6-----|


  S S S S E  E  S S S S E  E     S S S S S S S S S S S S S S S S  
------------------------------|----------------------------------|
------------------------------|----------------------------------|
------------------------------|----------------------------------|
------------------------------|----------------------------------|
------------------------------|----------------------------------|
--6-6-6-6-6-----6-6-6-6-6--6--|--6-6-L-6-6-L-6-6-9-9-6-6-9-9-6-6-|


  E  E  E  E  E  E  E  E     E  E  E  E  E  E  E  E   
--------------------------|--------------------------|
--------------------------|--------------------------|
--------------------------|--4--4--4--4--4--4--4--4--|
--6--6--6--6--6--6--6--6--|--4--4--4--4--4--4--4--4--|
--6--6--6--6--6--6--6--6--|--2--2--2--2--2--2--2--2--|
--6--6--6--6--6--6--6--6--|--------------------------|


  E  E  E  E  E  E  E  E     E  E  E  E  E  E  E  E   
--------------------------|--------------------------|
--------------------------|--------------------------|
--------------------------|--------------------------|
--2--2--2--2--2--2--2--2--|--2--2--2--2--2--4--4--4--|
--2--2--2--2--2--2--2--2--|--2--2--2--2--2--4--4--4--|
--2--2--2--2--2--2--2--2--|--2--2--2--2--2--4--4--4--|


  E  E  E  E  E  E  E  E     E  E  E  E  E  E  E  E   
--------------------------|--------------------------|
--------------------------|--------------------------|
--------------------------|--4--4--4--4--4--4--4--4--|
--6--6--6--6--6--6--6--6--|--4--4--4--4--4--4--4--4--|
--6--6--6--6--6--6--6--6--|--2--2--2--2--2--2--2--2--|
--6--6--6--6--6--6--6--6--|--------------------------|


  E  E  E  E  E  E  E  E      E   E   E   E   E   E   E   E   
--------------------------|----------------------------------|
--------------------------|----------------------------------|
--9--9--9--9--9--9--9--9--|--12--12--12--12--12--12--12--12--|
--9--9--9--9--9--9--9--9--|--12--12--12--12--12--12--12--12--|
--7--7--7--7--7--7--7--7--|--10--10--10--10--10--10--10--10--|
--------------------------|----------------------------------|


  E  E  E  E  E  E  E  E     E  E  E  E  E  E  E  E   
--------------------------|--------------------------|
--------------------------|--------------------------|
--------------------------|--4--4--4--4--4--4--4--4--|
--6--6--6--6--6--6--6--6--|--4--4--4--4--4--4--4--4--|
--6--6--6--6--6--6--6--6--|--2--2--2--2--2--2--2--2--|
--6--6--6--6--6--6--6--6--|--------------------------|


  E  E  E  E  E  E  E  E     E  E  E  E  E  E  E  E   
--------------------------|--------------------------|
--------------------------|--------------------------|
--------------------------|--------------------------|
--2--2--2--2--2--2--2--2--|--2--2--2--2--2--4--4--4--|
--2--2--2--2--2--2--2--2--|--2--2--2--2--2--4--4--4--|
--2--2--2--2--2--2--2--2--|--2--2--2--2--2--4--4--4--|


  E  E  E  E  E  E  E  E     E  E  E  E  E  E  E  E   
--------------------------|--------------------------|
--------------------------|--------------------------|
--------------------------|--4--4--4--4--4--4--4--4--|
--6--6--6--6--6--6--6--6--|--4--4--4--4--4--4--4--4--|
--6--6--6--6--6--6--6--6--|--2--2--2--2--2--2--2--2--|
--6--6--6--6--6--6--6--6--|--------------------------|


  E  E  E  E  E  E  E  E      E   E   E   E   E   E   E   E   
--------------------------|----------------------------------|
--------------------------|----------------------------------|
--9--9--9--9--9--9--9--9--|--12--12--12--12--12--12--12--12--|
--9--9--9--9--9--9--9--9--|--12--12--12--12--12--12--12--12--|
--7--7--7--7--7--7--7--7--|--10--10--10--10--10--10--10--10--|
--------------------------|----------------------------------|


  E  E  E  E  E  E  E  E     E  E  E  E  E  E  E  E   
--------------------------|--------------------------|
--------------------------|--------------------------|
--------------------------|--------------------------|
--------------------------|--------------------------|
--------------6-----------|--------------6-----------|
--6--9--8--6-----9--8--9--|--6--9--8--6-----9--8--5--|


                             PM PM PM PM PM PM PM PM PM PM PM PM  
  E  E  E  E  E  E  E  E     S  S  E  S  S  E  S  S  E  S  S  E   
--------------------------|--------------------------------------|
--------------------------|--------------------------------------|
--------------------------|--------------------------------------|
--------------------------|--5--5--5--5--5--5--5--5--5--5--5--5--|
--------------6-----------|--5--5--5--5--5--5--5--5--5--5--5--5--|
--6--9--8--6-----9--8--9--|--5--5--5--5--5--5--5--5--5--5--5--5--|


  E  E  E  E  E  E  E  E     E  E  E  E  E  E  E  E   
--------------------------|--------------------------|
--------------------------|--------------------------|
--------------------------|--------------------------|
--------------------------|--------------------------|
--------------6-----------|--------------6-----------|
--6--9--8--6-----9--8--9--|--6--9--8--6-----9--8--5--|


  E  E  E  E  E  E  E  E     E  E  E  E  E  E  E  E   
--------------------------|--------------------------|
--------------------------|--------------------------|
--------------------------|--------------------------|
--------------------------|--5-----------------------|
--------------6-----------|--5-----------------------|
--6--9--8--6-----9--8--9--|--5-----------------------|


     PM PM       PM    PM                                
  E  S  S  E  E  E  E  E  E     E  E  E  E  E  E  E  E   
-----------------------------|--------------------------|
-----------------------------|--------------------------|
-----------------------------|--------------------------|
--6--6--6--6--9--6--6--6--2--|--L--1-----1--2--1--------|
--6--6--6--6--9--6--6--6--2--|--L-----4-----------2--1--|
--6--6--6--6--9--6--6--6--2--|--L-----------------------|


     PM PM       PM    PM                     PM       
  E  S  S  E  E  E  E  E  E     E  E  E  Q    E  Q     
-----------------------------|------------------------|
-----------------------------|-------------------5----|
-----------------------------|-------------------8----|
--6--6--6--6--9--6--6--6--2--|--L--2--2--5----5-------|
--6--6--6--6--9--6--6--6--2--|--L--2--2--5----5-------|
--6--6--6--6--9--6--6--6--2--|--L--2--2--5----5-------|


     PM PM       PM    PM                                
  E  S  S  E  E  E  E  E  E     E  E  E  E  E  E  E  E   
-----------------------------|--------------------------|
-----------------------------|--------------------------|
-----------------------------|--------------------------|
--6--6--6--6--9--6--6--6--2--|--L--1-----1--2--1--------|
--6--6--6--6--9--6--6--6--2--|--L-----4-----------2--1--|
--6--6--6--6--9--6--6--6--2--|--L-----------------------|


     PM PM       PM    PM                     PM       
  E  S  S  E  E  E  E  E  E     E  E  E  Q    E  Q     
-----------------------------|------------------------|
-----------------------------|-------------------5----|
-----------------------------|-------------------8----|
--6--6--6--6--9--6--6--6--2--|--L--2--2--5----5-------|
--6--6--6--6--9--6--6--6--2--|--L--2--2--5----5-------|
--6--6--6--6--9--6--6--6--2--|--L--2--2--5----5-------|


  E  E  S S S S S S E  S S S S    S S E  E  H        E                   
-------------------------------|------------------------|-------|-------|
-------------------------------|------------------------|-------|-------|
-------------------------------|------------------------|-------|-------|
-------------------------------|------------------------|-------|-------|
-------------------------------|------------------------|-------|-------|
--6-----6---6-6-6-6----6---6-6-|--6-6----6--------------|-------|-------|


  E  E  S S S S S S E  S S S S    S S E  E  H        E   
-------------------------------|------------------------|
-------------------------------|------------------------|
-------------------------------|------------------------|
-------------------------------|------------------------|
-------------------------------|------------------------|
--6-----6---6-6-6-6----6---6-6-|--6-6----6--------------|


   E   E   E   E   E   E   E   E      E   E   E   E   E   E   E   E   
--11----------11----------11------|------11----------11--------------|
------12----------12----------12--|----------12----------12------12--|
----------15----------15----------|--15----------15----------15------|
----------------------------------|----------------------------------|
----------------------------------|----------------------------------|
----------------------------------|----------------------------------|


  E  E  E  E  E  E  E  E     E  E  E  E  E  E  E  E   
--------------------------|--------------------------|
--------------------------|--------------------------|
--------------------------|--4--4--4--4--4--4--4--4--|
--6--6--6--6--6--6--6--6--|--4--4--4--4--4--4--4--4--|
--6--6--6--6--6--6--6--6--|--2--2--2--2--2--2--2--2--|
--6--6--6--6--6--6--6--6--|--------------------------|


  E  E  E  E  E  E  E  E     E  E  E  E  E  E  E  E   
--------------------------|--------------------------|
--------------------------|--------------------------|
--------------------------|--------------------------|
--2--2--2--2--2--2--2--2--|--2--2--2--2--2--4--4--4--|
--2--2--2--2--2--2--2--2--|--2--2--2--2--2--4--4--4--|
--2--2--2--2--2--2--2--2--|--2--2--2--2--2--4--4--4--|


  E  E  E  E  E  E  E  E     E  E  E  E  E  E  E  E   
--------------------------|--------------------------|
--------------------------|--------------------------|
--------------------------|--4--4--4--4--4--4--4--4--|
--6--6--6--6--6--6--6--6--|--4--4--4--4--4--4--4--4--|
--6--6--6--6--6--6--6--6--|--2--2--2--2--2--2--2--2--|
--6--6--6--6--6--6--6--6--|--------------------------|


  E  E  E  E  E  E  E  E      E   E   E   E   E   E   E   E   
--------------------------|----------------------------------|
--------------------------|----------------------------------|
--9--9--9--9--9--9--9--9--|--12--12--12--12--12--12--12--12--|
--9--9--9--9--9--9--9--9--|--12--12--12--12--12--12--12--12--|
--7--7--7--7--7--7--7--7--|--10--10--10--10--10--10--10--10--|
--------------------------|----------------------------------|


  E  E  E  E  E  E  E  E     E  E  E  E  E  E  E  E   
--------------------------|--------------------------|
--------------------------|--------------------------|
--------------------------|--4--4--4--4--4--4--4--4--|
--6--6--6--6--6--6--6--6--|--4--4--4--4--4--4--4--4--|
--6--6--6--6--6--6--6--6--|--2--2--2--2--2--2--2--2--|
--6--6--6--6--6--6--6--6--|--------------------------|


  E  E  E  E  E  E  E  E     E  E  E  E  E  E  E  E   
--------------------------|--------------------------|
--------------------------|--------------------------|
--------------------------|--------------------------|
--2--2--2--2--2--2--2--2--|--2--2--2--2--2--4--4--4--|
--2--2--2--2--2--2--2--2--|--2--2--2--2--2--4--4--4--|
--2--2--2--2--2--2--2--2--|--2--2--2--2--2--4--4--4--|


  E  E  E  E  E  E  E  E     E  E  E  E  E  E  E  E   
--------------------------|--------------------------|
--------------------------|--------------------------|
--------------------------|--4--4--4--4--4--4--4--4--|
--6--6--6--6--6--6--6--6--|--4--4--4--4--4--4--4--4--|
--6--6--6--6--6--6--6--6--|--2--2--2--2--2--2--2--2--|
--6--6--6--6--6--6--6--6--|--------------------------|


  E  E  E  E  E  E  E  E     E  E  E  E  E  E  E  E   
--------------------------|--------------------------|
--------------------------|--------------------------|
--------------------------|--------------------------|
--2--2--2--2--2--2--2--2--|--2--2--2--2--2--2--2--2--|
--2--2--2--2--2--2--2--2--|--2--2--2--2--2--2--2--2--|
--2--2--2--2--2--2--2--2--|--2--2--2--2--2--2--2--2--|


  E  E  E  E  E  E  E  E     E  E  E  E  E  E  E  E     Q    E  Q    E  Q     
--------------------------|--------------------------|-----------------------|
--------------------------|--------------------------|-----------------------|
--------------------------|--------------------------|-----------------------|
--5--5--5--5--5--5--5--5--|--5--5--5--5--5--5--5--5--|--6----L--5----L--2----|
--5--5--5--5--5--5--5--5--|--5--5--5--5--5--5--5--5--|--6----L--5----L--2----|
--5--5--5--5--5--5--5--5--|--5--5--5--5--5--5--5--5--|--6----L--5----L--2----|


             PM PM PM PM                                       PM PM PM PM  
  E  Q    E  E  E  E  E     Q    E  Q    E  Q       E  Q    E  E  E  E  E   
-------------------------|-----------------------|-------------------------|
-------------------------|-----------------------|-------------------------|
-------------------------|-----------------------|-------------------------|
--L--1----L--1--1--1--1--|--6----L--5----L--2----|--L--1----L--1--1--1--1--|
--L--1----L--1--1--1--1--|--6----L--5----L--2----|--L--1----L--1--1--1--1--|
--L--1----L--1--1--1--1--|--6----L--5----L--2----|--L--1----L--1--1--1--1--|


                                     PM PM PM PM                             
  Q    E  Q    E  Q       E  Q    E  E  E  E  E     E  E  E  E  E  E  E  E   
-----------------------|-------------------------|--------------------------|
-----------------------|-------------------------|--------------------------|
-----------------------|-------------------------|--------------------------|
--6----L--5----L--2----|--L--1----L--1--1--1--1--|--2--2--2--2--2--2--2--2--|
--6----L--5----L--2----|--L--1----L--1--1--1--1--|--2--2--2--2--2--2--2--2--|
--6----L--5----L--2----|--L--1----L--1--1--1--1--|--2--2--2--2--2--2--2--2--|


  E  E  E  E  E  E  E  E     W                   W                 
--------------------------|-------------------|-------------------|
--------------------------|-------------------|-------------------|
--------------------------|-------------------|-------------------|
--4--4--4--4--4--4--4--4--|--1----------------|--L----------------|
--4--4--4--4--4--4--4--4--|--1----------------|--L----------------|
--4--4--4--4--4--4--4--4--|--1----------------|--L----------------|


                                          PM   PM   PM PM PM PM    
  W                   W                   Q    Q    S  E  S  Q     
-------------------|-------------------|--------------------------|
-------------------|-------------------|--------------------------|
-------------------|-------------------|--------------------------|
--L----------------|--L----------------|--1----1----1--1--1--1----|
--L----------------|--L----------------|--1----1----1--1--1--1----|
--L----------------|--L----------------|--1----1----1--1--1--1----|


     PM   PM PM                       PM   PM   PM PM PM PM    
  E  Q    E  E  E   T  T  T  T  E     Q    Q    S  E  S  Q     
-------------------14-14-14-14-14--|--------------------------|
-----------------------------------|--------------------------|
-----------------------------------|--------------------------|
--L--1----1--1---------------------|--1----1----1--1--1--1----|
--L--1----1--1---------------------|--1----1----1--1--1--1----|
--L--1----1--1---------------------|--1----1----1--1--1--1----|


     PM   PM PM PM PM PM      PM   PM   PM PM PM        
  E  Q    E  S  E  S  Q       Q    Q    S  E  S  E  E   
---------------------------|---------------------------|
---------------------------|---------------------------|
---------------------------|---------------------------|
--L--1----1--1--1--1--1----|--1----1----1--1--1--------|
--L--1----1--1--1--1--1----|--1----1----1--1--1--------|
--L--1----1--1--1--1--1----|--1----1----1--1--1--1-----|


     PM   PM PM PM PM          PM   PM   PM PM PM PM    
  E  Q    E  S  E  S  E  E     Q    Q    S  E  S  Q     
----------------------------|--------------------------|
----------------------------|--------------------------|
----------------------------|--------------------------|
-----1----1--1--1--1--------|--1----1----1--1--1--1----|
-----1----1--1--1--1--------|--1----1----1--1--1--1----|
-----1----1--1--1--1--1-----|--1----1----1--1--1--1----|


     PM   PM PM PM PM PM      PM   PM             
  E  Q    E  S  E  S  Q       Q    Q    H         
---------------------------|---------------------|
---------------------------|---------------------|
---------------------------|---------------------|
--L--1----1--1--1--1--1----|--1----1----1--------|
--L--1----1--1--1--1--1----|--1----1----1--------|
--L--1----1--1--1--1--1----|--1----1----1--------|


     PM    PM   PM PM   PM PM                 PM    PM        
  E  E  E  S  S S  S  S S  E  E     Q    Q    S  E  S  E  E   
---------------------------------|---------------------------|
---------------------------------|---------------------------|
---------------------------------|---------------------------|
-----1-----1----1--1----1--1-----|--6----6-------------------|
-----1-----1----1--1----1--1-----|--6----6-------------------|
-----1-----1----1--1----1--1-----|--6----6----5--6--5--6-----|


             PM    PM                    PM    PM        
  E  Q    E  S  E  S  E  E     Q    Q    S  E  S  E  E   
----------------------------|---------------------------|
----------------------------|---------------------------|
----------------------------|---------------------------|
-----9----9-----------------|---------------------------|
-----9----9-----------------|---------------------------|
-----9----9--2--5--2--5--5--|------------5--6--5--6-----|


             PM    PM                    PM    PM        
  E  Q    E  S  E  S  E  E     Q    Q    S  E  S  E  E   
----------------------------|---------------------------|
----------------------------|---------------------------|
----------------------------|---------------------------|
-----2----2-----------------|--6----6-------------------|
-----2----2-----------------|--6----6-------------------|
-----2----2--2--5--2--5--5--|--6----6----5--6--5--6-----|


             PM    PM                    PM    PM        
  E  Q    E  S  E  S  E  E     Q    Q    S  E  S  E  E   
----------------------------|---------------------------|
----------------------------|---------------------------|
----------------------------|---------------------------|
-----9----9-----------------|---------------------------|
-----9----9-----------------|---------------------------|
-----9----9--2--5--2--5--5--|------------5--6--5--6-----|


             PM    PM                                                
  E  Q    E  S  E  S  E  E     W                   W                 
----------------------------|-------------------|-------------------|
----------------------------|-------------------|-------------------|
----------------------------|-------------------|-------------------|
-----2----2-----------------|--2----------------|--5----------------|
-----2----2-----------------|--2----------------|--5----------------|
-----2----2--2--5--2--5--5--|--2----------------|--5----------------|


                                          E  E  E  E  E  E  E  E   
-------------------|-------------------|--------------------------|
-------------------|-------------------|--------------------------|
-------------------|-------------------|--------------------------|
-------------------|-------------------|--2--2--2--2--2--2--2--2--|
-------------------|-------------------|--2--2--2--2--2--2--2--2--|
-------------------|-------------------|--2--2--2--2--2--2--2--2--|


  E  E  E  E  E  E  E  E     E  E  E  E  E  E  E  E   
--------------------------|--------------------------|
--------------------------|--------------------------|
--------------------------|--------------------------|
--2--2--2--2--2--4--4--4--|--6--6--6--6--6--6--6--6--|
--2--2--2--2--2--4--4--4--|--6--6--6--6--6--6--6--6--|
--2--2--2--2--2--4--4--4--|--6--6--6--6--6--6--6--6--|


  E  E  E  E  E  E  E  E     E  E  E  E  E  E  E  E   
--------------------------|--------------------------|
--------------------------|--------------------------|
--4--4--4--4--4--4--4--4--|--9--9--9--9--9--9--9--9--|
--4--4--4--4--4--4--4--4--|--9--9--9--9--9--9--9--9--|
--2--2--2--2--2--2--2--2--|--7--7--7--7--7--7--7--7--|
--------------------------|--------------------------|


   E   E   E   E   E   E   E   E     E  E  E  E  E  E  E  E   
----------------------------------|--------------------------|
----------------------------------|--------------------------|
--12--12--12--12--12--12--12--12--|--------------------------|
--12--12--12--12--12--12--12--12--|--6--6--6--6--6--6--6--6--|
--10--10--10--10--10--10--10--10--|--6--6--6--6--6--6--6--6--|
----------------------------------|--6--6--6--6--6--6--6--6--|


  E  E  E  E  E  E  E  E     E  E  E  E  E  E  E  E   
--------------------------|--------------------------|
--------------------------|--------------------------|
--4--4--4--4--4--4--4--4--|--------------------------|
--4--4--4--4--4--4--4--4--|--2--2--2--2--2--2--2--2--|
--2--2--2--2--2--2--2--2--|--2--2--2--2--2--2--2--2--|
--------------------------|--2--2--2--2--2--2--2--2--|


  E  E  E  E  E  E  E  E     E  E  E  E  E  E  E  E   
--------------------------|--------------------------|
--------------------------|--------------------------|
--------------------------|--------------------------|
--2--2--2--2--2--4--4--4--|--6--6--6--6--6--6--6--6--|
--2--2--2--2--2--4--4--4--|--6--6--6--6--6--6--6--6--|
--2--2--2--2--2--4--4--4--|--6--6--6--6--6--6--6--6--|


  E  E  E  E  E  E  E  E     E  E  E  E  E  E  E  E   
--------------------------|--------------------------|
--------------------------|--------------------------|
--4--4--4--4--4--4--4--4--|--9--9--9--9--9--9--9--9--|
--4--4--4--4--4--4--4--4--|--9--9--9--9--9--9--9--9--|
--2--2--2--2--2--2--2--2--|--7--7--7--7--7--7--7--7--|
--------------------------|--------------------------|


   E   E   E   E   E   E   E   E     E  E  E  E  E  E  E  E   
----------------------------------|--------------------------|
----------------------------------|--------------------------|
--12--12--12--12--12--12--12--12--|--------------------------|
--12--12--12--12--12--12--12--12--|--6--6--6--6--6--6--6--6--|
--10--10--10--10--10--10--10--10--|--6--6--6--6--6--6--6--6--|
----------------------------------|--6--6--6--6--6--6--6--6--|


  E  E  E  E  E  E  E  E     E  E  E  E  E  E  E  E   
--------------------------|--------------------------|
--------------------------|--------------------------|
--4--4--4--4--4--4--4--4--|--------------------------|
--4--4--4--4--4--4--4--4--|--2--2--2--2--2--2--2--2--|
--2--2--2--2--2--2--2--2--|--2--2--2--2--2--2--2--2--|
--------------------------|--2--2--2--2--2--2--2--2--|


  E  E  E  E  E  E  E  E     E  E  E  E  E  E  E  E   
--------------------------|--------------------------|
--------------------------|--------------------------|
--------------------------|--------------------------|
--2--2--2--2--2--4--4--4--|--6--6--6--6--6--6--6--6--|
--2--2--2--2--2--4--4--4--|--6--6--6--6--6--6--6--6--|
--2--2--2--2--2--4--4--4--|--6--6--6--6--6--6--6--6--|


  E  E  E  E  E  E  E  E     E  E  E  E  E  E  E  E   
--------------------------|--------------------------|
--------------------------|--------------------------|
--4--4--4--4--4--4--4--4--|--9--9--9--9--9--9--9--9--|
--4--4--4--4--4--4--4--4--|--9--9--9--9--9--9--9--9--|
--2--2--2--2--2--2--2--2--|--7--7--7--7--7--7--7--7--|
--------------------------|--------------------------|


   E   E   E   E   E   E   E   E     E  E  E  E  E  E  E  E   
----------------------------------|--------------------------|
----------------------------------|--------------------------|
--12--12--12--12--12--12--12--12--|--------------------------|
--12--12--12--12--12--12--12--12--|--------------------------|
--10--10--10--10--10--10--10--10--|--------------6-----------|
----------------------------------|--6--9--8--6-----9--8--9--|


  E  E  E  E  E  E  E  E     E  E  E  E  E  E  E  E   
--------------------------|--------------------------|
--------------------------|--------------------------|
--------------------------|--------------------------|
--------------------------|--------------------------|
--------------6-----------|--------------6-----------|
--6--9--8--6-----9--8--5--|--6--9--8--6-----9--8--9--|


  PM PM PM PM PM PM PM PM PM PM PM PM                             
  S  S  E  S  S  E  S  S  E  S  S  E     E  E  E  E  E  E  E  E   
--------------------------------------|--------------------------|
--------------------------------------|--------------------------|
--------------------------------------|--------------------------|
--5--5--5--5--5--5--5--5--5--5--5--5--|--------------------------|
--5--5--5--5--5--5--5--5--5--5--5--5--|--------------6-----------|
--5--5--5--5--5--5--5--5--5--5--5--5--|--6--9--8--6-----9--8--9--|


  E  E  E  E  E  E  E  E     E  E  E  E  E  E  E  E   
--------------------------|--------------------------|
--------------------------|--------------------------|
--------------------------|--------------------------|
--------------------------|--------------------------|
--------------6-----------|--------------6-----------|
--6--9--8--6-----9--8--5--|--6--9--8--6-----9--8--9--|


  E  E  E  E  E  E  E  E    
--------------------------||
--------------------------||
--------------------------||
--5-----------------------||
--5-----------------------||
--5-----------------------||


Guitar 2

D||-------|-------|-------|-------|-------|-------|-------|
A||-------|-------|-------|-------|-------|-------|-------|
F||-------|-------|-------|-------|-------|-------|-------|
C||-------|-------|-------|-------|-------|-------|-------|
G||-------|-------|-------|-------|-------|-------|-------|
C||-------|-------|-------|-------|-------|-------|-------|


  H        Q     Q         E   E   E   E   E   E   E   E   
----------------11/----|----------------------------------|
-----------------------|----------------------------------|
-----------------------|------------------11--------------|
-----------------------|--13--11--11--13------13--11--13--|
-----------------------|----------------------------------|
-----------------------|----------------------------------|


   E   E   E   E   E   E   E   E      E   E   E   E   E   E   E   E   
----------------------------------|----------------------------------|
--11--12--11--11--12--11----------|----------------------------------|
--------------------------11------|------------------11--------------|
------------------------------13--|--13--11--11--13------13--11------|
----------------------------------|------------------------------13--|
----------------------------------|----------------------------------|


  E   E  E   E  E   E  E   E      E   E   E   E   E   E   E   E   
------------------------------|----------------------------------|
------------------------------|----------------------------------|
------------------------------|------------------11--------------|
--9--11--9------9-------------|--13--11--11--13------13--11--13--|
------------13-----13--9------|----------------------------------|
--------------------------13--|----------------------------------|


   E   E   E   E   E   E   E   E      E   E   E   E   E   E   E   E   
----------------------------------|----------------------------------|
--11--12--11--11--12--11----------|--------------------------14--14--|
--------------------------11------|--13--13--15--15--16--16----------|
------------------------------13--|----------------------------------|
----------------------------------|----------------------------------|
----------------------------------|----------------------------------|


   E   E   E   E   E   E   E   E      E   E   E   E   E   E   E   E   
----------------------------------|----------------------------------|
--14--16--16--16------------------|----------------------------------|
------------------12--12--12--12--|------------------11--------------|
----------------------------------|--13--11--11--13------13--11--13--|
----------------------------------|----------------------------------|
----------------------------------|----------------------------------|


   E   E   E   E   E   E   E   E      E   E   E   E   E   E   E   E   
----------------------------------|----------------------------------|
--11--12--11--11--12--11----------|----------------------------------|
--------------------------11------|------------------11--------------|
------------------------------13--|--13--11--11--13------13--11------|
----------------------------------|------------------------------13--|
----------------------------------|----------------------------------|


  E   E  E   E  E   E  E   E      E   E   E   E   E   E   E   E   
------------------------------|----------------------------------|
------------------------------|----------------------------------|
------------------------------|------------------11--------------|
--9--11--9------9-------------|--13--11--11--13------13--11--13--|
------------13-----13--9------|----------------------------------|
--------------------------13--|----------------------------------|


   E   E   E   E   E   E   E   E      E   E   E   E   E   E   E   E   
----------------------------------|--16--16--18--18--19--19--21--21--|
--11--12--11--11--12--11----------|----------------------------------|
--------------------------11------|----------------------------------|
------------------------------13--|----------------------------------|
----------------------------------|----------------------------------|
----------------------------------|----------------------------------|


   E   E   E   E   E   E   E   E      W                   W                 
--21--23--23--23------------------|--19----------------|--L----------------|
------------------20--20--20--20--|--------------------|-------------------|
----------------------------------|--------------------|-------------------|
----------------------------------|--------------------|-------------------|
----------------------------------|--------------------|-------------------|
----------------------------------|--------------------|-------------------|


     PM PM       PM    PM                                
  E  S  S  E  E  E  E  E  E     E  E  E  E  E  E  E  E   
-----------------------------|--------------------------|
-----------------------------|--------------------------|
-----------------------------|--------------------------|
--6--6--6--6--9--6--6--6--2--|--L--1-----1--2--1--------|
--6--6--6--6--9--6--6--6--2--|--L-----4-----------2--1--|
--6--6--6--6--9--6--6--6--2--|--L-----------------------|


     PM PM       PM    PM                     PM       
  E  S  S  E  E  E  E  E  E     E  E  E  Q    E  Q     
-----------------------------|------------------------|
-----------------------------|-------------------5----|
-----------------------------|-------------------8----|
--6--6--6--6--9--6--6--6--2--|--L--2--2--5----5-------|
--6--6--6--6--9--6--6--6--2--|--L--2--2--5----5-------|
--6--6--6--6--9--6--6--6--2--|--L--2--2--5----5-------|


     PM PM       PM    PM                                
  E  S  S  E  E  E  E  E  E     E  E  E  E  E  E  E  E   
-----------------------------|--------------------------|
-----------------------------|--------------------------|
-----------------------------|--------------------------|
--6--6--6--6--9--6--6--6--2--|--L-----------------------|
--6--6--6--6--9--6--6--6--2--|--L--2--1--2--4--2--------|
--6--6--6--6--9--6--6--6--2--|--L-----------------6--2--|


     PM PM       PM    PM                     PM       
  E  S  S  E  E  E  E  E  E     E  E  E  Q    E  Q     
-----------------------------|------------------------|
-----------------------------|-------------------5----|
-----------------------------|-------------------8----|
--6--6--6--6--9--6--6--6--2--|--L--2--2--5----5-------|
--6--6--6--6--9--6--6--6--2--|--L--2--2--5----5-------|
--6--6--6--6--9--6--6--6--2--|--L--2--2--5----5-------|


  E  E  E  E  E  E  E  E     E  E  E  E  E  E  E  E   
--------------------------|--------------------------|
--------------------------|--------------------------|
--8-----6-----------8-----|-----------------8--------|
-----9-----9--8--9-----9--|--6--8--9--8--6-----9--6--|
--------------------------|--------------------------|
--------------------------|--------------------------|


  E  E  E  E  E  E  E  E     E  E  E  E  E  E  E  E   
--------------------------|--------------------------|
--------------------------|--------------------------|
--8-----6-----------8-----|-----------------8--------|
-----9-----9--8--9-----9--|--6--8--9--8--6-----9--6--|
--------------------------|--------------------------|
--------------------------|--------------------------|


  E  E  E  E  E  E  E  E     E  E  E  E  E  E  E  E   
--------------------------|--------------------------|
--------------------------|--------------------------|
--8-----6-----------8-----|-----------------8--------|
-----9-----9--8--9-----9--|--6--8--9--8--6-----9--6--|
--------------------------|--------------------------|
--------------------------|--------------------------|


  E  E   E  E  E   E   E   E      E   E   E   E   E   E   E   E   
------------------------------|----------------------------------|
------------------------------|------------------12------14------|
--8------------9--------------|--13------15----------13------13--|
-----9--11--9-----11--13--11--|------14------16------------------|
------------------------------|----------------------------------|
------------------------------|----------------------------------|


   W                   W                 
--------------------|-------------------|
--16----------------|--L----------------|
--------------------|-------------------|
--------------------|-------------------|
--------------------|-------------------|
--------------------|-------------------|


   PM PM PM PM PM     PM PM PM PM PM  PM  
   S  S  S  S  E  E   S  S  S  S  E   E   
-----------------------------------------|
-----------------------------------------|
--16-16-16-16-16-----16-16-16-16-16--16--|
-----------------------------------------|
-----------------------------------------|
-----------------------------------------|


   PM PM   PM PM   PM PM PM PM   PM PM   PM PM 
   S  S S  S  S S  S  S  S  S S  S  S S  S  S  
----------------------------------------------|
----------------------------------------------|
--16-16-L-16-16-L-16-16-16-16-L-16-16-L-16-16-|
----------------------------------------------|
----------------------------------------------|
----------------------------------------------|


   PM PM PM  PM     PM PM   PM PM        PM PM PM PM PM     PM PM PM PM PM  PM  
   S  S  E   E  E   S  S S  S  E  E      S  S  S  S  E  E   S  S  S  S  E   E   
-------------------------------------|-----------------------------------------|
-------------------------------------|-----------------------------------------|
--16-16-16--16-----16-16-L-16-16-----|--16-16-16-16-16-----16-16-16-16-16--16--|
-------------------------------------|-----------------------------------------|
-------------------------------------|-----------------------------------------|
-------------------------------------|-----------------------------------------|


   PM PM   PM PM   PM PM PM PM PM PM PM PM PM PM 
   S  S S  S  S S  S  S  S  S  S  S  S  S  S  S  
------------------------------------------------|
------------------------------------------------|
--16-16-L-16-16-L-16-16-16-16-16-16-16-16-16-16-|
------------------------------------------------|
------------------------------------------------|
------------------------------------------------|


   E   E   E   E   E   E   E   E      E   E   E   E   E   E   E   E   
----------------------------------|----------------------------------|
----------------------------------|--11--12--11--11--12--11----------|
------------------11--------------|--------------------------11------|
--13--11--11--13------13--11--13--|------------------------------13--|
----------------------------------|----------------------------------|
----------------------------------|----------------------------------|


   E   E   E   E   E   E   E   E     E   E  E   E  E   E  E   E   
----------------------------------|------------------------------|
----------------------------------|------------------------------|
------------------11--------------|------------------------------|
--13--11--11--13------13--11------|--9--11--9------9-------------|
------------------------------13--|------------13-----13--9------|
----------------------------------|--------------------------13--|


   E   E   E   E   E   E   E   E      E   E   E   E   E   E   E   E   
----------------------------------|----------------------------------|
----------------------------------|--11--12--11--11--12--11----------|
------------------11--------------|--------------------------11------|
--13--11--11--13------13--11--13--|------------------------------13--|
----------------------------------|----------------------------------|
----------------------------------|----------------------------------|


   E   E   E   E   E   E   E   E      E   E   E   E   E   E   E   E   
----------------------------------|----------------------------------|
--------------------------14--14--|--14--16--16--16------------------|
--13--13--15--15--16--16----------|------------------12--12--12--12--|
----------------------------------|----------------------------------|
----------------------------------|----------------------------------|
----------------------------------|----------------------------------|


   E   E   E   E   E   E   E   E      E   E   E   E   E   E   E   E   
----------------------------------|----------------------------------|
----------------------------------|--11--12--11--11--12--11----------|
------------------11--------------|--------------------------11------|
--13--11--11--13------13--11--13--|------------------------------13--|
----------------------------------|----------------------------------|
----------------------------------|----------------------------------|


   E   E   E   E   E   E   E   E     E   E  E   E  E   E  E   E   
----------------------------------|------------------------------|
----------------------------------|------------------------------|
------------------11--------------|------------------------------|
--13--11--11--13------13--11------|--9--11--9------9-------------|
------------------------------13--|------------13-----13--9------|
----------------------------------|--------------------------13--|


   E   E   E   E   E   E   E   E      E   E   E   E   E   E   E   E   
----------------------------------|----------------------------------|
----------------------------------|--11--12--11--11--12--11----------|
------------------11--------------|--------------------------11------|
--13--11--11--13------13--11--13--|------------------------------13--|
----------------------------------|----------------------------------|
----------------------------------|----------------------------------|


   E   E   E   E   E   E   E   E      E   E   E   E   E   E   E   E   
--16--16--18--18--19--19--21--21--|--21--23--23--23------------------|
----------------------------------|------------------20--20--20--20--|
----------------------------------|----------------------------------|
----------------------------------|----------------------------------|
----------------------------------|----------------------------------|
----------------------------------|----------------------------------|


   W                   W                   E  E  E  E  E  E  E  E   
--19----------------|--L----------------|--------------------------|
--------------------|-------------------|--------------------------|
--------------------|-------------------|--------------------------|
--------------------|-------------------|--------------------------|
--------------------|-------------------|--------------6-----------|
--------------------|-------------------|--6--9--8--6-----9--8--9--|


  PM PM PM PM PM PM PM PM PM PM PM PM                             
  S  S  E  S  S  E  S  S  E  S  S  E     E  E  E  E  E  E  E  E   
--------------------------------------|--------------------------|
--------------------------------------|--------------------------|
--------------------------------------|--------------------------|
--5--5--5--5--5--5--5--5--5--5--5--5--|--------------------------|
--5--5--5--5--5--5--5--5--5--5--5--5--|--------------6-----------|
--5--5--5--5--5--5--5--5--5--5--5--5--|--6--9--8--6-----9--8--9--|


  E  E  E  E  E  E  E  E     E  E  E  E  E  E  E  E   
--------------------------|--------------------------|
--------------------------|--------------------------|
--------------------------|--------------------------|
--------------------------|--------------------------|
--------------6-----------|--------------6-----------|
--6--9--8--6-----9--8--5--|--6--9--8--6-----9--8--9--|


                                PM PM       PM    PM     
  E  E  E  E  E  E  E  E     E  S  S  E  E  E  E  E  E   
--------------------------|-----------------------------|
--------------------------|-----------------------------|
--------------------------|-----------------------------|
--5-----------------------|--6--6--6--6--9--6--6--6--2--|
--5-----------------------|--6--6--6--6--9--6--6--6--2--|
--5-----------------------|--6--6--6--6--9--6--6--6--2--|


                                PM PM       PM    PM     
  E  E  E  E  E  E  E  E     E  S  S  E  E  E  E  E  E   
--------------------------|-----------------------------|
--------------------------|-----------------------------|
--------------------------|-----------------------------|
--L--1-----1--2--1--------|--6--6--6--6--9--6--6--6--2--|
--L-----4-----------2--1--|--6--6--6--6--9--6--6--6--2--|
--L-----------------------|--6--6--6--6--9--6--6--6--2--|


                PM            PM PM       PM    PM     
  E  E  E  Q    E  Q       E  S  S  E  E  E  E  E  E   
------------------------|-----------------------------|
-------------------5----|-----------------------------|
-------------------8----|-----------------------------|
--L--2--2--5----5-------|--6--6--6--6--9--6--6--6--2--|
--L--2--2--5----5-------|--6--6--6--6--9--6--6--6--2--|
--L--2--2--5----5-------|--6--6--6--6--9--6--6--6--2--|


                                PM PM       PM    PM     
  E  E  E  E  E  E  E  E     E  S  S  E  E  E  E  E  E   
--------------------------|-----------------------------|
--------------------------|-----------------------------|
--------------------------|-----------------------------|
--L-----------------------|--6--6--6--6--9--6--6--6--2--|
--L--2--1--2--4--2--------|--6--6--6--6--9--6--6--6--2--|
--L-----------------6--2--|--6--6--6--6--9--6--6--6--2--|


                PM                                       
  E  E  E  Q    E  Q       E  E  S S S S S S E  S S S S  
------------------------|-------------------------------|
-------------------5----|-------------------------------|
-------------------8----|-------------------------------|
--L--2--2--5----5-------|-------------------------------|
--L--2--2--5----5-------|-------------------------------|
--L--2--2--5----5-------|--6-----6---6-6-6-6----6---6-6-|


  S S E  E  H        E      E   E   E   E   E   E   E   E   
------------------------|--11----------11----------11------|
------------------------|------12----------12----------12--|
------------------------|----------15----------15----------|
------------------------|----------------------------------|
------------------------|----------------------------------|
--6-6----6--------------|----------------------------------|


   E   E   E   E   E   E   E   E     E  E  S S S S S S E  S S S S  
------11----------11--------------|-------------------------------|
----------12----------12------12--|-------------------------------|
--15----------15----------15------|-------------------------------|
----------------------------------|-------------------------------|
----------------------------------|-------------------------------|
----------------------------------|--9-----9---9-9-9-9----9---9-9-|


  S S E  E  H        E                  E   E   E   E   E   E   E   E   
------------------------|-----|-----|----------------------------------|
------------------------|-----|-----|----------------------------------|
------------------------|-----|-----|------------------11--------------|
------------------------|-----|-----|--13--11--11--13------13--11--13--|
------------------------|-----|-----|----------------------------------|
--9-9----9--------------|-----|-----|----------------------------------|


   E   E   E   E   E   E   E   E      E   E   E   E   E   E   E   E   
----------------------------------|----------------------------------|
--11--12--11--11--12--11----------|----------------------------------|
--------------------------11------|------------------11--------------|
------------------------------13--|--13--11--11--13------13--11------|
----------------------------------|------------------------------13--|
----------------------------------|----------------------------------|


  E   E  E   E  E   E  E   E      E   E   E   E   E   E   E   E   
------------------------------|----------------------------------|
------------------------------|----------------------------------|
------------------------------|------------------11--------------|
--9--11--9------9-------------|--13--11--11--13------13--11--13--|
------------13-----13--9------|----------------------------------|
--------------------------13--|----------------------------------|


   E   E   E   E   E   E   E   E      E   E   E   E   E   E   E   E   
----------------------------------|----------------------------------|
--11--12--11--11--12--11----------|--------------------------14--14--|
--------------------------11------|--13--13--15--15--16--16----------|
------------------------------13--|----------------------------------|
----------------------------------|----------------------------------|
----------------------------------|----------------------------------|


   E   E   E   E   E   E   E   E      E   E   E   E   E   E   E   E   
----------------------------------|----------------------------------|
--14--16--16--16------------------|----------------------------------|
------------------12--12--12--12--|------------------11--------------|
----------------------------------|--13--11--11--13------13--11--13--|
----------------------------------|----------------------------------|
----------------------------------|----------------------------------|


   E   E   E   E   E   E   E   E      E   E   E   E   E   E   E   E   
----------------------------------|----------------------------------|
--11--12--11--11--12--11----------|----------------------------------|
--------------------------11------|------------------11--------------|
------------------------------13--|--13--11--11--13------13--11------|
----------------------------------|------------------------------13--|
----------------------------------|----------------------------------|


  E   E  E   E  E   E  E   E      E   E   E   E   E   E   E   E   
------------------------------|----------------------------------|
------------------------------|----------------------------------|
------------------------------|------------------11--------------|
--9--11--9------9-------------|--13--11--11--13------13--11--13--|
------------13-----13--9------|----------------------------------|
--------------------------13--|----------------------------------|


   E   E   E   E   E   E   E   E     E  E  E  E  E  E  E  E   
----------------------------------|--------------------------|
--11--12--11--11--12--11----------|--------------------------|
--------------------------11------|--------------------------|
------------------------------13--|--6--6--6--6--6--6--6--6--|
----------------------------------|--------------------------|
----------------------------------|--------------------------|


  E  E  E  E  E  E  E  E     E  E  E  E  E  E  E  E   
--------------------------|--------------------------|
--------------------------|--------------------------|
--------------------------|--9--9--9--9--9--9--9--9--|
--8--8--8--8--8--8--8--8--|--x--x--x--x--x--x--x--x--|
--------------------------|--7--7--7--7--7--7--7--7--|
--------------------------|--------------------------|


  E  E  E  E  E  E  E  E      Q    E   Q    E  Q       E  Q    E  H         
--------------------------|-------------------------|----------------------|
--------------------------|--12----L--11----L--9----|--L--8----L--L--------|
--8--8--8--8--8--8--8--8--|-------------------------|----------------------|
--x--x--x--x--x--x--x--x--|-------------------------|----------------------|
--6--6--6--6--6--6--6--6--|-------------------------|----------------------|
--------------------------|-------------------------|----------------------|


   Q    E   Q    E  Q       E  Q    E  H            Q    E   Q    E  Q     
-------------------------|----------------------|-------------------------|
--12----L--11----L--9----|--L--8----L--L--------|--12----L--11----L--9----|
-------------------------|----------------------|---x--------x-------x----|
-------------------------|----------------------|---9----L---8----L--6----|
-------------------------|----------------------|-------------------------|
-------------------------|----------------------|-------------------------|


  E  Q    E  H            E   E   E   E   E   E   E   E   
----------------------|----------------------------------|
--L--8----L--L--------|--16--16--16--16--16--16--16--16--|
-----x----------------|----------------------------------|
--L--5----L--L--------|----------------------------------|
----------------------|----------------------------------|
----------------------|----------------------------------|


   E   E   E   E   E   E   E   E      W                   W                 
----------------------------------|--------------------|-------------------|
--14--14--14--14--14--14--14--14--|--------------------|-------------------|
----------------------------------|--15----------------|--L----------------|
----------------------------------|--------------------|-------------------|
----------------------------------|--------------------|-------------------|
----------------------------------|--------------------|-------------------|


  W                   W                   Q    Q    Q    Q     
-------------------|-------------------|-----------------7----|
-------------------|-------------------|------------9----L----|
--L----------------|--L----------------|--8----8----L----L----|
-------------------|-------------------|----------------------|
-------------------|-------------------|----------------------|
-------------------|-------------------|----------------------|


                          PM   PM   PM PM PM PM         PM   PM PM PM PM PM    
  E  Q    E  Q    Q       Q    Q    S  E  S  Q       E  Q    E  S  E  S  Q     
--L--0----0------------|--------------------------|---------------------------|
--L--------------------|--------------------------|---------------------------|
--L----------8---------|--------------------------|---------------------------|
-----------------------|--1----1----1--1--1--1----|--L--1----1--1--1--1--1----|
-----------------------|--1----1----1--1--1--1----|--L--1----1--1--1--1--1----|
-----------------------|--1----1----1--1--1--1----|--L--1----1--1--1--1--1----|


  PM   PM   PM PM PM             PM   PM PM PM PM        
  Q    Q    S  E  S  E  E     E  Q    E  S  E  S  E  E   
---------------------------|----------------------------|
---------------------------|----------------------------|
---------------------------|----------------------------|
--1----1----1--1--1--------|-----1----1--1--1--1--------|
--1----1----1--1--1--------|-----1----1--1--1--1--------|
--1----1----1--1--1--1-----|-----1----1--1--1--1--1-----|


  PM   PM   PM PM PM PM         PM   PM PM PM PM PM      PM   PM             
  Q    Q    S  E  S  Q       E  Q    E  S  E  S  Q       Q    Q    H         
--------------------------|---------------------------|---------------------|
--------------------------|---------------------------|---------------------|
--------------------------|---------------------------|---------------------|
--1----1----1--1--1--1----|--L--1----1--1--1--1--1----|--1----1----1--------|
--1----1----1--1--1--1----|--L--1----1--1--1--1--1----|--1----1----1--------|
--1----1----1--1--1--1----|--L--1----1--1--1--1--1----|--1----1----1--------|


     PM    PM   PM PM   PM PM                 PM    PM        
  E  E  E  S  S S  S  S S  E  E     Q    Q    S  E  S  E  E   
---------------------------------|---------------------------|
---------------------------------|---------------------------|
---------------------------------|---------------------------|
-----1-----1----1--1----1--1-----|--6----6-------------------|
-----1-----1----1--1----1--1-----|--6----6-------------------|
-----1-----1----1--1----1--1-----|--6----6----5--6--5--6-----|


             PM    PM                          PM    PM        
  E  Q    E  S  E  S  E  E     S S S S S S S S S  E  S  E  E   
----------------------------|---------------------------------|
----------------------------|---------------------------------|
----------------------------|---------------------------------|
-----9----9-----------------|--9-8-6---8-6-5------------------|
-----9----9-----------------|--------7-------6----------------|
-----9----9--2--5--2--5--5--|------------------5--6--5--6-----|


             PM    PM                    PM    PM        
  E  Q    E  S  E  S  E  E     Q    Q    S  E  S  E  E   
----------------------------|---------------------------|
----------------------------|---------------------------|
----------------------------|---------------------------|
-----2----2-----------------|--6----6-------------------|
-----2----2-----------------|--6----6-------------------|
-----2----2--2--5--2--5--5--|--6----6----5--6--5--6-----|


             PM    PM                          PM    PM        
  E  Q    E  S  E  S  E  E     S S S S S S S S S  E  S  E  E   
----------------------------|---------------------------------|
----------------------------|---------------------------------|
----------------------------|---------------------------------|
-----9----9-----------------|--9-8-6---8-6-5------------------|
-----9----9-----------------|--------7-------6----------------|
-----9----9--2--5--2--5--5--|------------------5--6--5--6-----|


             PM    PM                                                
  E  Q    E  S  E  S  E  E     W                   W                 
----------------------------|-------------------|-------------------|
----------------------------|-------------------|-------------------|
----------------------------|-------------------|-------------------|
-----2----2-----------------|--2----------------|--5----------------|
-----2----2-----------------|--2----------------|--5----------------|
-----2----2--2--5--2--5--5--|--2----------------|--5----------------|


   E   E   E   E   E   E   E   E      E   E   E   E   E   E   E   E   
----------------------------------|----------------------------------|
----------------------------------|------------------16--16--16--16--|
--13--13--13--13--15--15--15--15--|--16--16--16--16---x---x---x---x--|
---x---x---x---x---x---x---x---x--|---x---x---x---x--13--13--13--13--|
--11--11--11--11--13--13--13--13--|--14--14--14--14------------------|
----------------------------------|----------------------------------|


   E   E   E   E   E   E   E   E     E   E  E   E  E   E  E   E   
----------------------------------|------------------------------|
----------------------------------|------------------------------|
------------------11--------------|------------------------------|
--13--11--11--13------13--11------|--9--11--9------9-------------|
------------------------------13--|------------13-----13--9------|
----------------------------------|--------------------------13--|


   E   E   E   E   E   E   E   E      E   E   E   E   E   E   E   E   
----------------------------------|----------------------------------|
----------------------------------|--11--12--11--11--12--11----------|
------------------11--------------|--------------------------11------|
--13--11--11--13------13--11--13--|------------------------------13--|
----------------------------------|----------------------------------|
----------------------------------|----------------------------------|


   E   E   E   E   E   E   E   E      E   E   E   E   E   E   E   E   
----------------------------------|----------------------------------|
--------------------------14--14--|--14--16--16--16------------------|
--13--13--15--15--16--16----------|------------------12--12--12--12--|
----------------------------------|----------------------------------|
----------------------------------|----------------------------------|
----------------------------------|----------------------------------|


   E   E   E   E   E   E   E   E      E   E   E   E   E   E   E   E   
----------------------------------|----------------------------------|
----------------------------------|--11--12--11--11--12--11----------|
------------------11--------------|--------------------------11------|
--13--11--11--13------13--11--13--|------------------------------13--|
----------------------------------|----------------------------------|
----------------------------------|----------------------------------|


   E   E   E   E   E   E   E   E     E   E  E   E  E   E  E   E   
----------------------------------|------------------------------|
----------------------------------|------------------------------|
------------------11--------------|------------------------------|
--13--11--11--13------13--11------|--9--11--9------9-------------|
------------------------------13--|------------13-----13--9------|
----------------------------------|--------------------------13--|


   E   E   E   E   E   E   E   E      E   E   E   E   E   E   E   E   
----------------------------------|----------------------------------|
----------------------------------|--11--12--11--11--12--11----------|
------------------11--------------|--------------------------11------|
--13--11--11--13------13--11--13--|------------------------------13--|
----------------------------------|----------------------------------|
----------------------------------|----------------------------------|


   E   E   E   E   E   E   E   E      E   E   E   E   E   E   E   E   
--16--16--18--18--19--19--21--21--|--21--23--23--23------------------|
----------------------------------|------------------20--20--20--20--|
----------------------------------|----------------------------------|
----------------------------------|----------------------------------|
----------------------------------|----------------------------------|
----------------------------------|----------------------------------|


   E   E   E   E   E   E   E   E      E   E   E   E   E   E   E   E   
--19--19--19--------------18--18--|--18--18--18--18--18--18--18--18--|
--------------16--16--16----------|----------------------------------|
----------------------------------|----------------------------------|
----------------------------------|----------------------------------|
----------------------------------|----------------------------------|
----------------------------------|----------------------------------|


   E   E   E   E   E   E   E   E      E   E   E   E   Q      E   E   
--19--19--19----------------------|---------------------------------|
--------------16--16--16----------|---------------------------------|
--------------------------18--18--|--18--18--18--18--15b----15------|
----------------------------------|-----------------------------16--|
----------------------------------|---------------------------------|
----------------------------------|---------------------------------|


   E   E   E   E   E   E   E   E      E   E   E   E   E   E   E   E   
--19--19--19--------------18--18--|--18--18--18--18--18--18--18--18--|
--------------16--16--16----------|----------------------------------|
----------------------------------|----------------------------------|
----------------------------------|----------------------------------|
----------------------------------|----------------------------------|
----------------------------------|----------------------------------|


   E   E   E   E   E   E   E   E      E   E   E   E   E   E   E   E   
--23--23--23--23--23--23--23--23--|--21--21--21--21--21--21--21--21--|
----------------------------------|----------------------------------|
----------------------------------|----------------------------------|
----------------------------------|----------------------------------|
----------------------------------|----------------------------------|
----------------------------------|----------------------------------|


   W                   W                   E  E  E  E  E  E  E  E   
--19----------------|--L----------------|--------------------------|
--------------------|-------------------|--------------------------|
--------------------|-------------------|--------------------------|
--------------------|-------------------|--------------------------|
--------------------|-------------------|--------------6-----------|
--------------------|-------------------|--6--9--8--6-----9--8--9--|


  PM PM PM PM PM PM PM PM PM PM PM PM                             
  S  S  E  S  S  E  S  S  E  S  S  E     E  E  E  E  E  E  E  E   
--------------------------------------|--------------------------|
--------------------------------------|--------------------------|
--------------------------------------|--------------------------|
--5--5--5--5--5--5--5--5--5--5--5--5--|--------------------------|
--5--5--5--5--5--5--5--5--5--5--5--5--|--------------6-----------|
--5--5--5--5--5--5--5--5--5--5--5--5--|--6--9--8--6-----9--8--9--|


  E  E  E  E  E  E  E  E     E  E  E  E  E  E  E  E   
--------------------------|--------------------------|
--------------------------|--------------------------|
--------------------------|--------------------------|
--------------------------|--------------------------|
--------------6-----------|--------------6-----------|
--6--9--8--6-----9--8--5--|--6--9--8--6-----9--8--9--|


  E  E  E  E  E  E  E  E    
--------------------------||
--------------------------||
--------------------------||
--5-----------------------||
--5-----------------------||
--5-----------------------||


Duration Legend
---------------
W - whole
H - half
Q - quarter
E - 8th
S - 16th
T - 32nd
X - 64th
. - note dotted
|-n-|  - n-tuplets


Tablature Legend
----------------
L - tied note
x - dead note
g - grace note
(n) - ghost note
> - accentuded note
NH - natural harmonic
AH - artificial harmonic
TH - tapped harmonic
SH - semi harmonic
PH - pitch harmonic
h - hammer on
p - pull off
b - bend
br - bendRelease
pb - preBend
pbr - preBendRelease
brb - bendReleaseBend
\n/ - tremolo bar dip
\n - tremolo bar dive
-/n - tremolo bar Release up
/n\ - tremolo bar inverted dip
/n - tremolo bar return
-\n - tremolo bar Release down
S - shift slide
s - legato slide
/ -  slide into from below or out of upwards
\ -  slide into from above or out of downwards
~ - vibrato
W - wide vibrato
tr - trill
TP - tremolo picking
T - tapping
S - slap
P - pop
< - fade in
^ - brush up
v - brush down


That is all! I hope this helped, and be sure to check out my cover if you are
having problems with the tab. Thanks, oh and one last thing... ROCK OUT!!!!
comments
We did not receive enough feedback on this tab! Please rate:
print report bad tab
1 2 3 4 5
I want to post or [tab]
guest
You may want to rate the tab now too:
select rating
Please do not post tabs as comments. Select "correction" instead!