Oops, an error
Loading. Please wait.

Where Did I Go Wrong Tab

ver1
ver1

Whole song

Interactive

More versions @911Tabs.com
1,061 views 12 this week
no commentswrite comment
1 2 3 4 5
excellent!
x 1
Autoscroll
+/-
esc
set tempo
stop
Contributor
Difficulty
Tuning
advanced
C# G# C# F# A# D#
Hey! There's an official Ultimate Guitar app which is ideal
for learning songs when you're away from computer. Get the app
WARNING: You are trying to view
                                    content from Ultimate-Guitar.com
                                    in an unauthorized application,
                                    which is prohibited.

                                    Please use an official Ultimate
                                    Guitar Tabs application for iPhone,
                                    iPad or Android to access legitimate
                                    chords, guitar, bass, and drum tabs
                                    from Ultimate-Guitar.com database.

                                    Type "ultimate guitar tabs" in Apple
                                    App Store's or Android Market's
                                    search to find the application.
----------------------------------------------------------------------------
                         Where Did I Go Wrong
                             Heartist
----------------------------------------------------------------------------

Isn’t sweep picking great? I do not advise novice guitarists to try the sweep picking.
It took me about 5 hours of repeated practice to get it down, so if you do not have a
quality of patience, then you will grow upset. Other than that, this is another song 
from my (as of right now) favorite band. Enjoy!

Username: dkm817 (same on X box live)
Youtube Cover: http://www.youtube.com/watch?v=YXC-y6fbTvw
Email: guitardrums@rockfan.com

Guitar 1 Rhythmic (C# G# C# F# A# D#)
Guitar 2 Lead     (C# G# C# F# A# D#)
Guitar 3 Acoustic (D# G# C# F# A# D#)

NOTE: This was exported off of guitar pro.


Guitar 1

                                      E  E  E  E  E  E  E  E
D#||-------|-------|-------|-------|--------------------------|
A#||-------|-------|-------|-------|--------------------------|
F#||-------|-------|-------|-------|--------------------------|
C#||-------|-------|-------|-------|--0--0--0--0--0--0--0--0--|
G#||-------|-------|-------|-------|--0--0--0--0--0--0--0--0--|
C#||-------|-------|-------|-------|--0--0--0--0--0--0--0--0--|


  E  E  E  E  E  E  E  E     E  E  E  E  E  E  E  E
--------------------------|--------------------------|
--------------------------|--------------------------|
--------------------------|--------------------------|
--0--0--0--0--0--0--0--0--|--4--4--4--4--4--4--4--4--|
--0--0--0--0--0--0--0--0--|--4--4--4--4--4--4--4--4--|
--0--0--0--0--0--0--0--0--|--4--4--4--4--4--4--4--4--|


  E  E  E  E  E  E  E  E     E  E  E  E  E  E  E  E
--------------------------|--------------------------|
--------------------------|--------------------------|
--------------------------|--------------------------|
--4--4--4--4--4--4--4--4--|--0--0--0--0--0--0--0--0--|
--4--4--4--4--4--4--4--4--|--0--0--0--0--0--0--0--0--|
--4--4--4--4--4--4--4--4--|--0--0--0--0--0--0--0--0--|


  E  E  E  E  E  E  E  E     E  E  E  E  E  E  E  E
--------------------------|--------------------------|
--------------------------|--------------------------|
--------------------------|--------------------------|
--0--0--0--0--0--0--0--0--|--4--4--4--4--4--4--4--4--|
--0--0--0--0--0--0--0--0--|--4--4--4--4--4--4--4--4--|
--0--0--0--0--0--0--0--0--|--4--4--4--4--4--4--4--4--|


                             PM                PM
  E  E  E  E  E  E  E  E     Q     E  E  E  E  Q
--------------------------|-------------------------|
--------------------------|-------------------------|
--------------------------|-------------------------|
--7--7--7--7--7--7--7--7--|--0--------7--7--7--0----|
--7--7--7--7--7--7--7--7--|--0----11--------L--0----|
--7--7--7--7--7--7--7--7--|--0-----------------0----|


                               PM
  E  E  E  E  S E  S E  S S    Q     E  E  E  E  S E  S
----------------------------|---------------------------|
----------------------------|---------------------------|
-----6--6--6----------------|---------------------------|
--9--------L----------------|--0--------7--7--7---------|
----------------------------|--0----11--------L---------|
--------------4-4--4-4--4-4-|--0-----------------4-4--4-|


                                            PM                PM
  E  S S S S S S  S  S  S  S  S  S  S  S    Q     E  E  E  E  Q
-----------------------------------------|-------------------------|
-----------------------------------------|-------------------------|
-----------------------------------------|-------------------------|
-----------------------------------------|--0--------7--7--7--0----|
-----------------------------12-12-12-12-|--0----11--------L--0----|
--4--4-4-4-4-4-4-11-11-11-11-------------|--0-----------------0----|


                               PM                PM
  E  E  E  E  S E  S E  S S    Q     E  E  E  E  Q
----------------------------|-------------------------|
----------------------------|-------------------------|
-----6--6--6----------------|-------------------------|
--9--------L----------------|--0--------7--7--7--0----|
----------------------------|--0----11--------L--0----|
--------------4-4--4-4--4-4-|--0-----------------0----|


                                    PM  PM  PM  PM  PM  PM  PM  PM
  S S S S S S S S S S S S E  E      E   E   E   E   E   E   E   E
--------------------------------|----------------------------------|
--------------------------------|----------14--------------14------|
--7-7-7-7-7-7-7-7-9-9-9-9-9-----|------11------11------11------11--|
--x-x-x-x-x-x-x-x-x-x-x-x-x-----|--11--------------11--------------|
--5-5-5-5-5-5-5-5-7-7-7-7-7-----|----------------------------------|
--------------------------------|----------------------------------|


   PM  PM  PM  PM  PM  PM  PM  PM     PM  PM  PM  PM  PM  PM  PM  PM
   E   E   E   E   E   E   E   E      E   E   E   E   E   E   E   E
----------------------------------|----------------------------------|
----------14--------------14------|----------15--------------15------|
------11------11------11------11--|------11------11------11------11--|
--11--------------11--------------|--12--------------12--------------|
----------------------------------|----------------------------------|
----------------------------------|----------------------------------|


   PM  PM  PM  PM  PM  PM  PM  PM     PM  PM  PM  PM  PM  PM  PM  PM
   E   E   E   E   E   E   E   E      E   E   E   E   E   E   E   E
----------------------------------|----------------------------------|
----------15--------------15------|----------14--------------14------|
------11------11------11------11--|------11------11------11------11--|
--12--------------12--------------|--11--------------11--------------|
----------------------------------|----------------------------------|
----------------------------------|----------------------------------|


   PM  PM  PM  PM  PM  PM  PM  PM     PM  PM  PM  PM  PM  PM  PM  PM
   E   E   E   E   E   E   E   E      E   E   E   E   E   E   E   E
----------------------------------|----------------------------------|
----------14--------------14------|----------15--------------15------|
------11------11------11------11--|------11------11------11------11--|
--11--------------11--------------|--12--------------12--------------|
----------------------------------|----------------------------------|
----------------------------------|----------------------------------|


   PM  PM  PM  PM  PM  PM  PM  PM     PM  PM  PM  PM  PM  PM  PM  PM
   E   E   E   E   E   E   E   E      E   E   E   E   E   E   E   E
----------------------------------|----------------------------------|
----------15--------------15------|----------14--------------14------|
------11------11------11------11--|------11------11------11------11--|
--12--------------12--------------|--11--------------11--------------|
----------------------------------|----------------------------------|
----------------------------------|----------------------------------|


   PM  PM  PM  PM  PM  PM  PM  PM     PM  PM  PM  PM  PM  PM  PM  PM
   E   E   E   E   E   E   E   E      E   E   E   E   E   E   E   E
----------------------------------|----------------------------------|
----------14--------------14------|----------15--------------15------|
------11------11------11------11--|------11------11------11------11--|
--11--------------11--------------|--12--------------12--------------|
----------------------------------|----------------------------------|
----------------------------------|----------------------------------|


   PM  PM  PM  PM  PM  PM  PM  PM     PM  PM  PM  PM  PM  PM  PM  PM
   E   E   E   E   E   E   E   E      E   E   E   E   E   E   E   E
----------------------------------|----------------------------------|
----------15--------------15------|----------14--------------14------|
------11------11------11------11--|------11------11------11------11--|
--12--------------12--------------|--11--------------11--------------|
----------------------------------|----------------------------------|
----------------------------------|----------------------------------|


   PM  PM  PM  PM  PM  PM  PM  PM     PM  PM  PM  PM  PM  PM  PM  PM
   E   E   E   E   E   E   E   E      E   E   E   E   E   E   E   E
----------------------------------|----------------------------------|
----------14--------------14------|----------15--------------15------|
------11------11------11------11--|------11------11------11------11--|
--11--------------11--------------|--12--------------12--------------|
----------------------------------|----------------------------------|
----------------------------------|----------------------------------|


   PM  PM  PM  PM  PM  PM  PM  PM
   E   E   E   E   E   E   E   E     E  E  E  E  E  E  E  E
----------------------------------|--------------------------|
----------15--------------15------|--------------------------|
------11------11------11------11--|--------------------------|
--12--------------12--------------|--0--0--0--0--0--0-----0--|
----------------------------------|--0--0--0--0--0--0-----0--|
----------------------------------|--0--0--0--0--0--0-----0--|


  E  E  E  E  E  E  E  E     E  E  E  E  E  E  E  E
--------------------------|--------------------------|
--------------------------|--------------------------|
--------------------------|--------------------------|
--L--0--0--0--0--0--0--0--|--4--4--4--4--4--4-----4--|
--L--0--0--0--0--0--0--0--|--4--4--4--4--4--4-----4--|
--L--0--0--0--0--0--0--0--|--4--4--4--4--4--4-----4--|


  E  E  E  E  E  E  E  E     E  E  E  E  E  E  E  E
--------------------------|--------------------------|
--------------------------|--------------------------|
--------------------------|--------------------------|
--L--4--4--4--4--4--4--4--|--7--7--7--7--7--7--7--7--|
--L--4--4--4--4--4--4--4--|--7--7--7--7--7--7--7--7--|
--L--4--4--4--4--4--4--4--|--7--7--7--7--7--7--7--7--|


  E  E  E  E  E  E  E  E     E  E  E  E  E  E  E  E
--------------------------|--------------------------|
--------------------------|--------------------------|
--------------------------|--------------------------|
--7--7--7--7--7--7--7--7--|--2--2--2--2--2--2--2--2--|
--7--7--7--7--7--7--7--7--|--2--2--2--2--2--2--2--2--|
--7--7--7--7--7--7--7--7--|--2--2--2--2--2--2--2--2--|


  E  E  E  E  E  E  E  E     E  E  Q    Q    Q       E  E  E  E  E  E  E  E
--------------------------|-----------------------|--------------------------|
--------------------------|-----------------------|--------------------------|
--------------------------|-----------------------|--------------------------|
--2--2--2--2--2--2--2--2--|--0-----0--------------|--0--0--0--0--0--0--0--0--|
--2--2--2--2--2--2--2--2--|--0-----0--------------|--0--0--0--0--0--0--0--0--|
--2--2--2--2--2--2--2--2--|--0-----0--------------|--0--0--0--0--0--0--0--0--|


  E  E  E  E  E  E  E  E     E  E  E  E  E  E  E  E
--------------------------|--------------------------|
--------------------------|--------------------------|
--------------------------|--------------------------|
--0--0--0--0--0--0--0--0--|--4--4--4--4--4--4--4--4--|
--0--0--0--0--0--0--0--0--|--4--4--4--4--4--4--4--4--|
--0--0--0--0--0--0--0--0--|--4--4--4--4--4--4--4--4--|


  E  E  E  E  E  E  E  E     E  E  E  E  E  E  E  E
--------------------------|--------------------------|
--------------------------|--------------------------|
--------------------------|--------------------------|
--4--4--4--4--4--4--4--4--|--0--0--0--0--0--0--0--0--|
--4--4--4--4--4--4--4--4--|--0--0--0--0--0--0--0--0--|
--4--4--4--4--4--4--4--4--|--0--0--0--0--0--0--0--0--|


  E  E  E  E  E  E  E  E     E  E  E  E  E  E  E  E
--------------------------|--------------------------|
--------------------------|--------------------------|
--------------------------|--------------------------|
--0--0--0--0--0--0--0--0--|--4--4--4--4--4--4--4--4--|
--0--0--0--0--0--0--0--0--|--4--4--4--4--4--4--4--4--|
--0--0--0--0--0--0--0--0--|--4--4--4--4--4--4--4--4--|


                             PM                PM
  E  E  E  E  E  E  E  E     Q     E  E  E  E  Q
--------------------------|-------------------------|
--------------------------|-------------------------|
--------------------------|-------------------------|
--7--7--7--7--7--7--7--7--|--0--------7--7--7--0----|
--7--7--7--7--7--7--7--7--|--0----11--------L--0----|
--7--7--7--7--7--7--7--7--|--0-----------------0----|


                               PM                PM
  E  E  E  E  S E  S E  S S    Q     E  E  E  E  Q
----------------------------|-------------------------|
----------------------------|-------------------------|
-----6--6--6----------------|-------------------------|
--9--------L----------------|--0--------7--7--7--0----|
----------------------------|--0----11--------L--0----|
--------------4-4--4-4--4-4-|--0-----------------0----|


                                    PM  PM  PM  PM  PM  PM  PM  PM
  S S S S S S S S S S S S E  E      E   E   E   E   E   E   E   E
--------------------------------|----------------------------------|
--------------------------------|----------14--------------14------|
--7-7-7-7-7-7-7-7-9-9-9-9-9-----|------11------11------11------11--|
--x-x-x-x-x-x-x-x-x-x-x-x-x-----|--11--------------11--------------|
--5-5-5-5-5-5-5-5-7-7-7-7-7-----|----------------------------------|
--------------------------------|----------------------------------|


   PM  PM  PM  PM  PM  PM  PM  PM     PM  PM  PM  PM  PM  PM  PM  PM
   E   E   E   E   E   E   E   E      E   E   E   E   E   E   E   E
----------------------------------|----------------------------------|
----------14--------------14------|----------15--------------15------|
------11------11------11------11--|------11------11------11------11--|
--11--------------11--------------|--12--------------12--------------|
----------------------------------|----------------------------------|
----------------------------------|----------------------------------|


   PM  PM  PM  PM  PM  PM  PM  PM     PM  PM  PM  PM  PM  PM  PM  PM
   E   E   E   E   E   E   E   E      E   E   E   E   E   E   E   E
----------------------------------|----------------------------------|
----------15--------------15------|----------14--------------14------|
------11------11------11------11--|------11------11------11------11--|
--12--------------12--------------|--11--------------11--------------|
----------------------------------|----------------------------------|
----------------------------------|----------------------------------|


   PM  PM  PM  PM  PM  PM  PM  PM     PM  PM  PM  PM  PM  PM  PM  PM
   E   E   E   E   E   E   E   E      E   E   E   E   E   E   E   E
----------------------------------|----------------------------------|
----------14--------------14------|----------15--------------15------|
------11------11------11------11--|------11------11------11------11--|
--11--------------11--------------|--12--------------12--------------|
----------------------------------|----------------------------------|
----------------------------------|----------------------------------|


   PM  PM  PM  PM  PM  PM  PM  PM     PM  PM  PM  PM  PM  PM  PM  PM
   E   E   E   E   E   E   E   E      E   E   E   E   E   E   E   E
----------------------------------|----------------------------------|
----------15--------------15------|----------14--------------14------|
------11------11------11------11--|------11------11------11------11--|
--12--------------12--------------|--11--------------11--------------|
----------------------------------|----------------------------------|
----------------------------------|----------------------------------|


   PM  PM  PM  PM  PM  PM  PM  PM     PM  PM  PM  PM  PM  PM  PM  PM
   E   E   E   E   E   E   E   E      E   E   E   E   E   E   E   E
----------------------------------|----------------------------------|
----------14--------------14------|----------15--------------15------|
------11------11------11------11--|------11------11------11------11--|
--11--------------11--------------|--12--------------12--------------|
----------------------------------|----------------------------------|
----------------------------------|----------------------------------|


   PM  PM  PM  PM  PM  PM  PM  PM     PM  PM  PM  PM  PM  PM  PM  PM
   E   E   E   E   E   E   E   E      E   E   E   E   E   E   E   E
----------------------------------|----------------------------------|
----------15--------------15------|----------14--------------14------|
------11------11------11------11--|------11------11------11------11--|
--12--------------12--------------|--11--------------11--------------|
----------------------------------|----------------------------------|
----------------------------------|----------------------------------|


   PM  PM  PM  PM  PM  PM  PM  PM     PM  PM  PM  PM  PM  PM  PM  PM
   E   E   E   E   E   E   E   E      E   E   E   E   E   E   E   E
----------------------------------|----------------------------------|
----------14--------------14------|----------15--------------15------|
------11------11------11------11--|------11------11------11------11--|
--11--------------11--------------|--12--------------12--------------|
----------------------------------|----------------------------------|
----------------------------------|----------------------------------|


   PM  PM  PM  PM  PM  PM  PM  PM
   E   E   E   E   E   E   E   E     E  E  E  E  E  E  E  E
----------------------------------|--------------------------|
----------15--------------15------|--------------------------|
------11------11------11------11--|--------------------------|
--12--------------12--------------|--0--0--0--0--0--0-----0--|
----------------------------------|--0--0--0--0--0--0-----0--|
----------------------------------|--0--0--0--0--0--0-----0--|


  E  E  E  E  E  E  E  E     E  E  E  E  E  E  E  E
--------------------------|--------------------------|
--------------------------|--------------------------|
--------------------------|--------------------------|
--L--0--0--0--0--0--0--0--|--4--4--4--4--4--4-----4--|
--L--0--0--0--0--0--0--0--|--4--4--4--4--4--4-----4--|
--L--0--0--0--0--0--0--0--|--4--4--4--4--4--4-----4--|


  E  E  E  E  E  E  E  E     E  E  E  E  E  E  E  E
--------------------------|--------------------------|
--------------------------|--------------------------|
--------------------------|--------------------------|
--L--4--4--4--4--4--4--4--|--7--7--7--7--7--7--7--7--|
--L--4--4--4--4--4--4--4--|--7--7--7--7--7--7--7--7--|
--L--4--4--4--4--4--4--4--|--7--7--7--7--7--7--7--7--|


  E  E  E  E  E  E  E  E     E  E  E  E  E  E  E  E
--------------------------|--------------------------|
--------------------------|--------------------------|
--------------------------|--------------------------|
--7--7--7--7--7--7--7--7--|--2--2--2--2--2--2--2--2--|
--7--7--7--7--7--7--7--7--|--2--2--2--2--2--2--2--2--|
--7--7--7--7--7--7--7--7--|--2--2--2--2--2--2--2--2--|


  E  E  E  E  E  E  E  E     E  E  Q    Q    Q       E  E  E  E  E  E  E  E
--------------------------|-----------------------|--------------------------|
--------------------------|-----------------------|--------------------------|
--------------------------|-----------------------|--------------------------|
--2--2--2--2--2--2--2--2--|--0-----0--------------|--0--0--0--0--0--0--0--0--|
--2--2--2--2--2--2--2--2--|--0-----0--------------|--0--0--0--0--0--0--0--0--|
--2--2--2--2--2--2--2--2--|--0-----0--------------|--0--0--0--0--0--0--0--0--|


  E  E  E  E  E  E  E  E     E  E  E  E  E  E  E  E
--------------------------|--------------------------|
--------------------------|--------------------------|
--------------------------|--------------------------|
--0--0--0--0--0--0--0--0--|--4--4--4--4--4--4--4--4--|
--0--0--0--0--0--0--0--0--|--4--4--4--4--4--4--4--4--|
--0--0--0--0--0--0--0--0--|--4--4--4--4--4--4--4--4--|


  E  E  E  E  E  E  E  E     E  E  E  E  E  E  E  E
--------------------------|--------------------------|
--------------------------|--------------------------|
--------------------------|--------------------------|
--4--4--4--4--4--4--4--4--|--0--0--0--0--0--0--0--0--|
--4--4--4--4--4--4--4--4--|--0--0--0--0--0--0--0--0--|
--4--4--4--4--4--4--4--4--|--0--0--0--0--0--0--0--0--|


  E  E  E  E  E  E  E  E     E  E  E  E  E  E  E  E
--------------------------|--------------------------|
--------------------------|--------------------------|
--------------------------|--------------------------|
--0--0--0--0--0--0--0--0--|--4--4--4--4--4--4--4--4--|
--0--0--0--0--0--0--0--0--|--4--4--4--4--4--4--4--4--|
--0--0--0--0--0--0--0--0--|--4--4--4--4--4--4--4--4--|


  E  E  E  E  E  E  E  E     S S S S S S S S  S S S S S S S S
--------------------------|----------------5-10-5-------------|
--------------------------|--------------7--------7-----------|
--------------------------|--7-6-7-6---7------------7---7-6---|
--7--7--7--7--7--7--7--7--|----------7----------------7-----7-|
--7--7--7--7--7--7--7--7--|-----------------------------------|
--7--7--7--7--7--7--7--7--|-----------------------------------|


  S S S S S S S S S S S S S S S S    S S S S S S S S S S S S S S S S
----------------5-9-5-------------|----------------2-5-2-------------|
--------------7-------7-----------|--------------2-------2-----------|
--7-6-7-6---6-----------6---7-----|--4-2-4-2---4-----------4---4-2---|
----------7---------------9---9-7-|----------4---------------4-----4-|
----------------------------------|----------------------------------|
----------------------------------|----------------------------------|


  S S S S S S S S S S S S S S S S    S S S S S S S S  S S S S S S S S
----------------4-7-4-------------|----------------5-10-5-------------|
--------------5-------5-----------|--------------7--------7-----------|
--4-2-4-2---4-----------4---------|--7-6-7-6---7------------7---7-6---|
----------4---------------4-7-4-0-|----------7----------------7-----7-|
----------------------------------|-----------------------------------|
----------------------------------|-----------------------------------|


  S S S S S S S S S S S S S S S S    S S S S S S S S S S S S S S S S
----------------5-9-5-------------|--------------------------------2-|
--------------7-------7-----------|------------------------------3---|
--7-6-7-6---6-----------6---7-----|--4-2---2-4-2---2-6-2---2-6-2-----|
----------7---------------9---9-7-|------4-------4-------4-----------|
----------------------------------|----------------------------------|
----------------------------------|----------------------------------|


  S S S S S S S S S S S S S S S S    E  E  E  E  E  E  E  E
--5-2-----------------------4-7-4-|--------------------------|
------3-------------------5-------|--------------------------|
--------2---2-4-2---2-4-2---------|--------------------------|
----------4-------4---------------|--0--0--0--0--0--0--0--0--|
----------------------------------|--0--0--0--0--0--0--0--0--|
----------------------------------|--0--0--0--0--0--0--0--0--|


  E  E  E  E  E  E  E  E     E  E  E  E  E  E  E  E
--------------------------|--------------------------|
--------------------------|--------------------------|
--------------------------|--------------------------|
--0--0--0--0--0--0--0--0--|--2--2--2--2--2--2--2--2--|
--0--0--0--0--0--0--0--0--|--2--2--2--2--2--2--2--2--|
--0--0--0--0--0--0--0--0--|--2--2--2--2--2--2--2--2--|


  E  E  E  E  E  E  E  E     E  E  E  E  E  E  E  E
--------------------------|--------------------------|
--------------------------|--------------------------|
--------------------------|--------------------------|
--2--2--2--2--2--2--2--2--|--4--4--4--4--4--4--4--4--|
--2--2--2--2--2--2--2--2--|--4--4--4--4--4--4--4--4--|
--2--2--2--2--2--2--2--2--|--4--4--4--4--4--4--4--4--|


  E  E  E  E  E  E  E  E     E  E  E  E  E  E  E  E
--------------------------|--------------------------|
--------------------------|--------------------------|
--------------------------|--------------------------|
--4--4--4--4--4--4--4--4--|--2--2--2--2--2--2--2--2--|
--4--4--4--4--4--4--4--4--|--2--2--2--2--2--2--2--2--|
--4--4--4--4--4--4--4--4--|--2--2--2--2--2--2--2--2--|


  S S S S S S S S S S S S S S S S    E  E  E  E  E  E  E  E
----------------------------------|--------------------------|
----------------------------------|--------------------------|
----------------------------------|--------------------------|
----------------------------------|--0--0--0--0--0--0--0--0--|
----------------------------------|--0--0--0--0--0--0--0--0--|
--7-7-7-7-7-7-7-7-6-6-6-6-6-6-6-6-|--0--0--0--0--0--0--0--0--|


  E  E  E  E  E  E  E  E     E  E  E  E  E  E  E  E
--------------------------|--------------------------|
--------------------------|--------------------------|
--------------------------|--------------------------|
--0--0--0--0--0--0--0--0--|--2--2--2--2--2--2--2--2--|
--0--0--0--0--0--0--0--0--|--2--2--2--2--2--2--2--2--|
--0--0--0--0--0--0--0--0--|--2--2--2--2--2--2--2--2--|


  E  E  E  E  E  E  E  E     E  E  E  E  E  E  E  E
--------------------------|--------------------------|
--------------------------|--------------------------|
--------------------------|--------------------------|
--2--2--2--2--2--2--2--2--|--3--3--3--3--3--3--3--3--|
--2--2--2--2--2--2--2--2--|--3--3--3--3--3--3--3--3--|
--2--2--2--2--2--2--2--2--|--3--3--3--3--3--3--3--3--|


  E  E  E  E  E  E  E  E     E  E  E  E  E  E  E  E
--------------------------|--------------------------|
--------------------------|--------------------------|
--------------------------|--------------------------|
--3--3--3--3--3--3--3--3--|--------------------------|
--3--3--3--3--3--3--3--3--|--------------------------|
--3--3--3--3--3--3--3--3--|--4--4--4--6--6--6--7--7--|


  E  E  E  E  E  E  E  E     W                   W
--------------------------|-------------------|-------------------|
--------------------------|-------------------|-------------------|
--------------------------|--7----------------|--L----------------|
--------------------------|--7----------------|--L----------------|
--------------------------|--5----------------|--L----------------|
--9--9--9--7--7--7--6--6--|-------------------|-------------------|


  W                   W
-------------------|-------------------|-------------------|-------------------|
-------------------|-------------------|-------------------|-------------------|
--L----------------|--L----------------|-------------------|-------------------|
--L----------------|--L----------------|-------------------|-------------------|
--L----------------|--L----------------|-------------------|-------------------|
-------------------|-------------------|-------------------|-------------------|


  S S S S S S S S S S S S S S S S    S S S S S S S S S S S S S S S S
----------------------------------|----------------------------------|
----------------------------------|----------------------------------|
----------------------------------|----------------------------------|
--2-2-2-2-2-2-2-2-2-2-2-2-2-2-2-2-|--2-2-2-2-2-2-2-2-2-2-2-2-2-2-2-2-|
--2-2-2-2-2-2-2-2-2-2-2-2-2-2-2-2-|--2-2-2-2-2-2-2-2-2-2-2-2-2-2-2-2-|
--2-2-2-2-2-2-2-2-2-2-2-2-2-2-2-2-|--2-2-2-2-2-2-2-2-2-2-2-2-2-2-2-2-|


  E  E  E  E  E  E  E  E           E  E  E  E  E  E  E  E
--------------------------|-----|--------------------------|
--------------------------|-----|--------------------------|
--------------------------|-----|--------------------------|
--2-----------------------|-----|--------0--0--0--0--0--0--|
--2-----------------------|-----|--------0--0--0--0--0--0--|
--2-----------------------|-----|--------0--0--0--0--0--0--|


  E  E  E  E  E  E  E  E     E  E  E  E  E  E  E  E
--------------------------|--------------------------|
--------------------------|--------------------------|
--------------------------|--------------------------|
--4--4--4--4--4--4--4--4--|--4--4--4--4--4--4--4--4--|
--4--4--4--4--4--4--4--4--|--4--4--4--4--4--4--4--4--|
--4--4--4--4--4--4--4--4--|--4--4--4--4--4--4--4--4--|


  E  E  E  E  E  E  E  E     E  E  E  E  E  E  E  E
--------------------------|--------------------------|
--------------------------|--------------------------|
--------------------------|--------------------------|
--0--0--0--0--0--0--0--0--|--0--0--0--0--0--0--0--0--|
--0--0--0--0--0--0--0--0--|--0--0--0--0--0--0--0--0--|
--0--0--0--0--0--0--0--0--|--0--0--0--0--0--0--0--0--|


  E  E  E  E  E  E  E  E     E  E  E  E  E  E  E  E
--------------------------|--------------------------|
--------------------------|--------------------------|
--------------------------|--------------------------|
--4--4--4--4--4--4--4--4--|--7--7--7--7--7--7--7--7--|
--4--4--4--4--4--4--4--4--|--7--7--7--7--7--7--7--7--|
--4--4--4--4--4--4--4--4--|--7--7--7--7--7--7--7--7--|


  E  E  E  E  E  E  E  E     E  E  E  E  E  E  E  E
--------------------------|--------------------------|
--------------------------|--------------------------|
--------------------------|--------------------------|
--0--0--0--0--0--0--0--0--|--0-----------------------|
--0--0--0--0--0--0--0--0--|--0-----------------------|
--0--0--0--0--0--0--0--0--|--0-----------------------|


  S S S S S S S S S S S S S S S S    S S S S S S S S S S S S S S S S
----------------2-5-2-------------|----------------4-7-4-------------|
--------------2-------2-----------|--------------5-------5-----------|
--4-2-4-2---4-----------4---4-2---|--4-2-4-2---4-----------4---------|
----------4---------------4-----4-|----------4---------------4-7-4-0-|
----------------------------------|----------------------------------|
----------------------------------|----------------------------------|


  S S S S S S S S  S S S S S S S S    S S S S S S S S S S S S S S S S
----------------5-10-5-------------|----------------5-9-5-------------|
--------------7--------7-----------|--------------7-------7-----------|
--7-6-7-6---7------------7---7-6---|--7-6-7-6---6-----------6---7-----|
----------7----------------7-----7-|----------7---------------9---9-7-|
-----------------------------------|----------------------------------|
-----------------------------------|----------------------------------|


  S S S S S S S S S S S S S S S S    S S S S S S S S S S S S S S S S
--------------------------------2-|--5-2-----------------------4-7-4-|
------------------------------3---|------3-------------------5-------|
--4-2---2-4-2---2-6-2---2-6-2-----|--------2---2-4-2---2-4-2---------|
------4-------4-------4-----------|----------4-------4---------------|
----------------------------------|----------------------------------|
----------------------------------|----------------------------------|


  E  E  E  E  E  E  E  E     E  E  E  E  E  E  E  E
--------------------------|--------------------------|
--------------------------|--------------------------|
--------------------------|--------------------------|
--0--0--0--0--0--0--0--0--|--0--0--0--0--0--0--0--0--|
--0--0--0--0--0--0--0--0--|--0--0--0--0--0--0--0--0--|
--0--0--0--0--0--0--0--0--|--0--0--0--0--0--0--0--0--|


  E  E  E  E  E  E  E  E     E  E  E  E  E  E  E  E
--------------------------|--------------------------|
--------------------------|--------------------------|
--------------------------|--------------------------|
--4--4--4--4--4--4--4--4--|--7--7--7--7--7--7--7--7--|
--4--4--4--4--4--4--4--4--|--7--7--7--7--7--7--7--7--|
--4--4--4--4--4--4--4--4--|--7--7--7--7--7--7--7--7--|


  E  E  E  E  E  E  E  E     E  E  E  E  E  E  E  E
--------------------------|--------------------------|
--------------------------|--------------------------|
--------------------------|--------------------------|
--0--0--0--0--0--0--0--0--|--0--0--0--0--0--0--0--0--|
--0--0--0--0--0--0--0--0--|--0--0--0--0--0--0--0--0--|
--0--0--0--0--0--0--0--0--|--0--0--0--0--0--0--0--0--|


  E  E  E  E  E  E  E  E     E  E  E  E  E  E  E  E
--------------------------|--------------------------|-----|-----|-----||
--------------------------|--------------------------|-----|-----|-----||
--------------------------|--------------------------|-----|-----|-----||
--4--4--------------------|--2--2--------------------|-----|-----|-----||
--4--4--------------------|--2--2--------------------|-----|-----|-----||
--4--4--------------------|--2--2--------------------|-----|-----|-----||


Guitar 2

                                      S S S S S S S S  S S S S S S S S
D#||-------|-------|-------|-------|----------------5-10-5-------------|
A#||-------|-------|-------|-------|--------------7--------7-----------|
F#||-------|-------|-------|-------|--7-6-7-6---7------------7---7-6---|
C#||-------|-------|-------|-------|----------7----------------7-----7-|
G#||-------|-------|-------|-------|-----------------------------------|
C#||-------|-------|-------|-------|-----------------------------------|


  S S S S S S S S S S S S S S S S    S S S S S S S S S S S S S S S S
----------------5-9-5-------------|----------------2-5-2-------------|
--------------7-------7-----------|--------------2-------2-----------|
--7-6-7-6---6-----------6---7-----|--4-2-4-2---4-----------4---4-2---|
----------7---------------9---9-7-|----------4---------------4-----4-|
----------------------------------|----------------------------------|
----------------------------------|----------------------------------|


  S S S S S S S S S S S S S S S S    S S S S S S S S  S S S S S S S S
----------------4-7-4-------------|----------------5-10-5-------------|
--------------5-------5-----------|--------------7--------7-----------|
--4-2-4-2---4-----------4---------|--7-6-7-6---7------------7---7-6---|
----------4---------------4-7-4-0-|----------7----------------7-----7-|
----------------------------------|-----------------------------------|
----------------------------------|-----------------------------------|


  S S S S S S S S S S S S S S S S    S S S S S S S S S S S S S S S S
----------------5-9-5-------------|--------------------------------2-|
--------------7-------7-----------|------------------------------3---|
--7-6-7-6---6-----------6---7-----|--4-2---2-4-2---2-6-2---2-6-2-----|
----------7---------------9---9-7-|------4-------4-------4-----------|
----------------------------------|----------------------------------|
----------------------------------|----------------------------------|


                                     PM                PM
  S S S S S S S S S S S S S S S S    Q     E  E  E  E  Q
--5-2-----------------------4-7-4-|-------------------------|
------3-------------------5-------|-------------------------|
--------2---2-4-2---2-4-2---------|-------------------------|
----------4-------4---------------|--0--------7--7--7--0----|
----------------------------------|--0----11--------L--0----|
----------------------------------|--0-----------------0----|


                                PM
   E  E  E  E  S E  S E  S S    Q     E  E  E  E  S E  S
-----------------------------|---------------------------|
-----------------------------|---------------------------|
-----------------------------|---------------------------|
------7--7--7----------------|--0--------7--7--7---------|
--11--------L----------------|--0----11--------L---------|
---------------4-4--4-4--4-4-|--0-----------------4-4--4-|


                                        PM                PM
  E  S S S S S S  S  S  S  S S S S S    Q     E  E  E  E  Q
-------------------------------------|-------------------------|
-------------------------------------|-------------------------|
-------------------------------------|-------------------------|
-------------------------------------|--0--------7--7--7--0----|
-----------------------------9-9-9-9-|--0----11--------L--0----|
--4--4-4-4-4-4-4-11-11-11-11---------|--0-----------------0----|


                                PM                PM
   E  E  E  E  S E  S E  S S    Q     E  E  E  E  Q
-----------------------------|-------------------------|
-----------------------------|-------------------------|
-----------------------------|-------------------------|
------7--7--7----------------|--0--------7--7--7--0----|
--11--------L----------------|--0----11--------L--0----|
---------------4-4--4-4--4-4-|--0-----------------0----|


  S S S S S S S S S S S S E  E
--------------------------------|-----|-----|-----|-----|-----|-----|-----|
--7-7-7-7-7-7-7-7-9-9-9-9-9-----|-----|-----|-----|-----|-----|-----|-----|
--x-x-x-x-x-x-x-x-x-x-x-x-x-----|-----|-----|-----|-----|-----|-----|-----|
--4-4-4-4-4-4-4-4-6-6-6-6-6-----|-----|-----|-----|-----|-----|-----|-----|
--------------------------------|-----|-----|-----|-----|-----|-----|-----|
--------------------------------|-----|-----|-----|-----|-----|-----|-----|


         Echo Effect
         E          E   E  E   E  E   E  E     W
-----|--17-------------17-----17-----17-----|-------------------|
-----|--------------------------------------|-------------------|
-----|--------------------------------------|-------------------|
-----|--------------------------------------|-------------------|
-----|--------------------------------------|-------------------|
-----|--------------------------------------|-------------------|


   E  E   E  E   E  E   E  E      E  E   E  E   E  E   E  E
--16-----16-----16-----16-----|------------------------------|
------------------------------|--17-----17-----17-----17-----|
------------------------------|------------------------------|
------------------------------|------------------------------|
------------------------------|------------------------------|
------------------------------|------------------------------|


   E  E   E  E   E  E   E  E     W
--17-----17-----17-----17-----|-------------------|
------------------------------|-------------------|
------------------------------|-------------------|
------------------------------|-------------------|
------------------------------|-------------------|
------------------------------|-------------------|


   E  E   E  E   E  E   E  E      E  E   E  E   E  E   E  E
--16-----16-----16-----16-----|------------------------------|
------------------------------|--17-----17-----17-----17-----|
------------------------------|------------------------------|
------------------------------|------------------------------|
------------------------------|------------------------------|
------------------------------|------------------------------|


   E   E   E   E   E   E   E   E      E   E   E   E   E   E   E   E
--17------16----------------------|----------------------------------|
------------------17----------14--|--15--14------15--15--14------14--|
------14------14------14--16------|----------16--------------16------|
----------------------------------|----------------------------------|
----------------------------------|----------------------------------|
----------------------------------|----------------------------------|


   E   E   E   E   E   E   E   E      E   E   E   E   E   E   E   E
--17------16----------------------|----------------------------------|
------------------17----------14--|--15--14------15--15--14----------|
------14------14------14--16------|----------16--------------16--14--|
----------------------------------|----------------------------------|
----------------------------------|----------------------------------|
----------------------------------|----------------------------------|


   E   E   E   E   E   E   E   E      E   E   E   E   E   E   E   E
--17------------------------------|----------------------------------|
------------------17------14--17--|--15--14------15--15--14------14--|
------16--14--14------14----------|----------16--------------16------|
----------------------------------|----------------------------------|
----------------------------------|----------------------------------|
----------------------------------|----------------------------------|


   E   E   E   E   E   E   E   E      E   E   E   E   E   E   E   E
--17------16----------------------|----------------------------------|
------------------17----------14--|--15--14------15--15--14------14--|
------14------14------14--16------|----------16--------------16------|
----------------------------------|----------------------------------|
----------------------------------|----------------------------------|
----------------------------------|----------------------------------|


   W                   S S S S S S S S  S S S S S S S S
--------------------|----------------5-10-5-------------|
--14----------------|--------------7--------7-----------|
--------------------|--7-6-7-6---7------------7---7-6---|
--------------------|----------7----------------7-----7-|
--------------------|-----------------------------------|
--------------------|-----------------------------------|


  S S S S S S S S S S S S S S S S    S S S S S S S S S S S S S S S S
----------------5-9-5-------------|----------------2-5-2-------------|
--------------7-------7-----------|--------------2-------2-----------|
--7-6-7-6---6-----------6---7-----|--4-2-4-2---4-----------4---4-2---|
----------7---------------9---9-7-|----------4---------------4-----4-|
----------------------------------|----------------------------------|
----------------------------------|----------------------------------|


  S S S S S S S S S S S S S S S S    S S S S S S S S  S S S S S S S S
----------------4-7-4-------------|----------------5-10-5-------------|
--------------5-------5-----------|--------------7--------7-----------|
--4-2-4-2---4-----------4---------|--7-6-7-6---7------------7---7-6---|
----------4---------------4-7-4-0-|----------7----------------7-----7-|
----------------------------------|-----------------------------------|
----------------------------------|-----------------------------------|


  S S S S S S S S S S S S S S S S    S S S S S S S S S S S S S S S S
----------------5-9-5-------------|--------------------------------2-|
--------------7-------7-----------|------------------------------3---|
--7-6-7-6---6-----------6---7-----|--4-2---2-4-2---2-6-2---2-6-2-----|
----------7---------------9---9-7-|------4-------4-------4-----------|
----------------------------------|----------------------------------|
----------------------------------|----------------------------------|


                                     PM                PM
  S S S S S S S S S S S S S S S S    Q     E  E  E  E  Q
--5-2-----------------------4-7-4-|-------------------------|
------3-------------------5-------|-------------------------|
--------2---2-4-2---2-4-2---------|-------------------------|
----------4-------4---------------|--0--------7--7--7--0----|
----------------------------------|--0----11--------L--0----|
----------------------------------|--0-----------------0----|


                                PM                PM
   E  E  E  E  S E  S E  S S    Q     E  E  E  E  Q
-----------------------------|-------------------------|
-----------------------------|-------------------------|
-----------------------------|-------------------------|
------7--7--7----------------|--0--------7--7--7--0----|
--11--------L----------------|--0----11--------L--0----|
---------------4-4--4-4--4-4-|--0-----------------0----|


  S S S S S S S S S S S S E  E
--------------------------------|-----|-----|-----|-----|-----|-----|-----|
--7-7-7-7-7-7-7-7-9-9-9-9-9-----|-----|-----|-----|-----|-----|-----|-----|
--x-x-x-x-x-x-x-x-x-x-x-x-x-----|-----|-----|-----|-----|-----|-----|-----|
--4-4-4-4-4-4-4-4-6-6-6-6-6-----|-----|-----|-----|-----|-----|-----|-----|
--------------------------------|-----|-----|-----|-----|-----|-----|-----|
--------------------------------|-----|-----|-----|-----|-----|-----|-----|


         Echo Effect
         E          E   E  E   E  E   E  E     W
-----|--17-------------17-----17-----17-----|-------------------|
-----|--------------------------------------|-------------------|
-----|--------------------------------------|-------------------|
-----|--------------------------------------|-------------------|
-----|--------------------------------------|-------------------|
-----|--------------------------------------|-------------------|


   E  E   E  E   E  E   E  E      E  E   E  E   E  E   E  E
--16-----16-----16-----16-----|------------------------------|
------------------------------|--17-----17-----17-----17-----|
------------------------------|------------------------------|
------------------------------|------------------------------|
------------------------------|------------------------------|
------------------------------|------------------------------|


   E  E   E  E   E  E   E  E     W
--17-----17-----17-----17-----|-------------------|
------------------------------|-------------------|
------------------------------|-------------------|
------------------------------|-------------------|
------------------------------|-------------------|
------------------------------|-------------------|


   E  E   E  E   E  E   E  E      E  E   E  E   E  E   E  E
--16-----16-----16-----16-----|------------------------------|
------------------------------|--17-----17-----17-----17-----|
------------------------------|------------------------------|
------------------------------|------------------------------|
------------------------------|------------------------------|
------------------------------|------------------------------|


   E   E   E   E   E   E   E   E      E   E   E   E   E   E   E   E
--17------16----------------------|----------------------------------|
------------------17----------14--|--15--14------15--15--14------14--|
------14------14------14--16------|----------16--------------16------|
----------------------------------|----------------------------------|
----------------------------------|----------------------------------|
----------------------------------|----------------------------------|


   E   E   E   E   E   E   E   E      E   E   E   E   E   E   E   E
--17------16----------------------|----------------------------------|
------------------17----------14--|--15--14------15--15--14----------|
------14------14------14--16------|----------16--------------16--14--|
----------------------------------|----------------------------------|
----------------------------------|----------------------------------|
----------------------------------|----------------------------------|


   E   E   E   E   E   E   E   E      E   E   E   E   E   E   E   E
--17------------------------------|----------------------------------|
------------------17------14--17--|--15--14------15--15--14------14--|
------16--14--14------14----------|----------16--------------16------|
----------------------------------|----------------------------------|
----------------------------------|----------------------------------|
----------------------------------|----------------------------------|


   E   E   E   E   E   E   E   E      E   E   E   E   E   E   E   E
--17------16----------------------|----------------------------------|
------------------17----------14--|--15--14------15--15--14------14--|
------14------14------14--16------|----------16--------------16------|
----------------------------------|----------------------------------|
----------------------------------|----------------------------------|
----------------------------------|----------------------------------|


   W                   S S S S S S S S  S S S S S S S S
--------------------|----------------5-10-5-------------|
--14----------------|--------------7--------7-----------|
--------------------|--7-6-7-6---7------------7---7-6---|
--------------------|----------7----------------7-----7-|
--------------------|-----------------------------------|
--------------------|-----------------------------------|


  S S S S S S S S S S S S S S S S    S S S S S S S S S S S S S S S S
----------------5-9-5-------------|----------------2-5-2-------------|
--------------7-------7-----------|--------------2-------2-----------|
--7-6-7-6---6-----------6---7-----|--4-2-4-2---4-----------4---4-2---|
----------7---------------9---9-7-|----------4---------------4-----4-|
----------------------------------|----------------------------------|
----------------------------------|----------------------------------|


  S S S S S S S S S S S S S S S S    S S S S S S S S  S S S S S S S S
----------------4-7-4-------------|----------------5-10-5-------------|
--------------5-------5-----------|--------------7--------7-----------|
--4-2-4-2---4-----------4---------|--7-6-7-6---7------------7---7-6---|
----------4---------------4-7-4-0-|----------7----------------7-----7-|
----------------------------------|-----------------------------------|
----------------------------------|-----------------------------------|


  S S S S S S S S S S S S S S S S    S S S S S S S S S S S S S S S S
----------------5-9-5-------------|--------------------------------2-|
--------------7-------7-----------|------------------------------3---|
--7-6-7-6---6-----------6---7-----|--4-2---2-4-2---2-6-2---2-6-2-----|
----------7---------------9---9-7-|------4-------4-------4-----------|
----------------------------------|----------------------------------|
----------------------------------|----------------------------------|


  S S S S S S S S S S S S S S S S    E  E  E  E  E  E  E  E
--5-2-----------------------4-7-4-|--------------------------|
------3-------------------5-------|--------------------------|
--------2---2-4-2---2-4-2---------|--------------------------|
----------4-------4---------------|--0--0--0--0--0--0--0--0--|
----------------------------------|--0--0--0--0--0--0--0--0--|
----------------------------------|--0--0--0--0--0--0--0--0--|


  E  E  E  E  E  E  E  E     E  E  E  E  E  E  E  E
--------------------------|--------------------------|
--------------------------|--------------------------|
--------------------------|--------------------------|
--0--0--0--0--0--0--0--0--|--4--4--4--4--4--4--4--4--|
--0--0--0--0--0--0--0--0--|--4--4--4--4--4--4--4--4--|
--0--0--0--0--0--0--0--0--|--4--4--4--4--4--4--4--4--|


  E  E  E  E  E  E  E  E     E  E  E  E  E  E  E  E
--------------------------|--------------------------|
--------------------------|--------------------------|
--------------------------|--------------------------|
--4--4--4--4--4--4--4--4--|--0--0--0--0--0--0--0--0--|
--4--4--4--4--4--4--4--4--|--0--0--0--0--0--0--0--0--|
--4--4--4--4--4--4--4--4--|--0--0--0--0--0--0--0--0--|


  E  E  E  E  E  E  E  E     E  E  E  E  E  E  E  E
--------------------------|--------------------------|
--------------------------|--------------------------|
--------------------------|--------------------------|
--0--0--0--0--0--0--0--0--|--4--4--4--4--4--4--4--4--|
--0--0--0--0--0--0--0--0--|--4--4--4--4--4--4--4--4--|
--0--0--0--0--0--0--0--0--|--4--4--4--4--4--4--4--4--|


  E  E  E  E  E  E  E  E     E  E  E  E  E  E  E  E
--------------------------|--------------------------|
--------------------------|--7--7--7--7--7--7--7--7--|
--------------------------|--x--x--x--x--x--x--x--x--|
--7--7--7--7--7--7--7--7--|--4--4--4--4--4--4--4--4--|
--7--7--7--7--7--7--7--7--|--------------------------|
--7--7--7--7--7--7--7--7--|--------------------------|


  E  E  E  E  E  E  E  E     E  E  E  E  E  E  E  E
--------------------------|--------------------------|
--7--7--7--7--7--7--7--7--|--9--9--9--9--9--9--9--9--|
--x--x--x--x--x--x--x--x--|--x--x--x--x--x--x--x--x--|
--4--4--4--4--4--4--4--4--|--6--6--6--6--6--6--6--6--|
--------------------------|--------------------------|
--------------------------|--------------------------|


  E  E  E  E  E  E  E  E      E   E   E   E   E   E   E   E
--------------------------|----------------------------------|
--9--9--9--9--9--9--9--9--|--10--10--10--10--10--10--10--10--|
--x--x--x--x--x--x--x--x--|---x---x---x---x---x---x---x---x--|
--6--6--6--6--6--6--6--6--|---7---7---7---7---7---7---7---7--|
--------------------------|----------------------------------|
--------------------------|----------------------------------|


   E   E   E   E   E   E   E   E     E  E  E  E  E  E  E  E
----------------------------------|--------------------------|
--10--10--10--10--10--10--10--10--|--9--9--9--9--9--9--9--9--|
---x---x---x---x---x---x---x---x--|--x--x--x--x--x--x--x--x--|
---7---7---7---7---7---7---7---7--|--6--6--6--6--6--6--6--6--|
----------------------------------|--------------------------|
----------------------------------|--------------------------|


  E  E  E  E  E  E  E  E     E  E  E  E  E  E  E  E
--------------------------|--------------------------|
--9--9--9--9--9--9--9--9--|--7--7--7--7--7--7--7--7--|
--x--x--x--x--x--x--x--x--|--x--x--x--x--x--x--x--x--|
--6--6--6--6--6--6--6--6--|--4--4--4--4--4--4--4--4--|
--------------------------|--------------------------|
--------------------------|--------------------------|


  E  E  E  E  E  E  E  E     E  E  E  E  E  E  E  E
--------------------------|--------------------------|
--7--7--7--7--7--7--7--7--|--9--9--9--9--9--9--9--9--|
--x--x--x--x--x--x--x--x--|--x--x--x--x--x--x--x--x--|
--4--4--4--4--4--4--4--4--|--6--6--6--6--6--6--6--6--|
--------------------------|--------------------------|
--------------------------|--------------------------|


  E  E  E  E  E  E  E  E      E   E   E   E   E   E   E   E
--------------------------|----------------------------------|
--9--9--9--9--9--9--9--9--|--14--14--14--14--14--14--14--14--|
--x--x--x--x--x--x--x--x--|---x---x---x---x---x---x---x---x--|
--6--6--6--6--6--6--6--6--|--11--11--11--11--11--11--11--11--|
--------------------------|----------------------------------|
--------------------------|----------------------------------|


   E   E   E   E   E   E   E   E      E   E   E   E   E   E   E   E
----------------------------------|----------------------------------|
--12--12--12--12--12--12--12--12--|--10--10--10--10--10--10--10--10--|
---x---x---x---x---x---x---x---x--|---x---x---x---x---x---x---x---x--|
---9---9---9---9---9---9---9---9--|---7---7---7---7---7---7---7---7--|
----------------------------------|----------------------------------|
----------------------------------|----------------------------------|


  E  E  E  E  E  E  E  E     W                   W
--------------------------|-------------------|-------------------|
--9--9--9--9--9--9--9--9--|--7----------------|--L----------------|
--x--x--x--x--x--x--x--x--|--x----------------|-------------------|
--6--6--6--6--6--6--6--6--|--4----------------|--L----------------|
--------------------------|-------------------|-------------------|
--------------------------|-------------------|-------------------|


  W                   W
-------------------|-------------------|-------------------|-------------------|
--L----------------|--L----------------|-------------------|-------------------|
-------------------|-------------------|-------------------|-------------------|
--L----------------|--L----------------|-------------------|-------------------|
-------------------|-------------------|-------------------|-------------------|
-------------------|-------------------|-------------------|-------------------|


  S S S S S S S S S S S S S S S S    S S S S S S S S S S S S S S S S
----------------------------------|----------------------------------|
----------------------------------|----------------------------------|
----------------------------------|----------------------------------|
--2-2-2-2-2-2-2-2-2-2-2-2-2-2-2-2-|--2-2-2-2-2-2-2-2-2-2-2-2-2-2-2-2-|
--2-2-2-2-2-2-2-2-2-2-2-2-2-2-2-2-|--2-2-2-2-2-2-2-2-2-2-2-2-2-2-2-2-|
--2-2-2-2-2-2-2-2-2-2-2-2-2-2-2-2-|--2-2-2-2-2-2-2-2-2-2-2-2-2-2-2-2-|


  E  E  E  E  E  E  E  E          S S S S S S S S S S S S S S S S
--------------------------|----|----------------2-5-2-------------|
--------------------------|----|--------------2-------2-----------|
--------------------------|----|------------4-----------4---4-2---|
--2-----------------------|----|----------4---------------4-----4-|
--2-----------------------|----|----------------------------------|
--2-----------------------|----|----------------------------------|


  S S S S S S S S S S S S S S S S    S S S S S S S S S S S S S S S S
----------------4-7-4-------------|----------------4-7-4-------------|
--------------5-------5-----------|--------------5-------5-----------|
--4-2-4-2---4-----------4---------|--4-2-4-2---4-----------4---------|
----------4---------------4-7-4-0-|----------4---------------4-7-4-0-|
----------------------------------|----------------------------------|
----------------------------------|----------------------------------|


  S S S S S S S S  S S S S S S S S    S S S S S S S S S S S S S S S S
----------------5-10-5-------------|----------------5-9-5-------------|
--------------7--------7-----------|--------------7-------7-----------|
--7-6-7-6---7------------7---7-6---|--7-6-7-6---6-----------6---7-----|
----------7----------------7-----7-|----------7---------------9---9-7-|
-----------------------------------|----------------------------------|
-----------------------------------|----------------------------------|


  S S S S S S S S S S S S S S S S    S S S S S S S S S S S S S S S S
--------------------------------2-|--5-2-----------------------4-7-4-|
------------------------------3---|------3-------------------5-------|
--4-2---2-4-2---2-6-2---2-6-2-----|--------2---2-4-2---2-4-2---------|
------4-------4-------4-----------|----------4-------4---------------|
----------------------------------|----------------------------------|
----------------------------------|----------------------------------|


   E   E   E   E   E   E   E   E      E   E   E   E   E   E   E   E
----------------------------------|----------------------------------|
----------------------------------|------------------17------17------|
--14------14------14------14------|--14------14----------------------|
----------------------------------|----------------------------------|
------12------12------12------12--|------12------12------12------12--|
----------------------------------|----------------------------------|


  E  E  E  E  E  E  E  E     E  E  E  E  E  E  E  E
--------------------------|--------------------------|
--------------------------|--------------------------|
--------------------------|--------------------------|
--4--4--4--4--4--4--4--4--|--4--4--4--4--4--4--4--4--|
--4--4--4--4--4--4--4--4--|--4--4--4--4--4--4--4--4--|
--4--4--4--4--4--4--4--4--|--4--4--4--4--4--4--4--4--|


  E  E  E  E  E  E  E  E     E  E  E  E  E  E  E  E
--------------------------|--------------------------|
--------------------------|--------------------------|
--------------------------|--------------------------|
--0--0--0--0--0--0--0--0--|--0--0--0--0--0--0--0--0--|
--0--0--0--0--0--0--0--0--|--0--0--0--0--0--0--0--0--|
--0--0--0--0--0--0--0--0--|--0--0--0--0--0--0--0--0--|


  E  E  E  E  E  E  E  E     E  E  E  E  E  E  E  E
--------------------------|--------------------------|
--------------------------|--------------------------|
--------------------------|--------------------------|
--4--4--4--4--4--4--4--4--|--7--7--7--7--7--7--7--7--|
--4--4--4--4--4--4--4--4--|--7--7--7--7--7--7--7--7--|
--4--4--4--4--4--4--4--4--|--7--7--7--7--7--7--7--7--|


  E  E  E  E  E  E  E  E     E  E  E  E  E  E  E  E
--------------------------|--------------------------|
--7--7--7--7--7--7--7--7--|--7--7--7--7--7--7--7--7--|
--x--x--x--x--x--x--x--x--|--x--x--x--x--x--x--x--x--|
--4--4--4--4--4--4--4--4--|--4--4--4--4--4--4--4--4--|
--------------------------|--------------------------|
--------------------------|--------------------------|


   E   E   E   E   E   E   E   E     E  E  E  E  E  E  E  E
----------------------------------|--------------------------|
--10--10--10--10--10--10--10--10--|--9--9--9--9--9--9--9--9--|
---x---x---x---x---x---x---x---x--|--x--x--x--x--x--x--x--x--|
---7---7---7---7---7---7---7---7--|--6--6--6--6--6--6--6--6--|
----------------------------------|--------------------------|
----------------------------------|--------------------------|


  E  E  E  E  E  E  E  E     E  E  E  E  E  E  E  E
--------------------------|--------------------------|
--7--7--7--7--7--7--7--7--|--7--7--7--7--7--7--7--7--|
--x--x--x--x--x--x--x--x--|--x--x--x--x--x--x--x--x--|
--4--4--4--4--4--4--4--4--|--4--4--4--4--4--4--4--4--|
--------------------------|--------------------------|
--------------------------|--------------------------|


   E   E  E  E  E  E  E  E     E  E  E  E  E  E  E  E
----------------------------|--------------------------|-----|-----|-----||
--10--10--------------------|--9--9--------------------|-----|-----|-----||
---x---x--------------------|--x--x--------------------|-----|-----|-----||
---7---7--------------------|--6--6--------------------|-----|-----|-----||
----------------------------|--------------------------|-----|-----|-----||
----------------------------|--------------------------|-----|-----|-----||


Guitar 3

Starts at (02:50)

                                          Q    E  Q    E  E  E
-------|-------|-------|-------|-------|--2----2--2----2--2--2--|
-------|-------|-------|-------|-------|--3----3--3----3--3--3--|
-------|-------|-------|-------|-------|--2----2--2----2--2--2--|
-------|-------|-------|-------|-------|--0----0--0----0--0--0--|
-------|-------|-------|-------|-------|------------------------|
-------|-------|-------|-------|-------|------------------------|


  Q    E  Q    E  E  E     Q    E  Q    E  E  E     Q    E  Q    E  E  E
--2----2--2----2--2--2--|--4----4--4----4--4--4--|--4----4--4----4--4--4--|
--3----3--3----3--3--3--|--5----5--5----5--5--5--|--5----5--5----5--5--5--|
--2----2--2----2--2--2--|--7----7--7----7--7--7--|--7----7--7----7--7--7--|
--0----0--0----0--0--0--|--0----0--0----0--0--0--|--0----0--0----0--0--0--|
------------------------|------------------------|------------------------|
------------------------|------------------------|------------------------|


  Q    E  Q    E  E  E     Q    E  Q    E  E  E     E  E  E  E  E  E  E  E
--5----5--5----5--5--5--|--5----5--5----5--5--5--|--0--0--0--0--0--0--0--0--|
--5----5--5----5--5--5--|--5----5--5----5--5--5--|--0--0--0--0--0--0--0--0--|
--7----7--7----7--7--7--|--7----7--7----7--7--7--|--0--0--0--0--0--0--0--0--|
--7----7--7----7--7--7--|--7----7--7----7--7--7--|--2--2--2--2--2--2--2--2--|
------------------------|------------------------|--2--2--2--2--2--2--2--2--|
------------------------|------------------------|--0--0--0--0--0--0--0--0--|


  E  E  E  E  E  E  E  E     E  E  E  E  E  E  E  E
--0--0--0--0--0--0--0--0--|--0-----------------------|-----|-------|-------|
--0--0--0--0--0--0--0--0--|--0-----------------------|-----|-------|-------|
--0--0--0--0--0--0--0--0--|--0-----------------------|-----|-------|-------|
--2--2--2--2--2--2--2--2--|--2-----------------------|-----|-------|-------|
--2--2--2--2--2--2--2--2--|--2-----------------------|-----|-------|-------|
--0--0--0--0--0--0--0--0--|--0-----------------------|-----|-------|-------|


Duration Legend
---------------
W - whole
H - half
Q - quarter
E - 8th
S - 16th
T - 32nd
X - 64th
. - note dotted
|-n-|  - n-tuplets


Tablature Legend
----------------
L - tied note
x - dead note
g - grace note
(n) - ghost note
> - accentuded note
NH - natural harmonic
AH - artificial harmonic
TH - tapped harmonic
SH - semi harmonic
PH - pitch harmonic
h - hammer on
p - pull off
b - bend
br - bendRelease
pb - preBend
pbr - preBendRelease
brb - bendReleaseBend
\n/ - tremolo bar dip
\n - tremolo bar dive
-/n - tremolo bar Release up
/n\ - tremolo bar inverted dip
/n - tremolo bar return
-\n - tremolo bar Release down
S - shift slide
s - legato slide
/ -  slide into from below or out of upwards
\ -  slide into from above or out of downwards
~ - vibrato
W - wide vibrato
tr - trill
TP - tremolo picking
T - tapping
S - slap
P - pop
< - fade in
^ - brush up
v - brush down


That is all! I hope this helped, and be sure to check out my cover if you are
having problems with the tab. Thanks, oh and one last thing... ROCK OUT!!!!
comments
We did not receive enough feedback on this tab! Please rate:
print report bad tab
1 2 3 4 5
I want to post or [tab]
guest
You may want to rate the tab now too:
select rating
Please do not post tabs as comments. Select "correction" instead!