Oops, an error
Loading. Please wait.

Walk This World Tab

ver1
ver1

Whole song

Interactive

More versions @911Tabs.com
2,904 views 6 this week
no commentswrite comment
1 2 3 4 5
excellent!
x 2
Autoscroll
+/-
esc
set tempo
stop
Contributor
Difficulty
intermediate
Hey! There's an official Ultimate Guitar app which is ideal
for learning songs when you're away from computer. Get the app
WARNING: You are trying to view
                                    content from Ultimate-Guitar.com
                                    in an unauthorized application,
                                    which is prohibited.

                                    Please use an official Ultimate
                                    Guitar Tabs application for iPhone,
                                    iPad or Android to access legitimate
                                    chords, guitar, bass, and drum tabs
                                    from Ultimate-Guitar.com database.

                                    Type "ultimate guitar tabs" in Apple
                                    App Store's or Android Market's
                                    search to find the application.
    __________________
   / Heather Nova    /  I think this song is about a person, who has been through hard
  / Walk This World /  times and finally finds, what the person hopes is, her long lost
 / Oyster          /  love. The person is fully convinced that it is only a matter of
/_________________/  time before they will fall on love as she believes in it so blindly.



         Em              Em7M             Em7            Em6(no5)        Em(type 2)
    0 2 2 0 x x      0 2 1 0 x x      0 2 0 0 x x      0 4 2 0 x x      0 2 2 0 0 0


         C                B7               A                G                D
    x 3 2 0 1 0      x 2 1 2 0 2      x 0 2 2 2 0      3 2 0 0 3 3      x x 0 2 3 2



Tunings: Standard, E A D G B E
Gtr 1 - Lead, Electric Overdriven
Gtr 2 - Rhythm, Acoustic Clean
Gtr 3 - Rhythm, Acoustic w/Flanger
Gtr 4 - Rhythm, Electric Clean (Gtr 1 switching off the overdrive, actually)
Gtr 5 - Cello arrangement for guitar (in the solo),
        Electric Heavily Overdriven w/either a Tremolo or using a Slide Bar


 Intro:
 Q=85 bpm
 4/4
 Gtr 1
  H               E   Q.
|---------------------3-----------|
|---------------------2-----------|
|---------------------4-----------|
|---------------------2-----------|
|---------------------------------|
|---------------------------------|



  Gtr 2
    Em              Em7M              Em7             Em6(no5)
    E   S S E   S S E   S S E   S S   E   S S E   S S E   S S E   S S 
    |   | | |   | | |   | | |   | |   |   | | |   | | |   | | |   | |
    /   / / /   / / /   / / /   / /   /   / / /   / / /   / / /   / /

  Gtr 1
    Q       E.    S Q       E.    S   Q       E.    S E   Q.
||----------3---------------3-------|---------3-----------3------------||
||o---------5---------------4-------|---------3-----------2-----------o||
||----------4---------------4-------|---------4-----------4------------||
||----------2---------------2-------|---------2-----------2------------||
||o---------------------------------|---------------------------------o||
||----------------------------------|----------------------------------||
|
| Gtr 3
|  H               H                 H               H
||----------------------------------|----------------------------------||
||o---------------------------------|---------------------------------o||
||----------------------------------|----------------------------------||
||----------------------------------|----------------------------------||
||o-7---------------6---------------|-5---------------4---------------o||
||----------------------------------|----------------------------------||




1st Verse:
  Gtr 2
    Em              Em7M              Em7             Em6(no5)
    E   S S E   S S E   S S E   S S   E   S S E   S S E   S S E   S S
    |   | | |   | | |   | | |   | |   |   | | |   | | |   | | |   | |
    /   / / /   / / /   / / /   / /   /   / / /   / / /   / / /   / /

  Gtr 3
    H               H                 H               H
||----------------------------------|----------------------------------||
||o---------------------------------|---------------------------------o||
||----------------------------------|----------------------------------||
||----------------------------------|----------------------------------||
||o-7---------------6---------------|-5---------------4---------------o||
||----------------------------------|----------------------------------||



 Gtr 2
  C                                 B7
  E   E   E   S S E   E   E   S S   E   E   E   S S E   E   E   S S
  |   |   |   | | |   |   |   | |   |   |   |   | | |   |   |   | |
  /   /   /   / / /   /   /   / /   /   /   /   / / /   /   /   / /

 Gtr 3
  W                                 W
|---------------------------------|---------------------------------|
|---------------------------------|---------------------------------|
|---------------------------------|---------------------------------|
|---------------------------------|---------------------------------|
|---------------------------------|---------------------------------|
|-8-------------------------------|-7-------------------------------|
|
|Gtr 4
| E   E   E   E   E   E   E   E     E   E   E   E   E   E   E   E
|---------3-------0-------3-------|---------2-------0-------2-------|
|-----5-------5-------5-------5---|-----4-------4-------4-------4---|
|-5-------------------------------|-4-------------------------------|
|---------------------------------|---------------------------------|
|---------------------------------|---------------------------------|
|---------------------------------|---------------------------------|
|---------------------------------|---------------------------------|



  Em(type 2)      A                 Em(type 2)              E   F#
  H               H                 H.                      E   E
  |               |                 |                       |   |
  /               /                 /                       o   o

  H               H                 H.                      E   E
|---------------------------------|---------------------------------|
|---------------------------------|---------------------------------|
|---------------------------------|---------------------------------|
|---------------------------------|---------------------------------|
|---------------------------------|---------------------------------|
|-0---------------5---------------|-0-----------------------0---2---|
|
| E   E   E   E   E   E   E   E     H.                      E   E
|---------0---------------0-------|-0-------------------------------|
|-------------0---------------0---|-0-------------------------------|
|-----0---------------2-----------|-0-------------------------------|
|-2-------------------------------|-2-------------------------------|
|-----------------0---------------|---------------------------------|
|---------------------------------|-------------------------0---2---|




Chorus:
  Gtr 2
    G               C                 D               Em(ty2) E   F#
    E   E   E   S S E   E   E   S S   E   E   E   S S E   E   E   E
    |   |   |   | | |   |   |   | |   |   |   |   | | |   |   |   |
    /   /   /   / / /   /   /   / /   /   /   /   / / /   /   o   o
                                     1., 2.
  Gtr 3
    H               H                 H               Q       E   E
||----------------------------------|----------------------------------||
||o---------------------------------|---------------------------------o||
||----------------------------------|----------------------------------||
||----------------------------------|----------------------------------||
||o-----------------3---------------|-5-------------------------------o||
||--3-------------------------------|-----------------0-------0---2----||
|
| Gtr 4
|   E   E   E   E   E   E   E   E     E   E   E   E   E   E   E   E
||----------------------------------|-----------------0----------------||
||o---------3---------------5-------|---------7-----------0-----------o||
||------4---------------5-----------|-----7----------------------------||
||--------------5---------------5---|-------------7--------------------||
||o-----------------3---------------|-5-------------------------------o||
||--3-------------------------------|-------------------------0---2----||



  D               Em(ty2) A   B
  E   E   E   S S E   E   E   E
  |   |   |   | | |   |   |   |
  /   /   /   / / /   /   o   o

 3.
  H               Q       E   E
|---------------------------------|
|---------------------------------|
|---------------------------------|
|---------------------------------|
|-5-----------------------0---2---|
|-----------------0---------------|
|
| E   E   E   E   E   E   E   E
|-----------------0---------------|
|---------7-----------0-----------|
|-----7---------------------------|
|-------------7-------------------|
|-5-----------------------0---2---|
|---------------------------------|



  C                                 B7
  E   E   E   S S E   E   E   S S   E   E   E   S S E   E   E   S S
  |   |   |   | | |   |   |   | |   |   |   |   | | |   |   |   | |
  /   /   /   / / /   /   /   / /   /   /   /   / / /   /   /   / /

  W                                 W
|---------------------------------|---------------------------------|
|---------------------------------|---------------------------------|
|---------------------------------|---------------------------------|
|---------------------------------|---------------------------------|
|---------------------------------|---------------------------------|
|-8-------------------------------|-7-------------------------------|
|
| E   E   E   E   E   E   E   E     E   E   E   E   E   E   E   E
|-----------------0---------------|-----------------2---------------|
|-------------------------1-------|-------------------------0-------|
|---------0-------------------0---|---------2-------------------2---|
|-----2-------2-------2-----------|-----1-------1-------1-----------|
|-3-------------------------------|-2-------------------------------|
|---------------------------------|---------------------------------|



  Em(type 2)      A                 Em(type 2)
  H               H                 W
  |               |                 |
  /               /                 /

  H               H                 W
|---------------------------------|---------------------------------|
|---------------------------------|---------------------------------|
|---------------------------------|---------------------------------|
|---------------------------------|---------------------------------|
|---------------------------------|---------------------------------|
|-0---------------5---------------|-0-------------------------------|
|
| E   E   E   E   E   E   E   E     W
|---------0---------------0-------|-0-------------------------------|
|-------------0---------------0---|-0-------------------------------|
|-----0---------------2-----------|-0-------------------------------|
|-2-------------------------------|-2-------------------------------|
|-----------------0---------------|---------------------------------|
|---------------------------------|---------------------------------|




2nd Verse




Chorus




Solo:
As the solo is played by an obviously fretless Cello, so you need to use a slide bar or
a tremolo bar to be able to produce the notes in between the 'fret notes', which gives
this Cello-sliding effect.
(When using the Tremolo to slide, hit the natural harmonic on the 12th fret instead of
 the usual 12th note as indicated in the tabs - my opinion, it sounds better when screaming.)


 Gtr 5
   |-3-|       |-3-|       |-3-|       |-3-|                                       |-3-|
   E   S  E    E   S  E    E   S  E    E   S  E      E     E     Q        Q        E   S  E
|-12s=13s12---12s=13s12---12s=13s12---12s=13s12---|-12---s11---s12~------12~------12s=13s12---|
|-------------------------------------------------|-------------------------------------------|
|-------------------------------------------------|-------------------------------------------|
|-------------------------------------------------|-------------------------------------------|
|-------------------------------------------------|-------------------------------------------|
|-------------------------------------------------|-------------------------------------------|

                                                |-3-|                   |-3-|  |-3-|  |-3-|
   H                 H                     E    E   S  E    E     E     E   S  E   S  E   S
|-12s9---------------9s12---------------|-12---12s=13s12---12~---12~--s13s=12s13s=12s13s=12-|
|---------------------------------------|---------------------------------------------------|
|---------------------------------------|---------------------------------------------------|
|---------------------------------------|---------------------------------------------------|
|---------------------------------------|---------------------------------------------------|
|---------------------------------------|---------------------------------------------------|

               |-3-|       |-3-|  |-3-|       |-3-|                            |-3-|  |-3-|  |-3-|  |-3-|
   E     E     E   S  E    E   S  E   S  E    E   S     E    E     E     E     E   S  E   S  E   S  E   S
|-12~---12~---12=s13s12---12=s13s12=s13s12---12=s13=|=s12---12~---12~---12~---12=s13s12=s13s12=s13s12=s13-|
|---------------------------------------------------|-----------------------------------------------------|
|---------------------------------------------------|-----------------------------------------------------|
|---------------------------------------------------|-----------------------------------------------------|
|---------------------------------------------------|-----------------------------------------------------|
|---------------------------------------------------|-----------------------------------------------------|


   E     E     E     E     E     E     Q            H                   H
|-12~---12~---12~---12~---12~---12~---12s10-------|-9s12---------------12~---------------|
|-------------------------------------------------|--------------------------------------|
|-------------------------------------------------|--------------------------------------|
|-------------------------------------------------|--------------------------------------|
|-------------------------------------------------|--------------------------------------|
|-------------------------------------------------|--------------------------------------|




Solo Backup:
  Gtr 2
    Em              Em7M              Em7             Em6(no5)
    E   S S E   S S E   S S E   S S   E   S S E   S S E   S S E   S S
    |   | | |   | | |   | | |   | |   |   | | |   | | |   | | |   | |
    /   / / /   / / /   / / /   / /   /   / / /   / / /   / / /   / /

  Gtr 3
    H               H                 H               H
||----------------------------------|----------------------------------||
||o---------------------------------|---------------------------------o||
||----------------------------------|----------------------------------||
||----------------------------------|----------------------------------||
||o-7---------------6---------------|-5---------------4---------------o||
||----------------------------------|----------------------------------||
|
| Gtr 4
|   E   E   S S E   E   E   S S E     E   E   S S E   E   E   S S E
||------0-------0-------0-------0---|-----0-------0-------0-------0----||
||o-0---------------0---------------|-0---------------0---------------o||
||----------------------------------|----------------------------------||
||----------0h2-------------0h2-----|---------0h2-------------0h2------||
||o---------------------------------|---------------------------------o||
||----------------------------------|----------------------------------||




3rd Verse




Chorus till end




  I have slept beside the winter and the green is growing slow
  I have watched you find the places hidden by the snow
  I have tripped into a valley that is blue till you can see
  I want you to come walk this world with me

  With the light in our eyes it's hard to see
  Holding on and on to what we believe
  I'm not touched but I'm aching to be
  I want you to come walk this world with me

  And I'm sucked in by the wonder and I'm fucked up by the lies
  And I dig a hole to lie in and I build some wings to fly
  And I think that I could love you 'cause you know how to be free
  I want you to come walk this world with me

  And it's burning in our fingers and it's burning on the road
  And I like the way you're broken and I'll like you when you're old
  And I see you in the garden and I feel you plant the seed
  I want you to come walk this world with me


- 24th /October /05
Just mail me at Maitinin@gmail.com with comments, question or corrections!
comments
We did not receive enough feedback on this tab! Please rate:
print report bad tab
1 2 3 4 5
I want to post or [tab]
guest
You may want to rate the tab now too:
select rating
Please do not post tabs as comments. Select "correction" instead!