Oops, an error
Loading. Please wait.

Customary Impurity Tab

83 views 1 this week
no commentswrite comment
1 2 3 4 5
please rate
add to favorites launch autoscroll
font size
0
reset
Autoscroll
+/-
esc
set tempo
stop
Difficulty
Tuning
novice
D A D G B E
WARNING: You are trying to view
                                    content from Ultimate-Guitar.com
                                    in an unauthorized application,
                                    which is prohibited.

                                    Please use an official Ultimate
                                    Guitar Tabs application for iPhone,
                                    iPad or Android to access legitimate
                                    chords, guitar, bass, and drum tabs
                                    from Ultimate-Guitar.com database.

                                    Type "ultimate guitar tabs" in Apple
                                    App Store's or Android Market's
                                    search to find the application.
Gtr I (D A D G B E) - 'Dan'

 4/4
  Gtr I
  W          +W           S S S S S S S S S S S S S S S S
|----------|------------|---------------------------------|
|----------|------------|---------------------------------|
|-0--------|-(0)--------|---------------------------------|
|-0--------|-(0)--------|-------------------3h5S7-5S3-----|
|-0--------|-(0)--------|-5-5---3h5-5---3h5-----------5p3-|
|----------|------------|---------------------------------|


  S S S S S S S S S S E.  E.
|------------------------------|
|------------------------------|
|------------------------------|
|------------------------------|
|-5-5---3h5-5---3h5p3----------|
|---------------------5b6r3----|


                                                             ~~~
  S S S S S S S S S S S S S S S S   S S S S S S S S S S S S +Q
|---------------------------------|-------------------------------|
|---------------------------------|-------------------------------|
|---------------------------------|-------------------------------|
|-------------------3h5S7-5S3-----|-------------------3---3-(3)---|
|-5-5---3h5-5---3h5-----------5p3-|-5-5---3h5-5---3h5---5---------|
|---------------------------------|-------------------------------|


 3/4
  Q.   Q.     Q.   Q  E    E.     E. E E E   E.     E. E E E
|-----------|------------|-----------------|------------------|
|-8----8----|-8----5-----|--------8----8-8-|--------8----8-8--|
|-8----8----|-8----5-----|--------8----8-8-|--------8----8-8--|
|-7----7----|-7----4-----|-5------7--5-7-7-|-5------7--5-7-7--|
|-6----6----|-6----3--8/-|-5---------5-----|-5---------5------|
|-----------|------------|-5---------5-----|-5---------5------|


  PM            PM      PM            PM
  E X X X X E S E E E   E X X X X E S E E E
|---------------------|---------------------|
|-----------8-8---8-8-|-----------8-8---8-8-|
|---x-x-x-x-8-8---8-8-|---x-x-x-x-8-8---8-8-|
|-5-x-x-x-x-7-7-5-7-7-|-5-x-x-x-x-7-7-5-7-7-|
|-5-x-x-x-x-----5-----|-5-x-x-x-x-----5-----|
|-5-------------5-----|-5-------------5-----|


  PM            PM      PM            PM
  E X X X X E S E E E   E X X X X E S E E E
|---------------------|----------------------|
|-----------5-5---5-5-|-----------5-5---5-5--|
|---x-x-x-x-5-5---5-5-|---x-x-x-x-5-5---5-5--|
|-7-x-x-x-x-4-4-7-4-4-|-7-x-x-x-x-4-4-7-4-4--|
|-7-x-x-x-x-----7-----|-7-x-x-x-x-----7------|
|-7-------------7-----|-7-------------7------|


                                             4/4
  PM            PM      PM            PM
  E X X X X E S E E E   E X X X X E S E E E   S S S S S S S S S S S S S S S S
|---------------------|---------------------|---------------------------------|
|-----------8-8---8-8-|-----------8-8---8-8-|---------------------------------|
|---x-x-x-x-8-8---8-8-|---x-x-x-x-8-8---8-8-|-----------------5h7-----5h7-----|
|-5-x-x-x-x-7-7-5-7-7-|-5-x-x-x-x-7-7-5-7-7-|-----5h7-----5h7-----5h7-----5h7-|
|-5-x-x-x-x-----5-----|-5-x-x-x-x-----5-----|-5h7-----5h7---------------------|
|-5-------------5-----|-5-------------5-----|---------------------------------|


  S S S S S S S S S S S S S S S S   S S S S S S S S S S S S S S S S
|---------------------------------|---------------------------------|
|---------------------------------|---------------------------------|
|-----------------6h8-----6h8-----|-----------------7h9-----7h9-----|
|-----6h8-----6h8-----6h8-----6h8-|-----7h9-----7h9-----7h9-----7h9-|
|-6h8-----6h8---------------------|-7h9-----7h9---------------------|
|---------------------------------|---------------------------------|


  S  S S  S S  S S  S S  S S  S S  S S  S
|-----------------------------------------|
|-----------------------------------------|
|---------------------8h10------8h10------|
|------8h10------8h10------8h10------8h10-|
|-8h10------8h10--------------------------|
|-----------------------------------------|


   Q   Q  Q.   E   E E Q  Q  E E   E E Q  Q.   E
|----------------|---------------|----------------|
|----------------|---------------|----------------|
|-10\--x--x------|-x-x-x--x----x-|-x-x-x--x----x--|
|--9---x--x----x-|-x-x-x--x----x-|-x-x-x--x----x--|
|--8---x--x----x-|-x-x-x--x----x-|-x-x-x--x----x--|
|----------------|---------------|----------------|


 5/4              4/4
  E E Q  H.        q  q.   E E E   q  q.   E E E   q  q.   E E E
|----------------|---------------|---------------|---------------|
|----------------|---------------|---------------|---------------|
|-x-x-x----------|---------------|---------------|---------------|
|-x-x-x----------|-2--1----3-2-1-|-2--1----5-4-3-|-2--1----7-6-5-|
|-x-x-x----------|-2--1----3-2-1-|-2--1----5-4-3-|-2--1----7-6-5-|
|----------------|-2--1----3-2-1-|-2--1----5-4-3-|-2--1----7-6-5-|


    PM--| ~        PM--|
  E E E E H      E E E E H       q  q.   E E E   q  q.   E E E   q  q.   E E E
|--------------|---------------|---------------|---------------|---------------|
|-5------------|-5-------------|---------------|---------------|---------------|
|-5-------7----|-5-------7\----|---------------|---------------|---------------|
|---7-6-5------|---7-6-5-------|-2--1----3-2-1-|-2--1----5-4-3-|-2--1----7-6-5-|
|--------------|---------------|-2--1----3-2-1-|-2--1----5-4-3-|-2--1----7-6-5-|
|--------------|---------------|-2--1----3-2-1-|-2--1----5-4-3-|-2--1----7-6-5-|


    PM--| ~        PM--| ~        PM--| ~        PM--| ~
  E E E E H      E E E E H      E E E E H      E E E E H
|--------------|--------------|--------------|--------------|
|-5------------|-5------------|-5------------|-5------------|
|-5-------7----|-5-------7----|-5-------7----|-5-------7----|
|---7-6-5------|---7-6-5------|---7-6-5------|---7-6-5------|
|--------------|--------------|--------------|--------------|
|--------------|--------------|--------------|--------------|


  PM-------------------------------------
  E E E E  E  E E E   E E E E  E  E E E
|-------------------|-------------------|
|-------------------|-------------------|
|-6-6-7-8--9--9-8-7-|-6-6-7-8--9--9-8-7-|
|-7-7-8-9-10-10-9-8-|-7-7-8-9-10-10-9-8-|
|-------------------|-------------------|
|-------------------|-------------------|


 -------------------------------------|
  E E E E  E  E E E   E E E E  E  E E E
|-------------------|-------------------|
|-------------------|-------------------|
|-6-6-7-8--9--9-8-7-|-6-6-7-8--9--9-8-7-|
|-7-7-8-9-10-10-9-8-|-7-7-8-9-10-10-9-8-|
|-------------------|-------------------|
|-------------------|-------------------|


     PM------------------------------|       PM------------------------------|
  q  E E  E  E E E   E E E E  E  E E E   E E E E  E  E E E   E E E E  E  E E E
|------------------|-------------------|-------------------|-------------------|
|------------------|-------------------|-------------------|-------------------|
|-6--7-8--9--9-8-7-|-6-6-7-8--9--9-8-7-|-6-6-7-8--9--9-8-7-|-6-6-7-8--9--9-8-7-|
|-7--8-9-10-10-9-8-|-7-7-8-9-10-10-9-8-|-7-7-8-9-10-10-9-8-|-7-7-8-9-10-10-9-8-|
|-7----------------|-------------------|-7-7---------------|-------------------|
|------------------|-------------------|-------------------|-------------------|


     PM------------------------------|                      ~~~
  q  E E  E  E E E   E E E E  E  E E E   Q   E Q    E Q    +W
|------------------|-------------------|-----------------|--------|
|------------------|-------------------|-----------------|--------|
|-6--7-8--9--9-8-7-|-6-6-7-8--9--9-8-7-|-6-----7\-----8--|-(8)----|
|-7--8-9-10-10-9-8-|-7-7-8-9-10-10-9-8-|-7\----8------9--|-(9)----|
|-7----------------|-------------------|-----------------|--------|
|------------------|-------------------|-----------------|--------|


  PM-------------------------------------
  E E E E  E  E E E   E E E E  E  E E E
|-------------------|-------------------|
|-------------------|-------------------|
|-6-6-7-8--9--9-8-7-|-6-6-7-8--9--9-8-7-|
|-7-7-8-9-10-10-9-8-|-7-7-8-9-10-10-9-8-|
|-------------------|-------------------|
|-------------------|-------------------|


 -------------------------------------|
  E E E E  E  E E E   E E E E  E  E E E   Q   H.
|-------------------|-------------------|-----------*|
|-------------------|-------------------|-----------*|
|-6-6-7-8--9--9-8-7-|-6-6-7-8--9--9-8-7-|-6\--------*|
|-7-7-8-9-10-10-9-8-|-7-7-8-9-10-10-9-8-|-7\--------*|
|-------------------|-------------------|-7\--------*|
|-------------------|-------------------|-7\--------*|

Smoke weed.
-Caleb
comments
We did not receive enough feedback on this tab! Please rate:
1 2 3 4 5
I want to post or [tab]
guest
You may want to rate the tab now too:
select rating
Please do not post tabs as comments. Select "correction" instead!