Oops, an error
Loading. Please wait.

Eating The Porridge Tab

ver1
ver1

Whole song

Interactive

More versions @911Tabs.com
2,012 views 1 this week
no commentswrite comment
1 2 3 4 5
excellent!
x 1
add to favorites launch autoscroll
font size
0
reset
Autoscroll
+/-
esc
set tempo
stop
Contributor
Difficulty
Tuning
intermediate
D A D G B E
WARNING: You are trying to view
                                    content from Ultimate-Guitar.com
                                    in an unauthorized application,
                                    which is prohibited.

                                    Please use an official Ultimate
                                    Guitar Tabs application for iPhone,
                                    iPad or Android to access legitimate
                                    chords, guitar, bass, and drum tabs
                                    from Ultimate-Guitar.com database.

                                    Type "ultimate guitar tabs" in Apple
                                    App Store's or Android Market's
                                    search to find the application.
----------------------------------------------------------------------------
                   Eating The Porridge Killing the Bears
                         Heavy Heavy Low Low
                  Everything's Watched, Everyone's Watching
----------------------------------------------------------------------------
Tabbed by: David

Tuning: Drop D

Guitar 1:

e|-------------------------------------------------------------------------|
B|-------------------------------------------------------------------------|
G|-------------------------------------------------------------------------|
D|-0---0---0-----0----0--1--3--0-------------------------------------------|
A|-0---0---0-----0----0--1--3--0-------------------------------------------|
D|-0---0---0-----0----0--1--3--0-------------------------------------------|
 PM----|        PM                


e|-----------------------------------------------------------------|
B|-----------------------------------------------------------------|
G|-----------------------------------------------------------------|
D|-0-0----0-(0)-0-0---0-(0)-0-0---0h1h3----------------------------| 3 Times
A|-0-0----0-(0)-0-0---0-(0)-0-0---0h1h3----------------------------|
D|-0-0----0-(0)-0-0---0-(0)-0-0---0h1h3----------------------------|
  PM-----------------------------------|



Guitar 2 (at the same time as 1):

e|------------------------------|
B|------------------------------|
G|------------------------------|
D|-0---0---0-----0--------------|
A|-0---0---0-----0--------------|
D|-0---0---0-----0--------------|
  PM----|       PM

e|----------------------------------------------------------------|
B|----------------------------------------------------------------|
G|-------------------------------0h1h3----------------------------|
D|-0-0----0-(0)-0-0---0-(0)-0-0-----------------------------------| 3 Times
A|-0-0----0-(0)-0-0---0-(0)-0-0-----------------------------------|
D|-0-0----0-(0)-0-0---0-(0)-0-0-----------------------------------|

Guitars 1 & 2:

e|----------------------------------------------------------------|
B|----------------------------------------------------------------|
G|----------------------------------------------------------------|
D|-0-0----0-(0)-0-0---0-(0)-0-0----0-(0)-0-0-0-0------------------|
A|-0-0----0-(0)-0-0---0-(0)-0-0----0-(0)-0-0-0-0------------------|
D|-0-0----0-(0)-0-0---0-(0)-0-0----0-(0)-0-0-0-0------------------|

e|----------------------------------------------------------------|
B|----------------------------------------------------------------|
G|----------------------------------------------------------------|
D|-0-0----0-(0)-0-0---0-(0)-0-0---0-(0)-0-0-----------------------| 
A|-0-0----0-(0)-0-0---0-(0)-0-0---0-(0)-0-0-----------------------|
D|-0-0----0-(0)-0-0---0-(0)-0-0---0-(0)-0-0------12s--------------|

e|-------------------------------------------|
B|-------------------------------------------|
G|-------------------------------------------|
D|---1-0---1-0--3-1--1-0---------------------| 3 Times
A|---1-0---1-0--3-1--1-0---------------------|
D|---1-0---1-0--3-1--1-0---------------------|

e|-------------------------------------------------------------------------|
B|-------------------------------------------------------------------------|
G|---5-------5-------5----5h6p5--5--5----5h6p5--5--5----5h6p5---5----------|
D|----6-5-6---6-5-6---6-5-------6----6-5-------6----6-5-------6------------|
A|-------------------------------------------------------------------------|
D|-------------------------------------------------------------------------|
                    PM---|     PM-------|     PM-------|     PM--|

e|------------------------------------------------------------------|
B|------------------------------------------------------------------|
G|---5----5h6p5------5----5h6p5--5--5----5h6p5--5--5----5h6p5---5---|
D|----6-5-------6-5---6-5-------6----6-5-------6----6-5-------6-----|
A|------------------------------------------------------------------|
D|------------------------------------------------------------------|
    PM---|     PM--------|     PM-------|     PM-------|     PM--|
e|---------------------------------------------------------------------|
B|---------------------------------------------------------------------|
G|---5----5h6p5------5----5h6p5--5--5----5h6p5--5--5----5h6p5---5--5---|
D|----6-5-------6-5---6-5-------6----6-5-------6----6-5-------6--------|
A|---------------------------------------------------------------------|
D|---------------------------------------------------------------------|
    PM---|     PM--------|     PM-------|     PM-------|     PM--|

Guitar 1:

e|-------------------------------------------------------------------------|
B|-------------------------------------------------------------------------|
G|-------------------------------------------------------------------------|
D|--6-6-6-6-6-6-6-6-6-6-6-6-6----6-6-6-6-6-6-6-6-6-6-6-6-6-----------------|
A|--4-4-4-4-4-4-4-4-4-4-4-4-4----4-4-4-4-4-4-4-4-4-4-4-4-4-----------------|
D|-------------------------------------------------------------------------|

e|-------------------------------------------------------------------------|
B|-------------------------------------------------------------------------|
G|-------------------------------------------------------------------------|
D|--8-8-8-8-8-8-8-8-8-8-8-8-8-8-8-8-7-7-7-7-7-7-7-7-7-7-7-7-7-7-7-7--------|
A|--5-5-5-5-5-5-5-5-5-5-5-5-5-5-5-5-5-5-5-5-5-5-5-5-5-5-5-5-5-5-5-5--------|
D|-------------------------------------------------------------------------|

e|-------------------------------------------------------------------------|
B|-------------------------------------------------------------------------|
G|-------------------------------------------------------------------------|
D|--6-6-6-6-6-6-6-6-6-6-6-6-6----6-6-6-6-6-6-6-6-6-6-6-6-6-----------------|
A|--4-4-4-4-4-4-4-4-4-4-4-4-4----4-4-4-4-4-4-4-4-4-4-4-4-4-----------------|
D|-------------------------------------------------------------------------|

e|-------------------------------------------------------------------------|
B|-------------------------------------------------------------------------|
G|-------------------------------------------------------------------------|
D|--8-8-8-8-8-8-8-8-8-8-8-8-8-8-8-8-7-7-7-7-7-7-7-7-7-7-7-7-7-7-7-7--------|
A|--5-5-5-5-5-5-5-5-5-5-5-5-5-5-5-5-5-5-5-5-5-5-5-5-5-5-5-5-5-5-5-5--------|
D|-------------------------------------------------------------------------|

e|-------------------------------------------------------------------------|
B|-------------------------------------------------------------------------|
G|-------------------------------------------------------------------------|
D|---0-0-0-----------------------------------------------------------------|
A|---0-0-0-----------------------------------------------------------------|
D|---0-0-0-----------------------------------------------------------------|
    PM------|

e|-------------------------------------------------------------------------|
B|-------------------------------------------------------------------------|
G|-------------------------------------------------------------------------|
D|--6-6-6-6-6-6-6-6-6-6-6-6-6----6-6-6-6-6-6-6-6-6-6-6-6-6-----------------|
A|--4-4-4-4-4-4-4-4-4-4-4-4-4----4-4-4-4-4-4-4-4-4-4-4-4-4-----------------|
D|-------------------------------------------------------------------------|

e|-------------------------------------------------------------------------|
B|-------------------------------------------------------------------------|
G|----------5-5-5-5-6-6-6-6-5-5-5-5---------5-5-5-5-6-6-6-6-5-5-5-5--------|
D|--8-8-8-8-------------------------7-7-7-7--------------------------------|
A|--5-5-5-5-------------------------5-5-5-5--------------------------------|
D|-------------------------------------------------------------------------|

e|-------------------------------------------------------------------------|
B|-------------------------------------------------------------------------|
G|-------------------------------------------------------------------------|
D|--6-6-6-6-6-6-6-6-6-6-6-6-6----6-6-6-6-6-6-6-6-6-6-6-6-6-----------------|
A|--4-4-4-4-4-4-4-4-4-4-4-4-4----4-4-4-4-4-4-4-4-4-4-4-4-4-----------------|
D|-------------------------------------------------------------------------|

e|-------------------------------------------------------------------------|
B|-------------------------------------------------------------------------|
G|----------5-5-5-5-6-6-6-6-5-5-5-5---------5-5-5-5-6-6-6-6-5-5-5-5--------|
D|--8-8-8-8-------------------------7-7-7-7--------------------------------|
A|--5-5-5-5-------------------------5-5-5-5--------------------------------|
D|-------------------------------------------------------------------------|

e|-------------------------------------------------------------------------|
B|-------------------------------------------------------------------------|
G|-------------------------------------------------------------------------|
D|---0-0-0--------------0---0--0--0----0--0--0------0---0------------------|
A|---0-0-0--------------0---0--0--0----0--0--0------0---0------------------|
D|---0-0-0--------------0---0--0--0----0--0--0------0---0------------------|
    PM-----------------------------------------------|    

e|-------------------------------------------------------------------------|
B|-------------------------------------------------------------------------|
G|-------------------------------------------------------------------------|
D|---0-1-3-0-4-1-3-0--0-----0--0--0----0--0--0----0----0-------------------|
A|---0-1-3-0-4-1-3-0--0-----0--0--0----0--0--0----0----0-------------------|
D|---0-1-3-0-4-1-3-0--0-----0--0--0----0--0--0----0----0-------------------|
    PM---------------------------------------------|

e|-------------------------------------------------------------------------|
B|-------------------------------------------------------------------------|
G|-------------------------------------------------------------------------|
D|---0-1-3-0-4-1-3-0--0-----0--0--0----------------------------------------|
A|---0-1-3-0-4-1-3-0--0-----0--0--0----------------------------------------|
D|---0-1-3-0-4-1-3-0--0-----0--0--0----------------------------------------|
    PM------------------------------|

Guitar 2 (At the same time as 1):

e|-------------------------------------------------------------------------|
B|--9-9-9-9-9-9-9-9-9-9-9-9-9----9-9-9-9-9-9-9-9-9-9-9-9-9-----------------|
G|--7-7-7-7-7-7-7-7-7-7-7-7-7----7-7-7-7-7-7-7-7-7-7-7-7-7-----------------|
D|--6-6-6-6-6-6-6-6-6-6-6-6-6----6-6-6-6-6-6-6-6-6-6-6-6-6-----------------|
A|-------------------------------------------------------------------------|
D|-------------------------------------------------------------------------|

e|-------------------------------------------------------------------------|
B|--9-9-9-9-9-9-9-9-9-9-9-9-9-9-9-9-9-9-9-9-9-9-9-9-9-9-9-9-9-9-9-9--------|
G|--7-7-7-7-7-7-7-7-7-7-7-7-7-7-7-7-7-7-7-7-7-7-7-7-7-7-7-7-7-7-7-7--------|
D|--8-8-8-8-8-8-8-8-8-8-8-8-8-8-8-8-7-7-7-7-7-7-7-7-7-7-7-7-7-7-7-7--------|
A|-------------------------------------------------------------------------|
D|-------------------------------------------------------------------------|

e|-------------------------------------------------------------------------|
B|--9-9-9-9-9-9-9-9-9-9-9-9-9----9-9-9-9-9-9-9-9-9-9-9-9-9-----------------|
G|--7-7-7-7-7-7-7-7-7-7-7-7-7----7-7-7-7-7-7-7-7-7-7-7-7-7-----------------|
D|--6-6-6-6-6-6-6-6-6-6-6-6-6----6-6-6-6-6-6-6-6-6-6-6-6-6-----------------|
A|-------------------------------------------------------------------------|
D|-------------------------------------------------------------------------|

e|-------------------------------------------------------------------------|
B|--9-9-9-9-9-9-9-9-9-9-9-9-9-9-9-9-9-9-9-9-9-9-9-9-9-9-9-9-9-9-9-9--------|
G|--7-7-7-7-7-7-7-7-7-7-7-7-7-7-7-7-7-7-7-7-7-7-7-7-7-7-7-7-7-7-7-7--------|
D|--8-8-8-8-8-8-8-8-8-8-8-8-8-8-8-8-7-7-7-7-7-7-7-7-7-7-7-7-7-7-7-7--------|
A|-------------------------------------------------------------------------|
D|-------------------------------------------------------------------------|

e|-------------------------------------------------------------------------|
B|--9-9-9-9-9-9-9-9-9-9-9-9-9-9-9-9-9-9-9-9-9-9-9-9-9-9-9-9----------------|
G|--7-7-7-7-7-7-7-7-7-7-7-7-7-7-7-7-7-7-7-7-7-7-7-7-7-7-7-7----------------|
D|-------------------------------------------------------------------------|
A|-------------------------------------------------------------------------|
D|-------------------------------------------------------------------------|

e|-------------------------------------------------------------------------|
B|--9-9-9-9-9-9-9-9-9-9-9-9-9----9-9-9-9-9-9-9-9-9-9-9-9-9-----------------|
G|--7-7-7-7-7-7-7-7-7-7-7-7-7----7-7-7-7-7-7-7-7-7-7-7-7-7-----------------|
D|--6-6-6-6-6-6-6-6-6-6-6-6-6----6-6-6-6-6-6-6-6-6-6-6-6-6-----------------|
A|-------------------------------------------------------------------------|
D|-------------------------------------------------------------------------|

e|-------------------------------------------------------------------------|
B|--9-9-9-9-9-9-9-9-9-9-9-9-9-9-9-9-9-9-9-9-9-9-9-9-9-9-9-9-9-9-9-9--------|
G|--7-7-7-7-7-7-7-7-7-7-7-7-7-7-7-7-7-7-7-7-7-7-7-7-7-7-7-7-7-7-7-7--------|
D|--8-8-8-8-8-8-8-8-8-8-8-8-8-8-8-8-7-7-7-7-7-7-7-7-7-7-7-7-7-7-7-7--------|
A|-------------------------------------------------------------------------|
D|-------------------------------------------------------------------------|

e|-------------------------------------------------------------------------|
B|--9-9-9-9-9-9-9-9-9-9-9-9-9----9-9-9-9-9-9-9-9-9-9-9-9-9-----------------|
G|--7-7-7-7-7-7-7-7-7-7-7-7-7----7-7-7-7-7-7-7-7-7-7-7-7-7-----------------|
D|--6-6-6-6-6-6-6-6-6-6-6-6-6----6-6-6-6-6-6-6-6-6-6-6-6-6-----------------|
A|-------------------------------------------------------------------------|
D|-------------------------------------------------------------------------|

e|-------------------------------------------------------------------------|
B|--9-9-9-9-9-9-9-9-9-9-9-9-9-9-9-9-9-9-9-9-9-9-9-9-9-9-9-9-9-9-9-9--------|
G|--7-7-7-7-7-7-7-7-7-7-7-7-7-7-7-7-7-7-7-7-7-7-7-7-7-7-7-7-7-7-7-7--------|
D|--8-8-8-8-8-8-8-8-8-8-8-8-8-8-8-8-7-7-7-7-7-7-7-7-7-7-7-7-7-7-7-7--------|
A|-------------------------------------------------------------------------|
D|-------------------------------------------------------------------------|

Guitars 1 & 2:

e|-------------------------------------------------------------------------|
B|-------------------------------------------------------------------------|
G|-------------------------------------------------------------------------|
D|---0-0-0--------------0---0--0--0----0--0--0------0---0------------------|
A|---0-0-0--------------0---0--0--0----0--0--0------0---0------------------|
D|---0-0-0--------------0---0--0--0----0--0--0------0---0------------------|
    PM-----------------------------------------------|    

e|-------------------------------------------------------------------------|
B|-------------------------------------------------------------------------|
G|-------------------------------------------------------------------------|
D|---0-1-3-0-4-1-3-0--0-----0--0--0----0--0--0----0----0-------------------|
A|---0-1-3-0-4-1-3-0--0-----0--0--0----0--0--0----0----0-------------------|
D|---0-1-3-0-4-1-3-0--0-----0--0--0----0--0--0----0----0-------------------|
    PM---------------------------------------------|

e|-------------------------------------------------------------------------|
B|-------------------------------------------------------------------------|
G|-------------------------------------------------------------------------|
D|---0-1-3-0-4-1-3-0--0-----0--0--0----------------------------------------|
A|---0-1-3-0-4-1-3-0--0-----0--0--0----------------------------------------|
D|---0-1-3-0-4-1-3-0--0-----0--0--0----------------------------------------|
    PM------------------------------|

| /  slide up
| \  slide down
| h  hammer-on
| p  pull-off
| ~  vibrato
| +  harmonic
| x  Mute note
===============================================================================
comments
We did not receive enough feedback on this tab! Please rate:
print report bad tab
1 2 3 4 5
I want to post or [tab]
guest
You may want to rate the tab now too:
select rating
Please do not post tabs as comments. Select "correction" instead!