Oops, an error
Loading. Please wait.

Gods Of Doom Tab

589 views 9 this week
no commentswrite comment
1 2 3 4 5
excellent!
x 2
Autoscroll
+/-
esc
set tempo
stop
Contributor
Difficulty
Tuning
novice
B E A D F# B
Hey! There's an official Ultimate Guitar app which is ideal
for learning songs when you're away from computer. Get the app
WARNING: You are trying to view
                                    content from Ultimate-Guitar.com
                                    in an unauthorized application,
                                    which is prohibited.

                                    Please use an official Ultimate
                                    Guitar Tabs application for iPhone,
                                    iPad or Android to access legitimate
                                    chords, guitar, bass, and drum tabs
                                    from Ultimate-Guitar.com database.

                                    Type "ultimate guitar tabs" in Apple
                                    App Store's or Android Market's
                                    search to find the application.
Herrow! this is my first tab ever, so please go easy (not sure if its 100% 
correct). thanks to Jeff Tsyvyan for teaching me the song. 
                                                 intro
|--------------------------------------------------|
|--------------------------------------------------|
|--------------------------------------------------|
|--------------------------------------------------|
|-----------------5--9/7-----7--5------------------|
|--0--0--3--5--7----------8--------7/--0-----------|

|--------------------------------------------------|
|--------------------------------------------------|
|--------------------------------------------------|
|--------------------------------2/3---------------|
|--------------------7h9-7--3h5--------------------|
|--0--0--3--5--7--5--------------------------------|

|--------------------------------------------------|
|--------------------------------------------------|
|--------------------------------------------------|
|--------------------------------------------------|
|-----------------5--9/7-----7--5------------------|
|--0--0--3--5--7----------8--------7/--0-----------|

|--------------------------------------------------|
|--------------------------------------------------|
|--------------------------------------------------|
|--------------------------------------------------|
|--------------------------------------------------|
|--0--0--3--5--7--5----3---------------------------| x..a lot 




|--------------------------------------------------|
|--------------------------------------------------|
|--------------------------------------------------|
|--------------------------------------------------|
|--------------------------------------------------|
|-000--0--0--0--0--000--0--0--0--0-----------------| x15..ish

|--------------------------------------------------|
|--------------------------------------------------|
|--------------------------------------------------|
|--------------7--------------7--------------7-----|
|--------------8--------------8--------------8-----|
|--0--0--0--0-----0--0--0--0-----0--0--0--0--------|

|--------------------------------------------------|
|--------------------------------------------------|
|--------------------------------------------------|
|--------------------------------------------------|
|------------------------7--8--10------------------|
|--0--0--0--0--7--8--10----------------------------|

|--------------------------------------------------|
|--------------------------------------------------|
|--------------------------------------------------|
|-7--------------7--------------7------------------|
|-8--------------8--------------8------------------|
|----0--0--0--0-----0--0--0--0---------------------|

|--------------------------------------------------|
|--------------------------------------------------|
|--------------------------------------------------|
|--------------------------------------------------|
|-------------10--8--7-----------------------------|
|-0--0--0--0------------10--8--7-------------------| x2

|--------------------------------------------------|
|--------------------------------------------------|
|--------------------------------------------------|
|--------------------------------------------------|
|--7---/9--7--5--7---/10---------------------------|
|--7---/9--7--5--7---/10---------------------------|

|--------------------------------------------------|
|--------------------------------------------------|
|--------------------------------------------------|
|-7--------------7--------------7------------------|
|-8--------------8--------------8------------------|
|----0--0--0--0-----0--0--0--0---------------------|

|--------------------------------------------------|
|--------------------------------------------------|
|--------------------------------------------------|
|--------------------------------------------------|
|------------------------7--8--10------------------|
|--0--0--0--0--7--8--10----------------------------|

|--------------------------------------------------|
|--------------------------------------------------|
|--------------------------------------------------|
|-7--------------7--------------7------------------|
|-8--------------8--------------8------------------|
|----0--0--0--0-----0--0--0--0---------------------|

|--------------------------------------------------|
|--------------------------------------------------|
|--------------------------------------------------|
|--------------------------------------------------|
|-------------10--8--7-----------------------------|
|-0--0--0--0------------10--8--7-------------------| x2

|--------------------------------------------------|
|--------------------------------------------------|
|--------------------------------------------------|
|--------------------------------------------------|
|--7---/9--7--5--7---/10---------------------------|
|--7---/9--7--5--7---/10---------------------------|

|--------------------------------------------------|
|--------------------------------------------------|
|--------------------------------------------------|
|-3--------------3--------------3------------------|
|-3--------------3--------------3------------------|
|----0--0--0--0-----0--0--0--0---------------------|

|--------------------------------------------------|
|--------------------------------------------------|
|--------------------------------------------------|
|--------------------------------------------------|
|----------------0--1--3---------------------------|
|----0--0--0--0-----------1--3--5------------------|

|--------------------------------------------------|
|--------------------------------------------------|
|--------------------------------------------------|
|-3--------------3--------------3------------------|
|-3--------------3--------------3------------------|
|----0--0--0--0-----0--0--0--0---------------------|

|--------------------------------------------------|
|--------------------------------------------------|
|--------------------------------------------------|
|--------------------------------------------------|
|-------------------------3--1--0------------------|
|----0--0--0--0--5--3--1---------------------------|

|--------------------------------------------------|
|--------------------------------------------------|
|--------------------------------------------------|
|-3--------------3--------------3------------------|
|-3--------------3--------------3------------------|
|----0--0--0--0-----0--0--0--0---------------------|

|--------------------------------------------------|
|--------------------------------------------------|
|--------------------------------------------------|
|--------------------------------------------------|
|----------------0--1--3---------------------------|
|----0--0--0--0-----------1--3--5------------------|

|--------------------------------------------------|
|--------------------------------------------------|
|--------------------------------------------------|
|-3--------------3--------------3------------------|
|-3--------------3--------------3------------------|
|----0--0--0--0-----0--0--0--0---------------------|

|--------------------------------------------------|
|--------------------------------------------------|
|--------------------------------------------------|
|-------------10--8--7-----------------------------|
|-----------------------10--8--7-------------------|
|-0--0--0--0---------------------------------------|

|--------------------------------------------------|
|--------------------------------------------------|
|--------------------------------------------------|
|--------------------------------------------------|
|--7---/9--7--5--7---/10---------------------------|
|--7---/9--7--5--7---/10---------------------------|



|--------------------------------------------------|
|--------------------------------------------------|
|--------------------------------------------------|
|--------------------------------------------------|
|-------7---8p7--5-------7---8p7--10---------------|
|--0--0---0---------0--0---0-----------------------| x4

|--------------------------------------------------|
|--------------------------------------------------|
|--------------------------------------------------|
|--------------------------------------------------|
|------------8---7h8p7---------10-10---------------|
|--0--0-8h10---0-------0--0-0--------0--7h8p7------| x8


|--------------------------------------------------|
|--------------------------------------------------|
|--------------------------------------------------|
|--------------------------------------------------|
|-------7---8p7--5-------7---8p7--10---------------|
|--0--0---0---------0--0---0-----------------------| x2

|--------------------------------------------------|
|--------------------------------------------------|
|--------------------------------------------------|
|---------------------------------7----------------|
|-------7---8p7--7-------7---8p7-------------------|
|--0--0---0---------0--0---0-----------------------| x4


|--------------------------------------------------|
|--------------------------------------------------|
|--------------------------------------------------|
|--------------------------------------------------|
|--------------------------8p7---------------------|
|--0--00-00-00-00-00-00-0-------9/-----------------| x4

|--------------------------------------------------|
|--------------------------------------------------|
|--------------------------------------------------|
|--------------------------------------------------|
|--------------------------8p7---------------------|
|--x--xx-xx-xx-xx-xx-xx-x-------9/-----------------| x8


|--------------------------------------------------|
|--------------------------------------------------|
|--------------------------------------------------|
|--------------------------------------------------|
|-----------------------8p7------------------------|
|--x-xxxx-x-xxxx-x-xxxx------9/--------------------| x3

|--------------------------------------------------|
|--------------------------------------------------|
|--------------------------------------------------|
|--------------------------------------------------|
|-------------------------8p7----------------------|
|--x--x-xxxxxxxxxxxxxxxx-------9/------------------| x3

|---------------------------------------------------|
|---------------------------------------------------|
|---------------------------------------------------|
|---------------------------2-----------------------|
|--7---/9--7--5--7---/10----2-----------------------|
|--7---/9--7--5--7---/10----0-----------------------|
                                      
                                    THE END


legalise drugs and murder!
comments
We did not receive enough feedback on this tab! Please rate:
print report bad tab
1 2 3 4 5
I want to post or [tab]
guest
You may want to rate the tab now too:
select rating
Please do not post tabs as comments. Select "correction" instead!