Oops, an error
Loading. Please wait.

Electrocute Tab

ver1
ver1

Whole song

More versions @911Tabs.com
2,136 views 9 this week
no commentswrite comment
1 2 3 4 5
please rate
Autoscroll
+/-
esc
set tempo
stop
Contributor
Hey! There's an official Ultimate Guitar app which is ideal
for learning songs when you're away from computer. Get the app
WARNING: You are trying to view
                                    content from Ultimate-Guitar.com
                                    in an unauthorized application,
                                    which is prohibited.

                                    Please use an official Ultimate
                                    Guitar Tabs application for iPhone,
                                    iPad or Android to access legitimate
                                    chords, guitar, bass, and drum tabs
                                    from Ultimate-Guitar.com database.

                                    Type "ultimate guitar tabs" in Apple
                                    App Store's or Android Market's
                                    search to find the application.
electrocute


the hellacopters


TRANSCRIBED BY RUDY GUZMAN


guzman_84@hotmail.com


Tuning: D# 
1 step down

:----------------------------|
:----------------------------|
:-2-4-2-4-2-4--2-2-4-2-4-2-4-|
:-0-0-0-0-0-0--0-0-0-0-0-0-0-|
:----------------------------|
:----------------------------|

:------------------------------------------------------------|
:------------------------------------------------------------|
:------------------------------------------------------------|
:-7-9-7-9-7-9--7-7-9-7-9-7-9--5-7-5-7--12-12-12--10----------|
:-5-5-5-5-5-5--5-5-5-5-5-5-5--3-3-3-3--10-10-10--8------8----|
:----------------------------------------------------10---10-|

:------------------------------------------------|
:------------------------------------------------|
:------------------------------------------------|
:--7-7-9-7-9-7-9--5-7-5-7--12-12-12--10----------|
:--5-5-5-5-5-5-5--3-3-3-3--10-10-10--8------8----|
:----------------------------------------10---10-|

verse
:------------------------------------------------|
:------------------------------------------------|
:------------------------------------------------|
:--7-7-9-7-9-7-9--5-7-5-7--12-12-12--10----------|
:--5-5-5-5-5-5-5--3-3-3-3--10-10-10--8------8----|
:----------------------------------------10---10-|


:-------------------------|
:-------------------------|
:-------------------------|
:-7-9-7-9-7-9-7--10-10-10-|
:-5-5-5-5-5-5-5--8--8--8--|
:-------------------------|

:-------------------------------------|
:-------------------------------------|
:-------------------------------------|
:-7-9-7-9-7-9-7--12-12-12--10--7-10-7-|
:-5-5-5-5-5-5-5--10-10-10--8---5-8--5-|
:-------------------------------------|

 piano
:------------------------------------------------|
:------------------------------------------------|
:------------------------------------------------|
:--7-7-9-7-9-7-9--5-7-5-7--12-12-12--10----------|
:--5-5-5-5-5-5-5--3-3-3-3--10-10-10--8------8----|
:----------------------------------------10---10-|

verse
:------------------------------------------------|
:------------------------------------------------|
:------------------------------------------------|
:--7-7-9-7-9-7-9--5-7-5-7--12-12-12--10----------|
:--5-5-5-5-5-5-5--3-3-3-3--10-10-10--8------8----|
:----------------------------------------10---10-|

:-------------------------|
:-------------------------|
:-------------------------|
:-7-9-7-9-7-9-7--10-10-10-|
:-5-5-5-5-5-5-5--8--8--8--|
:-------------------------|

:-------------------------------------|
:-------------------------------------|
:-------------------------------------|
:-7-9-7-9-7-9-7--12-12-12--10--7-10-7-|
:-5-5-5-5-5-5-5--10-10-10--8---5-8--5-|
:-------------------------------------|

:------------------------------------------------------------------------------------|
:------------------------------------------------------------------------------------|
:------------------------------------------------------------------------------------|
:---------------------8------------------------------------------10------------------|
:-8-8-----------------6-8------------------10-10-----------------8--10---------------|
:-6-6-6-6-6-6-6-6-6-6---6-6-6-6-6-6-6-6-6--8--8--8-8-8-8-8-8-8-8----8--8-8-8-8-8-8-8-|

  solo 1
:----------------------------------------------------------------------------------------|
:----------------------------------------------------------------------------------------|
:-17b-17bf-17-14h16p14----14-----------14------------------------------------------------|
:----------------------16-----16-14-16----14----------------14----14-16--16b-16b-16bfp14-|
:--------------------------------------------16-14-16-16-16----16------------------------|
:----------------------------------------------------------------------------------------|

:-------------------------------------------------------------------13-15-15bf-15p13-|
:----------------------------------------------------------14b-14~~------------------|
:---------------------17-----------17-----17-----17----17----------------------------|
:-14-17-14--------16b----16-16-16b----16b----16b----16-------------------------------|
:----------16-14---------------------------------------------------------------------|
:------------------------------------------------------------------------------------|

                                      ---------
:-15p13----------------12-14-12-15bf/-15-15-15-15ah-15b-13h15p13----13-13--13~~-|
:-------14p12-14-14-14-------------------------------------------14-------------|
:-------------------------------------------------------------------------------|
:-------------------------------------------------------------------------------|
:-------------------------------------------------------------------------------|
:-------------------------------------------------------------------------------|

                       ---------------------
:--------------------/-----------------------------|
:-------14----14-16b/-16-16-16-16-16-16-16--14~~~~-|
:-13-15----15--------------------------------------|
:--------------------------------------------------|
:--------------------------------------------------|
:--------------------------------------------------|

  solo 2
:---------------------------------------------------10-8-----------8b~~~-888888------|
:----------------------------------------10b-10b~~~------10-8-7-----------------10p8-|
:-9bf-9bp7---7-9b--9p7---9p7---9p7---9p7------------------------9--------------------|
:----------9-----------9-----9-----9-------------------------------------------------|
:------------------------------------------------------------------------------------|
:------------------------------------------------------------------------------------|

:-888888------8----8---------13~~~-----13-14-15-15bf-13h14p13--------15p13-15p13---------|
:--------10p8---10---10--13b-------/14------------------------14~~~--------------15p13-15|
:----------------------------------------------------------------------------------------|
:----------------------------------------------------------------------------------------|
:----------------------------------------------------------------------------------------|
:----------------------------------------------------------------------------------------|

                                                -----------------------------------------
:-15p13------17-----17-------------------------/----20-------20-------20--------20----20-|
:--------20b----20b----20bfp17----------------/--20-------20-------20--------20----20----|
:------------------------------19-17-19--19bf/---------19-------19--------19-------------|
:----------------------------------------------------------------------------------------|
:----------------------------------------------------------------------------------------|
:----------------------------------------------------------------------------------------|

  ----------------------
:----20----20----20------20bf--20b~~~~-----------------------|
:-20----20----20-----20--------------------------------------|
:------------------------------------------------------------|
:------------------------------------------------------------|
:------------------------------------------------------------|
:------------------------------------------------------------|

                                       x2
:----------------------------------------|
:----------------------------------------|
:----------------------------------------|
:-7/----10-7--5--7/--12-12-12-10--7-10-7-|
:-5/----8--5--3--5/--10-10-10-8---5-8--5-|
:----------------------------------------|

:-------------------------|
:-------------------------|
:-------------------------|
:-7-9-7-9-7-9-7--10-10-10-|
:-5-5-5-5-5-5-5--8--8--8--|
:-------------------------|

:-------------------------------------|
:-------------------------------------|
:-------------------------------------|
:-7-9-7-9-7-9-7--12-12-12--10--7-10-7-|
:-5-5-5-5-5-5-5--10-10-10--8---5-8--5-|
:-------------------------------------|

                     x2
:----------------------|
:----------------------|
:----------------------|
:-12-12-12--10--7-10-7-|
:-10-10-10--8---5-8--5-|
:----------------------|

:------------------------------------------------------------|
:------------------------------------------------------------|
:------------------------------------------------------------|
:-7/---------------------------------------------------------|
:-5/---------------------------------------------------------|
:------------------------------------------------------------|

hillo son mex

23/02/10


red tab


greenleaf


TRANSCRIBED BY RUDY GUZMAN


guzman_84@hotmail.com



e:------|
B:------|
G:-0----|
D:-0----|
A:-0----|
E:------|
                                               
e:--------------------------------------|
B:--------------------------------------|
G:---------------------5h6-5-3--5-5-3-5-|
D:--------------------------------------|
A:-3/5--5-5-5-5-5-5-5-------------------|
E:-1/3--3-3-3-3-3-3-3-------------------|

e:------------------------------------------|
B:------------------------------------------|
G:---------------------5h6-5-3--5-5-3-5-----|
D:--------------------------------------3-5-|
A:-3/5--5-5-5-5-5-5-5-----------------------|
E:-1/3--3-3-3-3-3-3-3-----------------------|

e:--------------------------------------|
B:--------------------------------------|
G:---------------------5h6-5-3--5-5-3-5-|
D:--------------------------------------|
A:-3/5--5-5-5-5-5-5-5-------------------|
E:-1/3--3-3-3-3-3-3-3-------------------|

e:--------------------------------|
B:--------------------------------|
G:--------------------------------|
D:---------------------3--5---5-5-|
A:-3/5--5-5-5-5-5-5-5--1--3---3-3-|
E:-1/3--3-3-3-3-3-3-3-------------|

  verse
e:--------------------------------------|
B:--------------------------------------|
G:---------------------5h6-5-3--5-5-3-5-|
D:--------------------------------------|
A:-3/5--5-5-5-5-5-5-5-------------------|
E:-1/3--3-3-3-3-3-3-3-------------------|

e:------------------------------------------|
B:------------------------------------------|
G:---------------------5h6-5-3--5-5-3-5-----|
D:--------------------------------------3-5-|
A:-3/5--5-5-5-5-5-5-5-----------------------|
E:-1/3--3-3-3-3-3-3-3-----------------------|

e:--------------------------------------|
B:--------------------------------------|
G:---------------------5h6-5-3--5-5-3-5-|
D:--------------------------------------|
A:-3/5--5-5-5-5-5-5-5-------------------|
E:-1/3--3-3-3-3-3-3-3-------------------|

e:--------------------------------|
B:--------------------------------|
G:--------------------------------|
D:---------------------3--5---5-5-|
A:-3/5--5-5-5-5-5-5-5--1--3---3-3-|
E:-1/3--3-3-3-3-3-3-3-------------|

                                                                           x2
e:---------------------------------------------------------------5bf~~--3~~~-|
B:----------------------------------------------------3-------6b-------------|
G:------------------------------------------------3-5---5-3-5----------------|
D:-3--5--5-5-5-5-5-5-5---3--5--5-5-5-5-5-5-5--3h5----------------------------|
A:-1--3--3-3-3-3-3-3-3---1--3--3-3-3-3-3-3-3---------------------------------|
E:---------------------------------------------------------------------------|


e:--------------------------------------|
B:--------------------------------------|
G:---------------------5h6-5-3--5-5-3-5-|
D:--------------------------------------|
A:-3/5--5-5-5-5-5-5-5-------------------|
E:-1/3--3-3-3-3-3-3-3-------------------|

e:------------------------------------------|
B:------------------------------------------|
G:---------------------5h6-5-3--5-5-3-5-----|
D:--------------------------------------3-5-|
A:-3/5--5-5-5-5-5-5-5-----------------------|
E:-1/3--3-3-3-3-3-3-3-----------------------|

e:--------------------------------------|
B:--------------------------------------|
G:---------------------5h6-5-3--5-5-3-5-|
D:--------------------------------------|
A:-3/5--5-5-5-5-5-5-5-------------------|
E:-1/3--3-3-3-3-3-3-3-------------------|

e:--------------------------------|
B:--------------------------------|
G:--------------------------------|
D:---------------------3--5---5-5-|
A:-3/5--5-5-5-5-5-5-5--1--3---3-3-|
E:-1/3--3-3-3-3-3-3-3-------------|




e:--------------------------|
B:--------------------------|
G:--------------------------|
D:---------------------3--5-|
A:-3/5--5-5-5-5-5-5-5--1--3-|
E:-1/3--3-3-3-3-3-3-3-------|

                                                                          
e:---------------------------------------------------------------5bf~~--3~~~-|
B:----------------------------------------------------3-------6b-------------|
G:------------------------------------------------3-5---5-3-5----------------|
D:-3--5--5-5-5-5-5-5-5---3--5--5-5-5-5-5-5-5--3h5----------------------------|
A:-1--3--3-3-3-3-3-3-3---1--3--3-3-3-3-3-3-3---------------------------------|
E:---------------------------------------------------------------------------|

e:---------------------------------------------------------------4b~~~--5bf~~--4~~~\-|
B:----------------------------------------------------3-------6b---------------------|
G:------------------------------------------------3-5---5-3-5------------------------|
D:-3--5--5-5-5-5-5-5-5---3--5--5-5-5-5-5-5-5--3h5------------------------------------|
A:-1--3--3-3-3-3-3-3-3---1--3--3-3-3-3-3-3-3-----------------------------------------|
E:-----------------------------------------------------------------------------------|

             pm.............   . .  ...............   . .
e:--------------------------------------------------------|
B:--------------------------------------------------------|
G:--------------------------------------------------------|
D:--------------------------------------------------------|
A:--------------------------------------------------------|
E:-2h4--4-4--4-4-4-4-4-4-4-4---4-4--4-4-4-4-4-4-4-4---4-4-|

                                  x3
e:----------------------------------|
B:----------------------------------|
G:----------------------------------|
D:------5------------5-5-------5-5--|
A:----------------------------------|
E:-3-3-----3-3-3--3-------3-3-------|


  solo
                         ----
e:----------------------/--------------------------------------------------------------|
B:---------------------/---------------------------------------------------------------|
G:-----------3-5-3-5bf/--5-5p3---3--------------------------3-5-5bfp3------------------|
D:-5p3---3-5-------------------5---5-3-5-5----------3-5~~-5-----------5-3----------3-5-|
A:-----5----------------------------------------3-5--------------------------1-3/5-----|
E:-----------------------------------------3~~-----------------------------3-----------|
-
e:-------------------------------------------------------------------------------------|
B:--------------------------------------------------6-5-4-3-------------------7b-7-6---|
G:---3---5-3-------------------------3---5-3-5b-5-4---------5-4-3--5-4-3h4p3---------7-|
D:-5---5-----5-3------------3-4-5--5---5-----------------------------------------------|
A:------------------1-3-4-5------------------------------------------------------------|
E:----------------3--------------------------------------------------------------------|

e:----------------------------------------------------------------------------------------|
B:----6-------------------7b-7-6----------------------------------------------------------|
G:-5b---5h6p5--3-5-3-------------7-5b--x----5bfp3-----------------3-----------------------|
D:-------------------3-5--------------------------3~~~~~----3-4-5---5-5~~~-5-3------------|
A:--------------------------------------------------------5--------------------5-4-3-1b~~-|
E:----------------------------------------------------------------------------------------|

e:----------------------------------------------------------------------------------|
B:----------------7b-7-6-------6---------------------7b-7-6-------------------------|
G:-----------------------7--5b---5h6p5--3-5-3---------------7-5b--x----5bfp3--------|
D:---------------------------------------------3-5---------------------------3~~~~~-|
A:-------1-3-1-3--------------------------------------------------------------------|
E:-3-1-3----------------------------------------------------------------------------|

e:---------------------------------------------------------------------------------------|
B:---------------------------------------------------------------------------------------|
G:-----------------------5-3-------------------------------------------------------------|
D:---------------3-5-3-5-----5--5p3---3--------3-x-3-3-3--5-5-x-5-5--5p3---3-------------|
A:-----1-3-1-3/5--------------------5---5-4-3--1-x-1-1-1--3-3-x-3-3------5---5-4-3--1b---|
E:-1-3---------------------------------------------------------------------------------3-|

e:----------------------------------------------------------------------|
B:----------------------------------------------------------------------|
G:------------------------------5bp3---3-5-5b-5-3-----------------------|
D:--------3-x-3-3-3--5-5-x-5-5-------5------------5-5--5p3---3-5-3~~----|
A:-1h3p1--1-x-1-1-1--3-3-x-3-3-----------------------------5------------|
E:----------------------------------------------------------------------|

e:--------------------------------------------------------------------------------|
B:--------------------------------------------------------------------------------|
G:-------------------------------------3-3----------------------------------------|
D:-3-x-3-3-3--5-5-x-5-5------------3-5-----5p3---3-5\--3-x-3-3-3--5-5-x-5-5-5-5-5-|
A:-1-x-1-1-1--3-3-x-3-3------1-3/5-------------5-------1-x-1-1-1--3-3-x-3-3-3-3-3-|
E:-----------------------1h3------------------------------------------------------|

e:------------------------------------------------------------|
B:------------------------------------------------------------|
G:------------------------------------------------------------|
D:------------------------------------------------------------|
A:-5-5-5-5-5-5-5--5\------------------------------------------|
E:-3-3-3-3-3-3-3--3\------------------------------------------|

  you gotta turn it off you gotta pay the food...
e:---------------------------------------------------------------5bf~~--3~~~-|
B:----------------------------------------------------3-------6b-------------|
G:------------------------------------------------3-5---5-3-5----------------|
D:-3--5--5-5-5-5-5-5-5---3--5--5-5-5-5-5-5-5--3h5----------------------------|
A:-1--3--3-3-3-3-3-3-3---1--3--3-3-3-3-3-3-3---------------------------------|
E:---------------------------------------------------------------------------|

e:---------------------------------------------------------------4b~~~--5bf~~--4~~~\-|
B:----------------------------------------------------3-------6b---------------------|
G:------------------------------------------------3-5---5-3-5------------------------|
D:-3--5--5-5-5-5-5-5-5---3--5--5-5-5-5-5-5-5--3h5------------------------------------|
A:-1--3--3-3-3-3-3-3-3---1--3--3-3-3-3-3-3-3-----------------------------------------|
E:-----------------------------------------------------------------------------------|

                             x4
e:-----------------------------|
B:-----------------------------|
G:-----------3-3--5-5--3h5p3---|
D:-5-5--3-3------------------5-|
A:-----------------------------|
E:-----------------------------|

e:------------------------------------------------------------|
B:------------------------------------------------------------|
G:------------------------------------------------------------|
D:------------------------------------------------------------|
A:-3--5-------------------------------------------------------|
E:-1--3-------------------------------------------------------|


http://www.myspace.com/greenleafheavyrock   myspace
http://www.riffrock.com/greenleaf/          website

hillo son mex

25/02/10
comments
We did not receive enough feedback on this tab! Please rate:
print report bad tab
1 2 3 4 5
I want to post or [tab]
guest
You may want to rate the tab now too:
select rating
Please do not post tabs as comments. Select "correction" instead!