Oops, an error
Loading. Please wait.

Shimmy Shimmy Quarter Turn Tab

ver2
ver2

Whole song

More versions @911Tabs.com
7,625 views 1 this week
6 commentsread comments
1 2 3 4 5
excellent!
x 13
Autoscroll
+/-
esc
set tempo
stop
Difficulty
novice
WARNING: You are trying to view
                                    content from Ultimate-Guitar.com
                                    in an unauthorized application,
                                    which is prohibited.

                                    Please use an official Ultimate
                                    Guitar Tabs application for iPhone,
                                    iPad or Android to access legitimate
                                    chords, guitar, bass, and drum tabs
                                    from Ultimate-Guitar.com database.

                                    Type "ultimate guitar tabs" in Apple
                                    App Store's or Android Market's
                                    search to find the application.
Hellogoodbye - Shimmy Shimmy Quarter Turn

this is a great song... and it's fun to play. everything is in order,
so just follow the tab all the way through. standard tuning.

 Key:

 x - left hand mute
 . - palm mute
 / - slide up 
 \ - slide down
 h - hammer on
 p - pull off
 b - bend note
 ~ - let it ring
(5)- ghost note 


---------------------------------------------------------------------------------
Intro

   1 + 2 + 3 + 4 +   1 + 2 + 3 + 4 +   1 + 2 + 3 + 4 +   1 + 2 + 3 + 4 +
E|-----------------|-----------------|-----------------|-----------------|
B|-----------------|-----------------|-----------------|-----------------|
G|-----------------|-----------6-6---|-----------------|-----------------|
D|-----------2-2---|-----------6-6---|-----------6-6---|---------7---7---|
A|-----------2-2---|-----------4-4---|-----------6-6---|---------7---7---|
E|-----------0-0---|-----------------|-----------4-4---|---------5---5---|


   1 + 2 + 3 + 4 +   1 + 2 + 3 + 4 +   1 + 2 + 3 + 4 +   1 + 2 + 3 + 4 +
E|-----------------|-----------------|-----------------|-----------------|
B|-----------------|-----------------|-----------------|-----------------|
G|-----------------|-----------6-6---|-----------------|-----------------|
D|-----------2-2---|-----------6-6---|-----------6-6---|---------7---7---|
A|-----------2-2---|-----------4-4---|-----------6-6---|---------7---7---|
E|-----------0-0---|-----------------|-----------4-4---|---------5---5---|


Verse

   1 + 2 + 3 + 4 +   1 + 2 + 3 + 4 +   1 + 2 + 3 + 4 +   1 + 2 + 3 + 4 +
E|-----------------|-----------------|-----------------|-----------------|
B|-----------------|-----------------|-----------------|-----------------|
G|-----------------|-6-6-6-6-6-x-x-x-|-----------------|-----------------|
D|-2-2-2-2-2-2-2-2-|-6-6-6-6-6-x-x-x-|-6-6-6-6-6-6-6-6-|-----------------|
A|-2-2-2-2-2-2-2-2-|-4-4-4-4-4-x-x-x-|-6-6-6-6-6-6-6-6-|-----------------|
E|-0-0-0-0-0-0-0-0-|-----------------|-4-4-4-4-4-4-4-4-|-4-5-4-5-4-\-0---|
       . . . .           . .               . . . . 


   1 + 2 + 3 + 4 +   1 + 2 + 3 + 4 +   1 + 2 + 3 + 4 +   1 + 2 + 3 + 4 +
E|-----------------|-----------------|-----------------|-----------------|
B|-----------------|-----------------|-----------------|-----------------|
G|-----------------|-6-6-6-6-6-x-x-x-|-----------------|-----------------|
D|-2-2-2-2-2-2-2-2-|-6-6-6-6-6-x-x-x-|-6-6-6-6-6-6-6-6-|-----------------|
A|-2-2-2-2-2-2-2-2-|-4-4-4-4-4-x-x-x-|-6-6-6-6-6-6-6-6-|-----------------|
E|-0-0-0-0-0-0-0-0-|-----------------|-4-4-4-4-4-4-4-4-|-4-5-4-5-4-\-0---|
       . . . .           . .               . . . . 


Verse (Cont.)

   1 + 2 + 3 + 4 +   1 + 2 + 3 + 4 +   1 + 2 + 3 + 4 +   1 + 2 + 3 + 4 +
E|-----------------|-----------------|-----------------|-----------------|
B|----R------------|----R------------|----R------------|----R------------|
G|------E----------|------E----------|------E----------|------E----------|
D|--------S--------|--------S--------|--------S--------|--------S--------|
A|----------T------|----------T------|----------T------|----------T------|
E|-----------------|-----------------|-----------------|-----------------|


   1 + 2 + 3 + 4 +   1 + 2 + 3 + 4 +   1 + 2 + 3 + 4 +   1 + 2 + 3 + 4 +
E|-----------------|-----------------|-----------------|-----------------|
B|----R------------|----R------------|-----------------|-----------------|
G|------E----------|------E----------|-----------------|-----------------|
D|--------S--------|--------S--------|-----------------|-----x---x---x---|
A|----------T------|----------T------|-----------------|-----x---x---x---|
E|-----------------|-----------------|---------------4-|-5---x---x---x---|


Verse (Cont.)

   1 + 2 + 3 + 4 +   1 + 2 + 3 + 4 +   1 + 2 + 3 + 4 +   1 + 2 + 3 + 4 +
E|-----------------|-----------------|-----------------|-----------------|
B|-----------------|-----------------|-----------------|-----------------|
G|-----------------|-6-6-6-6-6-x-x-x-|-----------------|-----------------|
D|-2-2-2-2-2-2-2-2-|-6-6-6-6-6-x-x-x-|-6-6-6-6-6-6-6-6-|-----------------|
A|-2-2-2-2-2-2-2-2-|-4-4-4-4-4-x-x-x-|-6-6-6-6-6-6-6-6-|-----------------|
E|-0-0-0-0-0-0-0-0-|-----------------|-4-4-4-4-4-4-4-4-|-4-5-4-5-4-\-0---|
       . . . .           . .               . . . . 


   1 + 2 + 3 + 4 +   1 + 2 + 3 + 4 +   1 + 2 + 3 + 4 +   1 + 2 + 3 + 4 +
E|-----------------|-----------------|-----------------|-----------------|
B|-----------------|-----------------|-----------------|-----------------|
G|-----------------|-6-6-6-6-6-x-x-x-|-----------------|-----------------|
D|-2-2-2-2-2-2-2-2-|-6-6-6-6-6-x-x-x-|-6-6-6-6-6-6-6-6-|-----------------|
A|-2-2-2-2-2-2-2-2-|-4-4-4-4-4-x-x-x-|-6-6-6-6-6-6-6-6-|-----------------|
E|-0-0-0-0-0-0-0-0-|-----------------|-4-4-4-4-4-4-4-4-|-4-5-4-5-4-\-0---|
       . . . .           . .               . . . . 


Verse (Cont.)

   1 + 2 + 3 + 4 +   1 + 2 + 3 + 4 +   1 + 2 + 3 + 4 +   1 + 2 + 3 + 4 +
E|-----------------|-----------------|-----------------|-----------------|
B|----R------------|----R------------|----R------------|-----------------|
G|------E----------|------E----------|------E----------|-----------------|
D|--------S--------|--------S--------|--------S--------|-----------------|
A|----------T------|----------T------|----------T------|---------------2/|
E|-----------------|-----------------|-----------------|-----------------|


   1 + 2 + 3 + 4 +   1 + 2 + 3 + 4 +   1 + 2 + 3 + 4 +   1 + 2 + 3 + 4 +
E|-----------------|-----------------|-----------------|-----------------|
B|-----------------|-----------------|-----------------|-----------------|
G|-----------------|-----------------|-----------------|-----------------|
D|-----------------|-----------------|-----------------|-----------------|
A|-7--(7)-(7)-(7)--|-7--(7)-(7)-(7)--|-7--(7)--7---7---|-7---7b--7b--7\--|
E|-----------------|-----------------|-----------------|-----------------|


Pre-Chorus

   1 + 2 + 3 + 4 +   1 + 2 + 3 + 4 +   1 + 2 + 3 + 4 +   1 + 2 + 3 + 4 +
E|-----------------|-----------------|-----------------|-----------------|
B|-----------------|-----------------|-----------------|-----------------|
G|-6-6-6-4---------|-----------------|-6-6-6-4---------|-----------------|
D|-6-6-6-4-2-2-2-2-|-4-4-4-6-7-7-x---|-6-6-6-4-2-2-2-2-|-4-4-4-6-7-7-x---|
A|-4-4-4-2-2-2-2-2-|-4-4-4-6-7-7-x---|-4-4-4-2-2-2-2-2-|-4-4-4-6-7-7-x---|
E|---------0-0-0-0-|-2-2-2-4-5-5-x---|---------0-0-0-0-|-2-2-2-4-5-5-x---|


   1 + 2 + 3 + 4 +   1 + 2 + 3 + 4 +   1 + 2 + 3 + 4 +   1 + 2 + 3 + 4 +
E|-----------------|-----------------|-----------------|-----------------|
B|-----------------|-----------------|-----------------|-----------------|
G|-6-6-6-4---------|-----------------|-6-6-6-4---------|-----------------|
D|-6-6-6-4-2-2-2-2-|-4-4-4-6-7---7---|-6-6-6-4-2-2-2-2-|-----------------|
A|-4-4-4-2-2-2-2-2-|-4-4-4-6-7---7---|-4-4-4-2-2-2-2-2-|-----------------|
E|---------0-0-0-0-|-2-2-2-4-5---5---|---------0-0-0-0-|-2-5-5-5-5-5b5b5b|


   1 + 2 + 3 + 4 +   1 + 2 + 3 + 4 + 
E|-----------------|-----------------|
B|-----------------|-----------------|
G|-----------------|-----------------|
D|-2---x-x---------|---x---x---x-x-x-|
A|-2---x-x---------|---x---x---x-x-x-|
E|-0---x-x---------|---x---x---x-x-x-|


Chorus

   1 + 2 + 3 + 4 +   1 + 2 + 3 + 4 +   1 + 2 + 3 + 4 +   1 + 2 + 3 + 4 +
E|-----------------|-----------------|-----------------|-----------------|
B|-----------------|-----------------|-----------------|-----------------|
G|-----------------|-2-2-2-2-2-2-2-2-|-6-6-6-6-6-6-6-6-|-4---4-----------|
D|-2-2-2-2-2-2-2-2-|-2-2-2-2-2-2-2-2-|-6-6-6-6-6-6-6-6-|-4---4-----------|
A|-2-2-2-2-2-2-2-2-|-0-0-0-0-0-0-0-0-|-4-4-4-4-4-4-4-4-|-2---2---2/4~----|
E|-0-0-0-0-0-0-0-0-|-----------------|-----------------|-----------------|


   1 + 2 + 3 + 4 +   1 + 2 + 3 + 4 +   1 + 2 + 3 + 4 +   1 + 2 + 3 + 4 +
E|-----------------|-----------------|-----------------|-----------------|
B|-----------------|-----------------|-----------------|-----------------|
G|-----------------|-2-2-2-2-2-2-2-2-|-6-6-6-6-6-6-6-6-|-4---4-----------|
D|-2-2-2-2-2-2-2-2-|-2-2-2-2-2-2-2-2-|-6-6-6-6-6-6-6-6-|-4---4-----------|
A|-2-2-2-2-2-2-2-2-|-0-0-0-0-0-0-0-0-|-4-4-4-4-4-4-4-4-|-2---2---2/4~----|
E|-0-0-0-0-0-0-0-0-|-----------------|-----------------|-----------------|


Bridge

   1 + 2 + 3 + 4 +   1 + 2 + 3 + 4 +   1 + 2 + 3 + 4 +   1 + 2 + 3 + 4 +
E|-----------------|-----------------|-----------------|-----------------|
B|-----------------|----R------------|----R------------|-----------------|
G|-----------------|------E----------|------E----------|-----------------|
D|-2---------------|--------S--------|--------S--------|-------------x---|
A|-2---------------|----------T------|----------T------|-------------x---|
E|-0---------------|-----------------|-----------------|-------------x---|


   1 + 2 + 3 + 4 +   1 + 2 + 3 + 4 +   1 + 2 + 3 + 4 +   1 + 2 + 3 + 4 +
E|-----------------|-----------------|-----------------|-----------------|
B|----R------------|----R------------|----R------------|----R------------|
G|------E----------|------E----------|------E----------|------E----------|
D|--------S--------|--------S--------|--------S--------|--------S--------|
A|----------T------|----------T------|----------T------|----------T------|
E|-----------------|-----------------|-----------------|-----------------|


Bridge (Cont.)

   1 + 2 + 3 + 4 +   1 + 2 + 3 + 4 +   1 + 2 + 3 + 4 +   1 + 2 + 3 + 4 +
E|-----------------|-----------------|-----------------|-----------------|
B|-----------------|-----------------|-----------------|-----------------|
G|-----------------|-----------------|-----------------|-----------------|
D|-2-2-2-2-2-2-2-2-|-4-4-4-4-4-4-4-4-|-6-6-6-6-6-6-6-6-|-7-7-7-7-7-7-7-7-|
A|-2-2-2-2-2-2-2-2-|-4-4-4-4-4-4-4-4-|-6-6-6-6-6-6-6-6-|-7-7-7-7-7-7-7-7-|
E|-0-0-0-0-0-0-0-0-|-2-2-2-2-2-2-2-2-|-4-4-4-4-4-4-4-4-|-5-5-5-5-5-5-5-5-|


   1 + 2 + 3 + 4 +   1 + 2 + 3 + 4 +   1 + 2 + 3 + 4 +   1 + 2 + 3 + 4 +
E|-----------------|-----------------|-----------------|-----------------|
B|-----------------|-----------------|-----------------|-----------------|
G|-----------------|-----------------|-----------------|-----------------|
D|-2-2-2-2-2-2-2-2-|-4-4-4-4-4-4-4-4-|-6-6-6-6-6-6-6-6-|-7-7-7-7-7-7-7-7-|
A|-2-2-2-2-2-2-2-2-|-4-4-4-4-4-4-4-4-|-6-6-6-6-6-6-6-6-|-7-7-7-7-7-7-7-7-|
E|-0-0-0-0-0-0-0-0-|-2-2-2-2-2-2-2-2-|-4-4-4-4-4-4-4-4-|-5-5-5-5-5-5-5-5-|
   . . . . . . . .   . . . . . . . .   . . . . . . . .   . . . . . . . . 


   1 + 2 + 3 + 4 +   1 + 2 + 3 + 4 +  
E|-----------------|-----------------|
B|----R------------|----R------------|
G|------E----------|------E----------|
D|--------S--------|--------S--------|
A|----------T------|----------T------|
E|-----------------|-----------------|


Pre-Chorus

   1 + 2 + 3 + 4 +   1 + 2 + 3 + 4 +   1 + 2 + 3 + 4 +   1 + 2 + 3 + 4 +
E|-----------------|-----------------|-----------------|-----------------|
B|-----------------|-----------------|-----------------|-----------------|
G|-6-6-6-4---------|-----------------|-6-6-6-4---------|-----------------|
D|-6-6-6-4-2-2-2-2-|-4-4-4-6-7-7-x---|-6-6-6-4-2-2-2-2-|-4-4-4-6-7---7---|
A|-4-4-4-2-2-2-2-2-|-4-4-4-6-7-7-x---|-4-4-4-2-2-2-2-2-|-4-4-4-6-7---7---|
E|---------0-0-0-0-|-2-2-2-4-5-5-x---|---------0-0-0-0-|-2-2-2-4-5---5---|


   1 + 2 + 3 + 4 +   1 + 2 + 3 + 4 +  
E|-----------------|-----------------|
B|-----------------|-----------------|
G|-6-6-6-4---------|-----------------|
D|-6-6-6-4-2-2-2-2-|-----------------|
A|-4-4-4-2-2-2-2-2-|-----------------|
E|---------0-0-0-0-|-2-5-5-5-5-5b5b5b|

Chorus

   1 + 2 + 3 + 4 +   1 + 2 + 3 + 4 +   1 + 2 + 3 + 4 +   1 + 2 + 3 + 4 +
E|-----------------|-----------------|-----------------|-----------------|
B|-----------------|-----------------|-----------------|-----------------|
G|-----------------|-2---------x-x-x-|-6-6-6-6-6-6-6-6-|-4---4-----------|
D|-2---------------|-2---------x-x-x-|-6-6-6-6-6-6-6-6-|-4---4-----------|
A|-2---------------|-0---------x-x-x-|-4-4-4-4-4-4-4-4-|-2---2---2/4~----|
E|-0---------------|-----------------|-----------------|-----------------|


   1 + 2 + 3 + 4 +   1 + 2 + 3 + 4 +   1 + 2 + 3 + 4 +   1 + 2 + 3 + 4 +
E|-----------------|-----------------|-----------------|-----------------|
B|-----------------|-----------------|-----------------|-----------------|
G|-----------------|-2-2-2-2-2-2-2-2-|-6-6-6-6-6-6-6-6-|-4---4-----------|
D|-2-2-2-2-2-2-2-2-|-2-2-2-2-2-2-2-2-|-6-6-6-6-6-6-6-6-|-4---4-----------|
A|-2-2-2-2-2-2-2-2-|-0-0-0-0-0-0-0-0-|-4-4-4-4-4-4-4-4-|-2---2---2/4~----|
E|-0-0-0-0-0-0-0-0-|-----------------|-----------------|-----------------|


   1 + 2 + 3 + 4 +   1 + 2 + 3 + 4 +   1 + 2 + 3 + 4 +   1 + 2 + 3 + 4 +
E|-----------------|-----------------|-----------------|-----------------|
B|-----------------|-----------------|-----------------|-----------------|
G|-----------------|-2-2-2-2-2-2-2-2-|-6-6-6-6-6-6-6-6-|-4---4-----------|
D|-2-2-2-2-2-2-2-2-|-2-2-2-2-2-2-2-2-|-6-6-6-6-6-6-6-6-|-4---4-----------|
A|-2-2-2-2-2-2-2-2-|-0-0-0-0-0-0-0-0-|-4-4-4-4-4-4-4-4-|-2---2---2/4~----|
E|-0-0-0-0-0-0-0-0-|-----------------|-----------------|-----------------|


   1 + 2 + 3 + 4 +   1 + 2 + 3 + 4 +   1 + 2 + 3 + 4 +   1 + 2 + 3 + 4 +
E|-----------------|-----------------|-----------------|-----------------|
B|-----------------|-----------------|-----------------|-----------------|
G|-----------------|-2-2-2-2-2-2-2-2-|-6-6-6-6-6-6-6-6-|-4---4-----------|
D|-2-2-2-2-2-2-2-2-|-2-2-2-2-2-2-2-2-|-6-6-6-6-6-6-6-6-|-4---4-------x\x-|
A|-2-2-2-2-2-2-2-2-|-0-0-0-0-0-0-0-0-|-4-4-4-4-4-4-4-4-|-2---2---2/4-x\x-|
E|-0-0-0-0-0-0-0-0-|-----------------|-----------------|-------------x\x-|


and there you go... if you have any comments or questions you can e-mail
me at killinginthename247@yahoo.com. enjoy!

6 comments total. Showing first comments.
+2 reply
Julian K wrote on February 26 2006, 09:01 pm

sounds good to me and im playin it on an acoustic

+2 reply
jamjar wrote on July 27 2006, 04:14 pm

good tab i wasnt so sure about the chorus but i play it how it is and its fine

+2 reply
PhantomWuss95 wrote on December 30 2006, 12:53 pm

its great

I want to post or [tab]
guest
You may want to rate the tab now too:
select rating
Please do not post tabs as comments. Select "correction" instead!