Oops, an error
Loading. Please wait.

Mr Torture Tab

ver1
ver1

Whole song

Interactive

More versions @911Tabs.com
5,334 views 6 this week
no commentswrite comment
1 2 3 4 5
excellent!
x 1
Autoscroll
+/-
esc
set tempo
stop
Contributor
WARNING: You are trying to view
                                    content from Ultimate-Guitar.com
                                    in an unauthorized application,
                                    which is prohibited.

                                    Please use an official Ultimate
                                    Guitar Tabs application for iPhone,
                                    iPad or Android to access legitimate
                                    chords, guitar, bass, and drum tabs
                                    from Ultimate-Guitar.com database.

                                    Type "ultimate guitar tabs" in Apple
                                    App Store's or Android Market's
                                    search to find the application.
                    
                            MR. TORTURE 
                            
                            --recorded by Helloween 
                            (From the 2000 Album THE DARK RIDE) 
 
 
 
 
                            Words and Music by Uli Kusch 
                            tabbed by Crom -- 
 
  
 
 
 Intro 
  Q=190 
  N.C. 
 2/4           4/4 
  Gtr I 
|----17----17-|----17-15-17-17----17----|-17-17-17----17-17-------| 
|-15----17----|-18-------------18----17-|----------18-------17-15-| 
|-------------|-------------------------|-------------------------| 
|-------------|-------------------------|-------------------------| 
|-------------|-------------------------|-------------------------| 
|-------------|-------------------------|-------------------------| 
| 
| Gtr II 
|-------------|-------------------------|-------------------------| 
|-------------|-------------------------|-------------------------| 
|-------------|-------------------------|-------------------------| 
|-------------|-------------------------|-------------------------| 
|-------------|-------------------------|-------------------------| 
|-------------|-------------------------|-------------------------| 
 
 
|----------17-17----17----|-17-17-17----17-17----17--| 
|-13-15-15-------13----13-|----------15-------17-----| 
|-------------------------|--------------------------| 
|-------------------------|--------------------------| 
|-------------------------|--------------------------| 
|-------------------------|--------------------------| 
| 
|                                     PM    PM    PM 
|-------------------------|--------------------------| 
|-------------------------|--------------------------| 
|-------------------------|--------------7-----9-----| 
|-------------------------|-----------7-----7-----7--| 
|-------------------------|--------------------------| 
|-------------------------|--------------------------| 
 
 
  D5 
|----17-15-17-17----17----|-17-17-17----17-17-------| 
|-18-------------18----17-|----------18-------17-15-| 
|-------------------------|-------------------------| 
|-------------------------|-------------------------| 
|-------------------------|-------------------------| 
|-------------------------|-------------------------| 
| 
|     PM    PM|      PM      PM---|      PM| 
|-------------------------|-------------------------| 
|--------8----------------|-------------------------| 
|-10-------------10-----9-|----------10--------9--7-| 
|-----7-----7--7-----7----|--7--7--7-----7--7-------| 
|-------------------------|-------------------------| 
|-------------------------|-------------------------| 
| 
| Gtr IV 
|-------------------------|-------------------------| 
|-------------------------|-------------------------| 
|-------------------------|-------------------------| 
|-------------------------|-------------------------| 
|--0-----0--------0-----0-|-----------0-------------| 
|--0-----0--------0-----0-|-----------0-------------| 
 
 
|----------17-17----17----|-17-17-17----17-17----17-| 
|-13-15-15-------13----13-|----------15-------17----| 
|-------------------------|-------------------------| 
|-------------------------|-------------------------| 
|-------------------------|-------------------------| 
|-------------------------|-------------------------| 
| 
|           PM|      PM      PM---|      PM|      PM 
|-------------------------|-------------------------| 
|-------------------------|-------------------------| 
|-----7--7--------------7-|-----------7--------9----| 
|-10--------7--7-10--7----|--7--7--7-----7--7-----7-| 
|-------------------------|-------------------------| 
|-------------------------|-------------------------| 
| 
|-------------------------|-------------------------| 
|-------------------------|-------------------------| 
|-------------------------|-------------------------| 
|-------------------------|-------------------------| 
|--0-----0--------0-----0-|-----------0-------------| 
|--0-----0--------0-----0-|-----------0-------------| 
 
 
  D5                   E5 
  Gtr II 
     PM   PM|    PM    PM--|    PM| 
|--------------------|-------------------| 
|-------8------------|-------------------| 
|-10----------10---9-|-------10-----9--7-| 
|----7----7-7----7---|-7-7-7----7-7------| 
|--------------------|-------------------| 
|--------------------|-------------------| 
| 
| Gtr IV 
|  PM------------------------------------- 
|--------------------|-------------------| 
|--------------------|-------------------| 
|--------------------|-------------------| 
|--------------------|-------------------| 
|--0-0--0-0-0--0-0-0-|-2-2-2--2-2-2-2--2-| 
|--0-0--0-0-0--0-0-0-|-2-2-2--2-2-2-2--2-| 
| 
| Gtr III 
|    PM   PM|    PM    PM--|    PM| 
|--------------------|-------------------| 
|-10---11-----10---8-|-------10-----8----| 
|--------------------|----------------10-| 
|----7----7-7----7---|-7-7-7----7-7------| 
|--------------------|-------------------| 
|--------------------|-------------------| 
 
 
  F5                     G5 
           PM|    PM     PM--|    PM|   PM 
|----------------------|------------------| 
|----------------------|------------------| 
|-----7--7-----------7-|--------7-----9---| 
|-10-------7-7-10-7----|-7-7-7----7-7---7-| 
|----------------------|------------------| 
|----------------------|------------------| 
| 
|---------------------------------------| 
|----------------------|------------------| 
|----------------------|------------------| 
|----------------------|------------------| 
|----------------------|------------------| 
|--3--3--3-3-3--3-3--3-|-5-5-5--5-5-5-5-5-| 
|--3--3--3-3-3--3-3--3-|-5-5-5--5-5-5-5-5-| 
| 
|          PM|    PM     PM--|    PM|   PM 
|----------------------|------------------| 
|----------------------|--------------8---| 
|--9-10-10------9---10-|-------10---------| 
|----------7-7----7----|-7-7-7----7-7---7-| 
|----------------------|------------------| 
|----------------------|------------------| 
 
 
  D5                   E5 
     PM   PM|    PM    PM--|    PM| 
|--------------------|-------------------| 
|-------8------------|-------------------| 
|-10----------10---9-|-------10-----9--7-| 
|----7----7-7----7---|-7-7-7----7-7------| 
|--------------------|-------------------| 
|--------------------|-------------------| 
| 
|  PM------------------------------------- 
|--------------------|-------------------| 
|--------------------|-------------------| 
|--------------------|-------------------| 
|--------------------|-------------------| 
|--0-0--0-0-0--0-0-0-|-2-2-2--2-2-2-2--2-| 
|--0-0--0-0-0--0-0-0-|-2-2-2--2-2-2-2--2-| 
| 
|    PM   PM|    PM    PM--|    PM| 
|--------------------|-------------------| 
|-10---11-----10---8-|-------10-----8----| 
|--------------------|----------------10-| 
|----7----7-7----7---|-7-7-7----7-7------| 
|--------------------|-------------------| 
|--------------------|-------------------| 
 
 
  F5                     G5             D 
           PM|    PM     PM--|    PM|   PM 
|----------------------|------------------| 
|----------------------|------------------| 
|-----7--7-----------7-|--------7-----9---| 
|-10-------7-7-10-7----|-7-7-7----7-7---7-| 
|----------------------|------------------| 
|----------------------|------------------| 
| 
|---------------------------------------| 
|----------------------|------------------| 
|----------------------|------------------| 
|----------------------|------------------| 
|----------------------|------------------| 
|--3--3--3-3-3--3-3--3-|-5-5-5--5-5-5-5---| 
|--3--3--3-3-3--3-3--3-|-5-5-5--5-5-5-5-0-| 
| 
|          PM|    PM     PM--|    PM|   PM 
|----------------------|------------------| 
|----------------------|--------------8---| 
|--9-10-10------9---10-|-------10---------| 
|----------7-7----7----|-7-7-7----7-7---7-| 
|----------------------|------------------| 
|----------------------|------------------| 
 
 
  Bb5                          C5          C5 
|-----------|----------------|-----------|-----------|| 
|-10--------|-(10)-----------|-11--------|-----------|| 
|-----------|----------------|-----------|-----------|| 
|-----------|----------------|-----------|-10--------|| 
|-----------|----------------|-----------|-10--------|| 
|-----------|----------------|-----------|-10--------|| 
| 
|-----------|----------------|-----------|-----------|| 
|-----------|----------------|-----------|-----------|| 
|--3--------|--(3)-----------|--5--------|--3--------|| 
|--3--------|--(3)-------x-x-|--5--------|--3--------|| 
|--1--------|--(1)-------x-x-|--3--------|--5--------|| 
|-----------|----------------|-----------|-----------|| 
| 
|-----------|----------------|-----------|-----------|| 
|-----------|----------------|--8--------|-----------|| 
|-10--------|-(10)-----------|-----------|--5--------|| 
|-----------|----------------|-----------|--5--------|| 
|-----------|----------------|-----------|--3--------|| 
|-----------|----------------|-----------|-----------|| 
 
 
   Verse 
    D5 
    Gtrs II, III 
    PM-------------------------------------------- 
||--------------------------|--------------------| 
||o-------------------------|--------------------| 
||--------------------------|--------------------| 
||--------------------------|--------------------| 
||o-0-0-0-0-0-0-0-0-0-0-0-0-|--0--0-0-0-0-0-0-0--| 
||--0-0-0-0-0-0-0-0-0-0-0-0-|--0--0-0-0-0-0-0-0--| 
 
 
 -------------------------------------------| 
                                                3x 
|-------------------------|---------------------|| 
|-------------------------|--------------------o|| 
|-------------------------|---------------------|| 
|-------------------------|---------------------|| 
|-0-0-0-0-0-0-0-0-0-0-0-0-|--0--0-0-0-0-0-0-0--o|| 
|-0-0-0-0-0-0-0-0-0-0-0-0-|--0--0-0-0-0-0-0-0---|| 
 
 
  D5 
  PM-------------------------------------------- 
|-------------------------|--------------------| 
|-------------------------|--------------------| 
|-------------------------|--------------------| 
|-------------------------|--------------------| 
|-0-0-0-0-0-0-0-0-0-0-0-0-|--0--0-0-0-0-0-0-0--| 
|-0-0-0-0-0-0-0-0-0-0-0-0-|--0--0-0-0-0-0-0-0--| 
| 
| Gtr II 
|-------------------------|--------------------| 
|-------------------------|--------------------| 
|-------------------------|--------------------| 
|-------------------------|--------------------| 
|-------------------------|--------------------| 
|-------------------------|--------------------| 
| 
| Gtr III 
|-------------------------|--------------------| 
|-------------------------|--------------------| 
|-------------------------|--------------------| 
|-------------------------|--------------------| 
|-------------------------|--------------------| 
|-------------------------|--------------------| 
 
 
                                         E5 
 ---------------------------------| 
|-------------------------|------------------|| 
|-------------------------|------------------|| 
|-------------------------|------------------|| 
|-------------------------|------------------|| 
|-0-0-0-0-0-0-0-0-0-0-0-0-|--0--0-0--0---2---|| 
|-0-0-0-0-0-0-0-0-0-0-0-0-|--0--0-0--0---2---|| 
| 
|                               PM     PM  PM 
|-------------------------|------------------|| 
|-------------------------|------------------|| 
|-------------------------|----------7---9---|| 
|-------------------------|-----7------7---7-|| 
|-------------------------|------------------|| 
|-------------------------|------------------|| 
| 
|                               PM     PM  PM 
|-------------------------|------------------|| 
|-------------------------|--------------8---|| 
|-------------------------|---------10-------|| 
|-------------------------|-----7------7---7-|| 
|-------------------------|------------------|| 
|-------------------------|------------------|| 
 
 
 Chorus 
  F5                  Bb5                 D5                         E5 
  Gtr IV 
|-------------------|-------------------|-------------|------------------| 
|-------------------|-------------------|-------------|------------------| 
|-------------------|-------------------|-------------|------------------| 
|-------------------|--3----------------|-------------|------------------| 
|--3----------------|--1----------------|--0----------|-(0)------0---2---| 
|--3----------------|-------------------|--0----------|-(0)------0---2---| 
| 
|    PM|   PM|           PM|    PM|   PM   ~~~~~~~  PM   ~~~  PM   PM  PM 
|-------------------|-------------------|-------------|------------------| 
|-------------------|--8----------------|-------------|------------------| 
|-10-----9-----10---|--------10-----9---|-10----9-----|--7-------7---9---| 
|----7-7---7-7----7-|----7-7----7-7---7-|-----------7-|-------7----7---7-| 
|-------------------|-------------------|-------------|------------------| 
|-------------------|-------------------|-------------|------------------| 
| 
|    PM|   PM|           PM|    PM|   PM   ~~~~~~~  PM   ~~~       PM  PM 
|-------------------|-------------------|-------------|------------------| 
|-10-----8-----10---|-11-----10-----8---|-10----8-----|--------------8---| 
|-------------------|-------------------|-------------|-10------10-------| 
|----7-7---7-7----7-|----7-7----7-7---7-|-----------7-|-------7----7---7-| 
|-------------------|-------------------|-------------|------------------| 
|-------------------|-------------------|-------------|------------------| 
 
 
  F5                  Bb5 
|-------------------|---------------------| 
|-------------------|---------------------| 
|-------------------|---------------------| 
|-------------------|-3-------------------| 
|--3----------------|-1-------------------| 
|--3----------------|---------------------| 
| 
|    PM|    PM|   PM                PM  PM 
|-------------------|---------------------| 
|-------------------|---------------------| 
|-10------------9---|-9h10-10--7--7---9---| 
|----7-7-10-7-7---7-|---------------7---7-| 
|-------------------|---------------------| 
|-------------------|---------------------| 
| 
|    PM|    PM|   PM                PM  PM 
|-------------------|---------------------| 
|-10------------8---|-8h10-10---------8---| 
|--------10---------|---------10-10-------| 
|----7-7----7-7---7-|---------------7---7-| 
|-------------------|---------------------| 
|-------------------|---------------------| 
 
 
  C5                                 E5 
|-------------------|--------------------| 
|-------------------|--------------------| 
|-------------------|--------------------| 
|--5----------------|-(5)----------------| 
|--3----------------|-(3)-----0------2---| 
|-------------------|------------5p0-2---| 
| 
|    PM   PM  PM  PM      PM  PM   PM  PM 
|-------------------|--------------------| 
|-------------------|--------------------| 
|-10---10---9---9---|--9----9----7---9---| 
|----7----7---7---7-|-----7---7----7---7-| 
|-------------------|--------------------| 
|-------------------|--------------------| 
| 
|    PM   PM  PM  PM      PM  PM   PM  PM 
|-------------------|--------------------| 
|-10---10---8---8---|--8----8--------8---| 
|-------------------|-----------10-------| 
|----7----7---7---7-|-----7---7----7---7-| 
|-------------------|--------------------| 
|-------------------|--------------------| 
 
 
  F5                  Bb5                 D5                         E5 
|-------------------|-------------------|-------------|------------------| 
|-------------------|-------------------|-------------|------------------| 
|-------------------|-------------------|-------------|------------------| 
|-------------------|--3----------------|-------------|------------------| 
|--3--------------0-|--1----------------|--0----------|--0-----(0)---2---| 
|--3------------3---|-------------------|--0----------|--0-----(0)---2---| 
| 
|    PM|   PM|    PM     PM|    PM|   PM   ~~~~~~~  PM   ~~  PM    PM  PM 
|-------------------|-------------------|-------------|------------------| 
|-------------------|-------------------|-------------|------------------| 
|-10-----9-----10---|--7-----10-----9---|-10----9-----|--7------7----9---| 
|----7-7---7-7----7-|----7-7----7-7---7-|-----------7-|------7-----7---7-| 
|-------------------|-------------------|-------------|------------------| 
|-------------------|-------------------|-------------|------------------| 
| 
|    PM|   PM|    PM     PM|    PM|   PM   ~~~~~~~  PM   ~~  PM    PM  PM 
|-------------------|-------------------|-------------|------------------| 
|-10-----8-----10---|-11-----10-----8---|-10----8-----|--------------8---| 
|-------------------|-------------------|-------------|-10-----10--------| 
|----7-7---7-7----7-|----7-7----7-7---7-|-----------7-|------7-----7---7-| 
|-------------------|-------------------|-------------|------------------| 
|-------------------|-------------------|-------------|------------------| 
 
 
  F5                  Bb5 
|-------------------|------------------------| 
|-------------------|------------------------| 
|-------------------|------------------------| 
|-------------------|-3--------3-(3)---3-x-x-| 
|--3----------------|-1--------1-(1)---1-x-x-| 
|--3----------------|------------------------| 
| 
|    PM|    PM|   PM                 PM  PM 
|-------------------|------------------------| 
|-------------------|------------------------| 
|-10------------9---|-9h10-10--7--7----9-----| 
|----7-7-10-7-7---7-|----------------7---7---| 
|-------------------|------------------------| 
|-------------------|------------------------| 
| 
|    PM|    PM|   PM                 PM  PM 
|-------------------|------------------------| 
|-10------------8---|-8h10-10----------8-----| 
|--------10---------|---------10-10----------| 
|----7-7----7-7---7-|----------------7---7---| 
|-------------------|------------------------| 
|-------------------|------------------------| 
 
 
  Eb5F5   Eb5 
|-----------------------|----------------------| 
|-----------------------|----------------------| 
|-----------------------|----------------------| 
|-----------------------|----------------------| 
|--1h=3----1-(1)---1----|-(1)---------------1--| 
|--1h=3----1-(1)---1----|-(1)---------------1--| 
| 
|-----------------------|----------------------| 
|-----------------------|----------------------| 
|-12p10p8-12p10p8-12p10p|==8--12p10p8-12p10p8--| 
|-----------------------|----------------------| 
|-----------------------|----------------------| 
|-----------------------|----------------------| 
| 
|-----------------------|----------------------| 
|-11p10p8-11p10p8-11p10p|==8--11p10p8-11p10p8--| 
|-----------------------|----------------------| 
|-----------------------|----------------------| 
|-----------------------|----------------------| 
|-----------------------|----------------------| 
 
 
  Eb5F5   Eb5                         F5 
|-----------------------|----------------------| 
|-----------------------|----------------------| 
|-----------------------|----------------------| 
|-----------------------|----------------------| 
|--1h=3----1-(1)---1----|-(1)--1-------3----3--| 
|--1h=3----1-(1)---1----|-(1)--1-------3----3--| 
| 
|-----------------------|----------------------| 
|-----------------------|----------------------| 
|-12p10p8-12p10p8-12p10p|==8--12p10p8-12p10p8--| 
|-----------------------|----------------------| 
|-----------------------|----------------------| 
|-----------------------|----------------------| 
| 
|-----------------------|----------------------| 
|-11p10p8-11p10p8-11p10p|==8--11p10p8-11p10p8--| 
|-----------------------|----------------------| 
|-----------------------|----------------------| 
|-----------------------|----------------------| 
|-----------------------|----------------------| 
 
 
  D5 
   PM---------------------------------------------| 
|----------------------------|---------------------------| 
|----------------------------|---------------------------| 
|----------------------------|---------------------------| 
|----------------------------|---------------------------| 
|--0-0-0-0--0-0-0-0--0-0-0-0-|---0----0-0-0-0-0-0-0------| 
|--0-0-0-0--0-0-0-0--0-0-0-0-|---0----0-0-0-0-0-0-0------| 
| 
|      PM     PM|        PM    PM--|      PM--| 
|----------------------------|---------------------------| 
|-----------8----------------|---------------------------| 
|-10----------------10-----9-|-------10-----------9--7---| 
|------7------7-7--------7---|-7-7-7------7---7----------| 
|----------------------------|---------------------------| 
|----------------------------|---------------------------| 
| 
|      PM     PM|        PM    PM--|      PM--| 
|----------------------------|---------------------------| 
|-10-------11-------10-----8-|-------10-----------8------| 
|----------------------------|----------------------10---| 
|------7------7-7--------7---|-7-7-7------7---7----------| 
|----------------------------|---------------------------| 
|----------------------------|---------------------------| 
 
 
  D5 
   PM--------------------------- 
|------------------------------| 
|------------------------------| 
|------------------------------| 
|------------------------------| 
|--0-0--0-0--0-0-0-0--0-0-0--0-| 
|--0-0--0-0--0-0-0-0--0-0-0--0-| 
| 
|              PM|        PM 
|------------------------------| 
|------------------------------| 
|-------7----7---------------7-| 
|-10-----------7-7---10---7----| 
|------------------------------| 
|------------------------------| 
| 
|              PM|        PM 
|------------------------------| 
|------------------------------| 
|--9---10---10--------9-----10-| 
|--------------7-7--------7----| 
|------------------------------| 
|------------------------------| 
 
 
 ---------------------------------------------------| 
|------------------------|------------------------------| 
|------------------------|------------------------------| 
|------------------------|------------------------------| 
|------------------------|------------------------------| 
|---0----0-0-0-0-0-0-0---|--0-0-0-0--0-0-0-0--0-0-0-0---| 
|---0----0-0-0-0-0-0-0---|--0-0-0-0--0-0-0-0--0-0-0-0---| 
| 
| PM--|      PM--|     PM       PM     PM|        PM 
|------------------------|------------------------------| 
|------------------------|-----------8------------------| 
|--------7-----------9---|-10----------------10-----9---| 
|-7-7-7------7---7-----7-|------7------7-7--------7-----| 
|------------------------|------------------------------| 
|------------------------|------------------------------| 
| 
| PM--|      PM--|     PM       PM     PM|        PM 
|------------------------|------------------------------| 
|--------------------8---|-10-------11-------10-----8---| 
|-------10---------------|------------------------------| 
|-7-7-7------7---7-----7-|------7------7-7--------7-----| 
|------------------------|------------------------------| 
|------------------------|------------------------------| 
 
 
    D5 
  PM----------------------- 
|-------------------------| 
|-------------------------| 
|-------------------------| 
|-------------------------| 
|---0----0-0-0-0-0-0-0----| 
|---0----0-0-0-0-0-0-0----| 
| 
| PM--|      PM--| 
|-------------------------| 
|-------------------------| 
|-------10-----------9--7-| 
|-7-7-7------7---7--------| 
|-------------------------| 
|-------------------------| 
| 
| PM--|      PM--| 
|-------------------------| 
|-------10-----------8----| 
|----------------------10-| 
|-7-7-7------7---7--------| 
|-------------------------| 
|-------------------------| 
 
 
 ---------------------------------------------------| 
|------------------------------|------------------------|| 
|------------------------------|------------------------|| 
|------------------------------|------------------------|| 
|------------------------------|------------------------|| 
|--0-0--0-0--0-0-0-0--0-0-0--0-|---0----0-0-0-0-0-0-0---|| 
|--0-0--0-0--0-0-0-0--0-0-0--0-|---0----0-0-0-0-0-0-0---|| 
| 
|              PM|        PM     PM--|      PM--|     PM 
|------------------------------|------------------------|| 
|------------------------------|------------------------|| 
|-------7----7---------------7-|--------7-----------9---|| 
|-10-----------7-7---10---7----|-7-7-7------7---7-----7-|| 
|------------------------------|------------------------|| 
|------------------------------|------------------------|| 
| 
|              PM|        PM     PM--|      PM--|     PM 
|------------------------------|------------------------|| 
|------------------------------|--------------------8---|| 
|--9---10---10--------9-----10-|-------10---------------|| 
|--------------7-7--------7----|-7-7-7------7---7-----7-|| 
|------------------------------|------------------------|| 
|------------------------------|------------------------|| 
 
 
   Verse 2 
    D5 
    Gtrs II, III 
    PM--------------------------------------------- 
||--------------------------|---------------------| 
||o-------------------------|---------------------| 
||--------------------------|---------------------| 
||--------------------------|---------------------| 
||o-0-0-0-0-0-0-0-0-0-0-0-0-|---0--0-0-0-0-0-0-0--| 
||--0-0-0-0-0-0-0-0-0-0-0-0-|---0--0-0-0-0-0-0-0--| 
| 
|   Gtr V 
||--------------------------|---------------------| 
||o-6-----------------------|-8-------------------| 
||--7-----------------------|-9-------------------| 
||--0-----------------------|---------------------| 
||o-------------------------|---------------------| 
||--------------------------|---------------------| 
 
 
 ------------------------------------------------| 
                                                     3x 
|--------------------------|-------------------------|| 
|--------------------------|------------------------o|| 
|--------------------------|-------------------------|| 
|--------------------------|-------------------------|| 
|--0-0-0-0-0-0-0-0-0-0-0-0-|------0--0-0-0-0-0-0-0--o|| 
|--0-0-0-0-0-0-0-0-0-0-0-0-|------0--0-0-0-0-0-0-0---|| 
| 
|                                                    3x 
|--------------------------|-------------------------|| 
|-10-----------------------|-(10)-------------------o|| 
|-10-----------------------|-(10)--------------------|| 
|--------------------------|-------------------------|| 
|--------------------------|------------------------o|| 
|--------------------------|-------------------------|| 
 
 
  D5 
  PM--------------------------------------------- 
|-------------------------|---------------------| 
|-------------------------|---------------------| 
|-------------------------|---------------------| 
|-------------------------|---------------------| 
|-0-0-0-0-0-0-0-0-0-0-0-0-|---0--0-0-0-0-0-0-0--| 
|-0-0-0-0-0-0-0-0-0-0-0-0-|---0--0-0-0-0-0-0-0--| 
| 
|-------------------------|---------------------| 
|-6-----------------------|-8-------------------| 
|-7-----------------------|-9-------------------| 
|-0-----------------------|---------------------| 
|-------------------------|---------------------| 
|-------------------------|---------------------| 
| 
| Gtr III 
|-------------------------|---------------------| 
|-------------------------|---------------------| 
|-------------------------|---------------------| 
|-------------------------|---------------------| 
|-------------------------|---------------------| 
|-------------------------|---------------------| 
 
 
                                          E5 
 ----------------------------------| 
|--------------------------|------------------|| 
|--------------------------|------------------|| 
|--------------------------|------------------|| 
|--------------------------|------------------|| 
|--0-0-0-0-0-0-0-0-0-0-0-0-|--0--0-0--0---2---|| 
|--0-0-0-0-0-0-0-0-0-0-0-0-|--0--0-0--0---2---|| 
| 
|                          Gtr II 
|                                PM     PM  PM 
|--------------------------|------------------|| 
|-10-----------------------|------------------|| 
|-10-----------------------|----------7---9---|| 
|--------------------------|-----7------7---7-|| 
|--------------------------|------------------|| 
|--------------------------|------------------|| 
| 
|                                PM     PM  PM 
|--------------------------|------------------|| 
|--------------------------|--------------8---|| 
|--------------------------|---------10-------|| 
|--------------------------|-----7------7---7-|| 
|--------------------------|------------------|| 
|--------------------------|------------------|| 
 
 
 Chorus 2 
  F5                  Bb5                 D5                         E5 
  Gtr IV 
|-------------------|-------------------|-------------|------------------| 
|-------------------|-------------------|-------------|------------------| 
|-------------------|-------------------|-------------|------------------| 
|-------------------|--3----------------|-------------|------------------| 
|--3----------------|--1----------------|--0----------|-(0)------0---2---| 
|--3----------------|-------------------|--0----------|-(0)------0---2---| 
| 
|    PM|   PM|           PM|    PM|   PM   ~~~~~~~  PM   ~~~  PM   PM  PM 
|-------------------|-------------------|-------------|------------------| 
|-------------------|--8----------------|-------------|------------------| 
|-10-----9-----10---|--------10-----9---|-10----9-----|--7-------7---9---| 
|----7-7---7-7----7-|----7-7----7-7---7-|-----------7-|-------7----7---7-| 
|-------------------|-------------------|-------------|------------------| 
|-------------------|-------------------|-------------|------------------| 
| 
|    PM|   PM|           PM|    PM|   PM   ~~~~~~~  PM   ~~~       PM  PM 
|-------------------|-------------------|-------------|------------------| 
|-10-----8-----10---|-11-----10-----8---|-10----8-----|--------------8---| 
|-------------------|-------------------|-------------|-10------10-------| 
|----7-7---7-7----7-|----7-7----7-7---7-|-----------7-|-------7----7---7-| 
|-------------------|-------------------|-------------|------------------| 
|-------------------|-------------------|-------------|------------------| 
 
 
  F5                  Bb5 
|-------------------|---------------------| 
|-------------------|---------------------| 
|-------------------|---------------------| 
|-------------------|-3-------------------| 
|--3----------------|-1-------------------| 
|--3----------------|---------------------| 
| 
|    PM|    PM|   PM                PM  PM 
|-------------------|---------------------| 
|-------------------|---------------------| 
|-10------------9---|-9h10-10--7--7---9---| 
|----7-7-10-7-7---7-|---------------7---7-| 
|-------------------|---------------------| 
|-------------------|---------------------| 
| 
|    PM|    PM|   PM                PM  PM 
|-------------------|---------------------| 
|-10------------8---|-8h10-10---------8---| 
|--------10---------|---------10-10-------| 
|----7-7----7-7---7-|---------------7---7-| 
|-------------------|---------------------| 
|-------------------|---------------------| 
 
 
  C5                                 E5 
|-------------------|--------------------| 
|-------------------|--------------------| 
|-------------------|--------------------| 
|--5----------------|-(5)----------------| 
|--3----------------|-(3)-----0------2---| 
|-------------------|------------5p0-2---| 
| 
|    PM   PM  PM  PM      PM  PM   PM  PM 
|-------------------|--------------------| 
|-------------------|--------------------| 
|-10---10---9---9---|--9----9----7---9---| 
|----7----7---7---7-|-----7---7----7---7-| 
|-------------------|--------------------| 
|-------------------|--------------------| 
| 
|    PM   PM  PM  PM      PM  PM   PM  PM 
|-------------------|--------------------| 
|-10---10---8---8---|--8----8--------8---| 
|-------------------|-----------10-------| 
|----7----7---7---7-|-----7---7----7---7-| 
|-------------------|--------------------| 
|-------------------|--------------------| 
 
 
  F5                  Bb5 
|-------------------|-------------------| 
|-------------------|-------------------| 
|-------------------|-------------------| 
|-------------------|--3----------------| 
|--3--------------0-|--1----------------| 
|--3------------3---|-------------------| 
| 
|    PM|   PM|    PM     PM|    PM|   PM 
|-------------------|-------------------| 
|-------------------|-------------------| 
|-10-----9-----10---|--7-----10-----9---| 
|----7-7---7-7----7-|----7-7----7-7---7-| 
|-------------------|-------------------| 
|-------------------|-------------------| 
| 
|    PM|   PM|    PM     PM|    PM|   PM 
|-------------------|-------------------| 
|-10-----8-----10---|-11-----10-----8---| 
|-------------------|-------------------| 
|----7-7---7-7----7-|----7-7----7-7---7-| 
|-------------------|-------------------| 
|-------------------|-------------------| 
 
 
  D5                         E5    F5 
|-------------|------------------|-------------------| 
|-------------|------------------|-------------------| 
|-------------|------------------|-------------------| 
|-------------|------------------|-------------------| 
|--0----------|--0-----(0)---2---|--3----------------| 
|--0----------|--0-----(0)---2---|--3----------------| 
| 
|  ~~~~~~~  PM   ~~  PM    PM  PM     PM|    PM|   PM 
|-------------|------------------|-------------------| 
|-------------|------------------|-------------------| 
|-10----9-----|--7------7----9---|-10------------9---| 
|-----------7-|------7-----7---7-|----7-7-10-7-7---7-| 
|-------------|------------------|-------------------| 
|-------------|------------------|-------------------| 
| 
|  ~~~~~~~  PM   ~~  PM    PM  PM     PM|    PM|   PM 
|-------------|------------------|-------------------| 
|-10----8-----|--------------8---|-10------------8---| 
|-------------|-10-----10--------|--------10---------| 
|-----------7-|------7-----7---7-|----7-7----7-7---7-| 
|-------------|------------------|-------------------| 
|-------------|------------------|-------------------| 
 
 
  Bb5                      Eb5F5   Eb5 
|------------------------|-----------------------|----------------------| 
|------------------------|-----------------------|----------------------| 
|------------------------|-----------------------|----------------------| 
|-3--------3-(3)---3-x-x-|-----------------------|----------------------| 
|-1--------1-(1)---1-x-x-|--1h=3----1-(1)---1----|-(1)---------------1--| 
|------------------------|--1h=3----1-(1)---1----|-(1)---------------1--| 
| 
|                PM  PM 
|------------------------|-----------------------|----------------------| 
|------------------------|-----------------------|----------------------| 
|-9h10-10--7--7----9-----|-12p10p8-12p10p8-12p10p|==8--12p10p8-12p10p8--| 
|----------------7---7---|-----------------------|----------------------| 
|------------------------|-----------------------|----------------------| 
|------------------------|-----------------------|----------------------| 
| 
|                PM  PM 
|------------------------|-----------------------|----------------------| 
|-8h10-10----------8-----|-11p10p8-11p10p8-11p10p|==8--11p10p8-11p10p8--| 
|---------10-10----------|-----------------------|----------------------| 
|----------------7---7---|-----------------------|----------------------| 
|------------------------|-----------------------|----------------------| 
|------------------------|-----------------------|----------------------| 
 
 
     F5   Eb5                         F5 
|-----------------------|-------------------------|| 
|-----------------------|-------------------------|| 
|-----------------------|-------------------------|| 
|-----------------------|-------------------------|| 
|--1h=3----1--1----1----|-(1)--1-------3----3\----|| 
|--1h=3----1--1----1----|-(1)--1-------3----3\----|| 
| 
|-----------------------|-------------------------|| 
|-----------------------|-------------------------|| 
|-12p10p8-12p10p8-12p10p|==8--12p10p8-12p10-8-----|| 
|-----------------------|-------------------------|| 
|-----------------------|-------------------------|| 
|-----------------------|-------------------------|| 
| 
|-----------------------|-------------------------|| 
|-11p10p8-11p10p8-11p10p|==8--11p10p8-11p10-8-----|| 
|-----------------------|-------------------------|| 
|-----------------------|-------------------------|| 
|-----------------------|-------------------------|| 
|-----------------------|-------------------------|| 
 
 
 Interlude 
  N.C. 
  Gtr II 
    PM|   PM|   PM|   PM|     PM| 
|-------------------------|------------------| 
|-------------------------|------------------| 
|-------------------------|------------------| 
|-x-0-0-0-0-0-2-0-0-3-0-0-|-5-0-0-3--8-7-5-0-| 
|-------------------------|------------------| 
|-------------------------|------------------| 
| 
| Gtr III 
|                                          ~~~ 
|-------------------------|------------------| 
|-------------------------|------------------| 
|-------------------------|------------------| 
|-------------------------|----------5-----7-| 
|-------------------------|------------8-7---| 
|-------------------------|------------------| 
 
 
       PM|   PM|   PM| 
|-------------------------|------------------| 
|-------------------------|------------------| 
|-------------------------|------------------| 
|-(0)--0-0-0-0-0-2-0-0-3--|-8-7-5---7-5------| 
|-------------------------|-------8-----8-5--| 
|-------------------------|------------------| 
| 
|~~~~~~                                   ~ 
|-------------------------|------------------| 
|-------------------------|------------------| 
|-------------------------|------------------| 
|-(7)\--------------------|-5-3-2---3-2---3--| 
|-------------------------|-------5-----5----| 
|-------------------------|------------------| 
 
 
      PM|   PM|   PM|   PM|     PM| 
|---------------------------|-------------------| 
|---------------------------|-------------------| 
|---------------------------|-------------------| 
|-----0-0-0-0-0-2-0-0-3-0-0-|-5-0-0-3---8-7-5-0-| 
|-(5)-----------------------|-------------------| 
|---------------------------|-------------------| 
| 
|  ~~~      PM|   PM|   PM|     PM|           ~~~ 
|---------------------------|-------------------| 
|---------------------------|-------------------| 
|---------------------------|-----------------2-| 
|-(3)-----3-0-0-5-0-0-7-0-0-|-8-0-0-7\--5-3-2---| 
|---------------------------|-------------------| 
|---------------------------|-------------------| 
 
 
      PM|   PM|   PM| 
|-------------------------|------------------| 
|-------------------------|------------------| 
|-------------------------|------------------| 
|-(0)-0-0-0-0-0-2-0-0-3---|-8-7-5---7-5------| 
|-------------------------|-------8-----8-5--| 
|-------------------------|------------------| 
| 
|~~~~~      PM|   PM|                     ~ 
|-------------------------|------------------| 
|-------------------------|------------------| 
|-(2)---------------------|------------------| 
|---------3-0-0-5-0-0-7\--|-5-3-2---3-2---3--| 
|-------------------------|-------5-----5----| 
|-------------------------|------------------| 
 
 
  D5                    G5/D                  F5 
      PM|   PM|   PM|   PM|     PM| 
|---------------------------|-----------------------| 
|---------------------------|-----------------------| 
|---------------------------|-----------------------| 
|-----0-0-0-0-0-2-0-0-3-0-0-|-5-0-0-3---8-7-5--0----| 
|-(5)-----------------------|-----------------------| 
|---------------------------|-----------------------| 
| 
|  ~~~      PM|   PM|   PM|     PM|            ~~~~~~ 
|---------------------------|-----------------------| 
|---------------------------|-----------------------| 
|---------------------------|------------------2----| 
|-(3)-----3-0-0-5-0-0-7-0-0-|-8-0-0-7\--5-3-2-------| 
|---------------------------|-----------------------| 
|---------------------------|-----------------------| 
| 
| Gtr IV 
|---------------------------|-----------------------| 
|---------------------------|-----------------------| 
|-----------------------7-7-|-7---------------------| 
|--7--------------------5-5-|-5---------------10-10-| 
|--5--------------------5-5-|-5----------------8--8-| 
|---------------------------|-----------------------| 
 
 
                         Bb5/F                  D5 
      PM|   PM|   PM| 
|------------------------------|---------------------| 
|------------------------------|---------------------| 
|------------------------------|---------------------| 
|-(0)-0-0-0-0-0-2-0-0-3--------|--8-7-5---7-5--------| 
|------------------------------|--------8-----8-5----| 
|------------------------------|---------------------| 
| 
|~~~~~      PM|   PM|                           ~ 
|------------------------------|---------------------| 
|------------------------------|---------------------| 
|-(2)--------------------------|---------------------| 
|---------3-0-0-5-0-0-7\-------|--5-3-2---3-2---3----| 
|------------------------------|--------5-----5------| 
|------------------------------|---------------------| 
| 
|------------------------------|---------------------| 
|------------------------------|---------------------| 
|------------------------10-10-|-10------------------| 
|-10----------------------8--8-|--8-------------7-7--| 
|--8----------------------8--8-|--8-------------5-5--| 
|------------------------------|---------------------| 
 
 
                        G5/D                  F5 
      PM|   PM|   PM|   PM|     PM| 
|---------------------------|-----------------------| 
|---------------------------|-----------------------| 
|---------------------------|-----------------------| 
|-----0-0-0-0-0-2-0-0-3-0-0-|-5-0-0-3---8-7-5--0----| 
|-(5)-----------------------|-----------------------| 
|---------------------------|-----------------------| 
| 
|  ~~~      PM|   PM|   PM|     PM|            ~~~~~~ 
|---------------------------|-----------------------| 
|---------------------------|-----------------------| 
|---------------------------|------------------2----| 
|-(3)-----3-0-0-5-0-0-7-0-0-|-8-0-0-7\--5-3-2-------| 
|---------------------------|-----------------------| 
|---------------------------|-----------------------| 
| 
|---------------------------|-----------------------| 
|---------------------------|-----------------------| 
|-----------------------7-7-|-7---------------------| 
|--7--------------------5-5-|-5---------------10-10-| 
|--5--------------------5-5-|-5----------------8--8-| 
|---------------------------|-----------------------| 
 
 
                         Bb5/F                   D5 
      PM|   PM|   PM| 
|------------------------------|----------------------|| 
|------------------------------|----------------------|| 
|------------------------------|----------------------|| 
|-(0)-0-0-0-0-0-2-0-0-3--------|--8-7-5---7-5---------|| 
|------------------------------|--------8-------------|| 
|------------------------------|--------------x\------|| 
| 
|~~~~~      PM|   PM| 
|------------------------------|----------------------|| 
|------------------------------|----------------------|| 
|-(2)--------------------------|----------------------|| 
|---------3-0-0-5-0-0-7\-------|--5-3-2---3-2---------|| 
|------------------------------|--------5-------------|| 
|------------------------------|--------------x\------|| 
| 
|------------------------------|----------------------|| 
|------------------------------|----------------------|| 
|------------------------10-10-|-10-------------------|| 
|-10----------------------8--8-|--8--------------7-7--|| 
|--8----------------------8--8-|--8--------------5-5--|| 
|------------------------------|----------------------|| 
 
 
 Solo - Roland Grapow 
  E5 
  Gtr VI 
|-15-19-17-15-19-17-15-14-17-15-14-14-17-15-14-12-| 
|-------------------------------------------------| 
|-------------------------------------------------| 
|-------------------------------------------------| 
|-------------------------------------------------| 
|-------------------------------------------------| 
| 
| Gtr II 
|-------------------------------------------------| 
|-------------------------------------------------| 
|-------------------------------------------------| 
|--9----------------------------------------12-12-| 
|--7----------------------------------------10-10-| 
|-------------------------------------------------| 
| 
| Gtr IV 
|  PM---------------------------------------------- 
|-------------------------------------------------| 
|-------------------------------------------------| 
|-------------------------------------------------| 
|-------------------------------------------------| 
|--2--2--2--2--2--2--2--2--2--2--2--2--2--2--2--2-| 
|--2--2--2--2--2--2--2--2--2--2--2--2--2--2--2--2-| 
 
 
|-15-14-12-12-15-14-12-10-14-12-10-10-14-12-10-8-|-12-10-8-8-12-10-8-7-10-8-7-7-10-8--7--6-| 
|------------------------------------------------|-----------------------------------------| 
|------------------------------------------------|-----------------------------------------| 
|------------------------------------------------|-----------------------------------------| 
|------------------------------------------------|-----------------------------------------| 
|------------------------------------------------|-----------------------------------------| 
| 
|------------------------------------------------|-----------------------------------------| 
|------------------------------------------------|-----------------------------------------| 
|------------------------------------------------|-----------------------------------10-10-| 
|-12-----------------------------------------9-9-|--9---------------------------------7--7-| 
|-10-----------------------------------------7-7-|--7--------------------------------------| 
|------------------------------------------------|-----------------------------------------| 
| 
|---------------------------------------------------------------------------------------| 
|------------------------------------------------|-----------------------------------------| 
|------------------------------------------------|-----------------------------------------| 
|------------------------------------------------|-----------------------------------------| 
|------------------------------------------------|-----------------------------------------| 
|--2--2--2--2--2--2--2--2--2--2--2--2--2--2--2-2-|--2--2-2-2--2--2-2-2--2-2-2-2--2-2--2--2-| 
|--2--2--2--2--2--2--2--2--2--2--2--2--2--2--2-2-|--2--2-2-2--2--2-2-2--2-2-2-2--2-2--2--2-| 
 
 
  E5 
   ~~ 
|--6---------------6---6------------| 
|-----------------------------------| 
|-----------------------------------| 
|-----------------------------------| 
|--------------------------x\-------| 
|-----------------------------------| 
| 
|-----------------------------------| 
|-----------------------------------| 
|-10--------------------------------| 
|--7--------------------------------| 
|-----------------------------------| 
|-----------------------------------| 
| 
|  PM-------------------------------- 
|-----------------------------------| 
|-----------------------------------| 
|-----------------------------------| 
|-----------------------------------| 
|--2-2-2-2-2-2-2-2-2-2-2-2-2--2-2-2-| 
|--2-2-2-2-2-2-2-2-2-2-2-2-2--2-2-2-| 
 
 
                                       ~~ 
|-------------19p12------------------------------|------------------------------------| 
|-------------------12---------------------------|--7-0-0-0-8-0-0-0-10-0-0-0-11-0-0-0-| 
|----------------------12------------------------|------------------------------------| 
|----------14-------------14---------------------|------------------------------------| 
|-------14-------------------14------------------|------------------------------------| 
|-12h15-------------------------15p12-12---------|------------------------------------| 
| 
|------------------------------------------------|------------------------------------| 
|------------------------------------------------|------------------------------------| 
|------------------------------------------------|------------------------------------| 
|--9---------------------------------------12-12-|-12-----------------------------9-9-| 
|--7---------------------------------------10-10-|-10-----------------------------7-7-| 
|------------------------------------------------|------------------------------------| 
| 
|-----------------------------------------------------------------------------------| 
|------------------------------------------------|------------------------------------| 
|------------------------------------------------|------------------------------------| 
|------------------------------------------------|------------------------------------| 
|------------------------------------------------|------------------------------------| 
|--2--2--2--2--2--2--2--2--2--2--2--2--2-2--2--2-|--2-2-2-2-2-2-2-2--2-2-2-2--2-2-2-2-| 
|--2--2--2--2--2--2--2--2--2--2--2--2--2-2--2--2-|--2-2-2-2-2-2-2-2--2-2-2-2--2-2-2-2-| 
 
 
  E5 
|-------------------------------------------| 
|-12-11-------13-12-0-0-14-13-0-0-15-0-8h10-| 
|-------12p11-------------------------------| 
|-------------------------------------------| 
|-------------------------------------------| 
|-------------------------------------------| 
| 
|-------------------------------------------| 
|-------------------------------------------| 
|-------------------------------------------| 
|--9----------------------------------------| 
|--7----------------------------------------| 
|-------------------------------------------| 
| 
|  PM---------------------------------------- 
|-------------------------------------------| 
|-------------------------------------------| 
|-------------------------------------------| 
|-------------------------------------------| 
|--2--2--2--2--2--2-2-2--2--2-2-2--2-2-2--2-| 
|--2--2--2--2--2--2-2-2--2--2-2-2--2-2-2--2-| 
 
 
  F5 
|-----------------------------------------------|| 
|-13p10p=8-----8h10h12S20p17p===15----15----17--|| 
|----------10----------------------17-----------|| 
|-----------------------------------------------|| 
|-----------------------------------------------|| 
|-----------------------------------------------|| 
| 
|-----------------------------------------------|| 
|-----------------------------------------------|| 
|-----------------------------------------------|| 
|-10----10----10----10-10----10----10----10-----|| 
|--8-----8-----8-----8--8-----8-----8-----8-----|| 
|-----------------------------------------------|| 
| 
|----------------------------------------| 
|-----------------------------------------------|| 
|-----------------------------------------------|| 
|-----------------------------------------------|| 
|-----------------------------------------------|| 
|--3-----3-----3-----3--3-----3-----3-----3-----|| 
|--3-----3-----3-----3--3-----3-----3-----3-----|| 
 
 
 Verse 3 
  D5 
  Gtr IV 
   PM---------------------|        PM-------------------- 
|---------------------------|---------------------------| 
|---------------------------|---------------------------| 
|---------------------------|---------------------------| 
|---------------------------|---------------------------| 
|--0-0-0-0-0-0-0-0--0-0-0-0-|------0----0-0-0-0-0-0-0---| 
|--0-0-0-0-0-0-0-0--0-0-0-0-|------0----0-0-0-0-0-0-0---| 
| 
| Gtr VI                                                G 
|  ~~~~~~~~~~~~~~~~~~~~~~~~~~~~~~~~ 
|-20------------------------|-(20)----------------------| 
|---------------------------|---------------------------| 
|---------------------------|---------------------------| 
|---------------------------|---------------------------| 
|---------------------------|---------------------------| 
|---------------------------|---------------------------| 
| 
| Gtr II 
|            PM|        PM      PM---|      PM--| 
|----------6----------------|---------------------------| 
|-10-------8-------10-----8-|----------10-----------8-6-| 
|-10---------------10-----9-|----------10-----------9-7-| 
|------7-----7-7--------7---|---7--7-7------7---7-------| 
|---------------------------|---------------------------| 
|---------------------------|---------------------------| 
 
 
 ---------------------------------------------------| 
|------------------------------|-------------------------| 
|------------------------------|-------------------------| 
|------------------------------|-------------------------| 
|------------------------------|-------------------------| 
|--0-0--0-0--0-0-0-0--0-0-0--0-|---0----0-0-0-0-0-0-0----| 
|--0-0--0-0--0-0-0-0--0-0-0--0-|---0----0-0-0-0-0-0-0----| 
| 
|tr III 
|              PM|        PM     PM--|      PM--|     PM 
|------------------------------|-------------------------| 
|------------------------------|--------------------8----| 
|--9---10---10--------9-----10-|-------10----------------| 
|--------------7-7--------7----|-7-7-7------7---7-----7--| 
|------------------------------|-------------------------| 
|------------------------------|-------------------------| 
| 
|              PM|        PM     PM--|      PM--|     PM 
|------------------------------|-------------------------| 
|------------------------------|-------------------------| 
|-------7----7---------------7-|--------7-----------9----| 
|-10-----------7-7---10---7----|-7-7-7------7---7-----7--| 
|------------------------------|-------------------------| 
|------------------------------|-------------------------| 
 
 
    D5 
     PM----------------------|     PM--------------------- 
||-----------------------------|-------------------------| 
||o----------------------------|-------------------------| 
||-----------------------------|-------------------------| 
||-----------------------------|-------------------------| 
||o--0-0-0-0--0-0-0-0--0-0-0-0-|---0----0-0-0-0-0-0-0----| 
||---0-0-0-0--0-0-0-0--0-0-0-0-|---0----0-0-0-0-0-0-0----| 
| 
|        PM     PM|        PM    PM--|      PM--| 
||-----------------------------|-------------------------| 
||o-----------8----------------|-------------------------| 
||--10----------------10-----9-|-------10-----------9--7-| 
||-------7------7-7--------7---|-7-7-7------7---7--------| 
||o----------------------------|-------------------------| 
||-----------------------------|-------------------------| 
| 
|        PM     PM|        PM    PM--|      PM--| 
||-----------------------------|-------------------------| 
||o-10-------11-------10-----8-|-------10-----------8----| 
||-----------------------------|----------------------10-| 
||-------7------7-7--------7---|-7-7-7------7---7--------| 
||o----------------------------|-------------------------| 
||-----------------------------|-------------------------| 
 
 
 ---------------------------------------------------| 
|------------------------------|-------------------------|| 
|------------------------------|------------------------o|| 
|------------------------------|-------------------------|| 
|------------------------------|-------------------------|| 
|--0-0--0-0--0-0-0-0--0-0-0--0-|---0----0-0-0-0-0-0-0---o|| 
|--0-0--0-0--0-0-0-0--0-0-0--0-|---0----0-0-0-0-0-0-0----|| 
| 
|              PM|        PM     PM--|      PM--|     PM 
|------------------------------|-------------------------|| 
|------------------------------|------------------------o|| 
|-------7----7---------------7-|--------7-----------9----|| 
|-10-----------7-7---10---7----|-7-7-7------7---7-----7--|| 
|------------------------------|------------------------o|| 
|------------------------------|-------------------------|| 
| 
|              PM|        PM     PM--|      PM--|     PM 
|------------------------------|-------------------------|| 
|------------------------------|--------------------8---o|| 
|--9---10---10--------9-----10-|-------10----------------|| 
|--------------7-7--------7----|-7-7-7------7---7-----7--|| 
|------------------------------|------------------------o|| 
|------------------------------|-------------------------|| 
 
 
  D5 
   PM--------------------------------------------------- 
|----------------------------|-------------------------| 
|----------------------------|-------------------------| 
|----------------------------|-------------------------| 
|----------------------------|-------------------------| 
|--0-0-0-0--0-0-0-0--0-0-0-0-|---0----0-0-0-0-0-0-0----| 
|--0-0-0-0--0-0-0-0--0-0-0-0-|---0----0-0-0-0-0-0-0----| 
| 
|      PM     PM|        PM    PM--|      PM--| 
|----------------------------|-------------------------| 
|-----------8----------------|-------------------------| 
|-10----------------10-----9-|-------10-----------9--7-| 
|------7------7-7--------7---|-7-7-7------7---7--------| 
|----------------------------|-------------------------| 
|----------------------------|-------------------------| 
| 
|      PM     PM|        PM    PM--|      PM--| 
|----------------------------|-------------------------| 
|-10-------11-------10-----8-|-------10-----------8----| 
|----------------------------|----------------------10-| 
|------7------7-7--------7---|-7-7-7------7---7--------| 
|----------------------------|-------------------------| 
|----------------------------|-------------------------| 
 
 
                                                 E5 
 -----------------------------------------| 
|------------------------------|---------------------|| 
|------------------------------|---------------------|| 
|------------------------------|---------------------|| 
|------------------------------|---------------------|| 
|--0-0--0-0--0-0-0-0--0-0-0--0-|----0---0-0--0---2---|| 
|--0-0--0-0--0-0-0-0--0-0-0--0-|----0---0-0--0---2---|| 
| 
|              PM|        PM      PM----|      PM  PM 
|------------------------------|---------------------|| 
|------------------------------|---------------------|| 
|-------7----7---------------7-|-------------7---9---|| 
|-10-----------7-7---10---7----|--7-7-7-7------7---7-|| 
|------------------------------|---------------------|| 
|------------------------------|---------------------|| 
| 
|              PM|        PM            PM     PM  PM 
|------------------------------|---------------------|| 
|------------------------------|-----------------8---|| 
|--9---10---10--------9-----10-|-10---------10-------|| 
|--------------7-7--------7----|--------7------7---7-|| 
|------------------------------|---------------------|| 
|------------------------------|---------------------|| 
 
 
 Chorus 3 
  F5                  Bb5                 D5                         E5 
|-------------------|-------------------|-------------|------------------| 
|-------------------|-------------------|-------------|------------------| 
|-------------------|-------------------|-------------|------------------| 
|-------------------|--3----------------|-------------|------------------| 
|--3----------------|--1----------------|--0----------|-(0)------0---2---| 
|--3----------------|-------------------|--0----------|-(0)------0---2---| 
| 
|    PM|   PM|           PM|    PM|   PM   ~~~~~~~  PM   ~~~  PM   PM  PM 
|-------------------|-------------------|-------------|------------------| 
|-------------------|--8----------------|-------------|------------------| 
|-10-----9-----10---|--------10-----9---|-10----9-----|--7-------7---9---| 
|----7-7---7-7----7-|----7-7----7-7---7-|-----------7-|-------7----7---7-| 
|-------------------|-------------------|-------------|------------------| 
|-------------------|-------------------|-------------|------------------| 
| 
|    PM|   PM|           PM|    PM|   PM   ~~~~~~~  PM   ~~~       PM  PM 
|-------------------|-------------------|-------------|------------------| 
|-10-----8-----10---|-11-----10-----8---|-10----8-----|--------------8---| 
|-------------------|-------------------|-------------|-10------10-------| 
|----7-7---7-7----7-|----7-7----7-7---7-|-----------7-|-------7----7---7-| 
|-------------------|-------------------|-------------|------------------| 
|-------------------|-------------------|-------------|------------------| 
 
 
  F5                  Bb5 
|-------------------|---------------------| 
|-------------------|---------------------| 
|-------------------|---------------------| 
|-------------------|-3-------------------| 
|--3----------------|-1-------------------| 
|--3----------------|---------------------| 
| 
|    PM|    PM|   PM                PM  PM 
|-------------------|---------------------| 
|-------------------|---------------------| 
|-10------------9---|-9h10-10--7--7---9---| 
|----7-7-10-7-7---7-|---------------7---7-| 
|-------------------|---------------------| 
|-------------------|---------------------| 
| 
|    PM|    PM|   PM                PM  PM 
|-------------------|---------------------| 
|-10------------8---|-8h10-10---------8---| 
|--------10---------|---------10-10-------| 
|----7-7----7-7---7-|---------------7---7-| 
|-------------------|---------------------| 
|-------------------|---------------------| 
 
 
  C5                                 E5 
|-------------------|--------------------| 
|-------------------|--------------------| 
|-------------------|--------------------| 
|--5----------------|-(5)----------------| 
|--3----------------|-(3)-----0------2---| 
|-------------------|------------5p0-2---| 
| 
|    PM   PM  PM  PM      PM  PM   PM  PM 
|-------------------|--------------------| 
|-------------------|--------------------| 
|-10---10---9---9---|--9----9----7---9---| 
|----7----7---7---7-|-----7---7----7---7-| 
|-------------------|--------------------| 
|-------------------|--------------------| 
| 
|    PM   PM  PM  PM      PM  PM   PM  PM 
|-------------------|--------------------| 
|-10---10---8---8---|--8----8--------8---| 
|-------------------|-----------10-------| 
|----7----7---7---7-|-----7---7----7---7-| 
|-------------------|--------------------| 
|-------------------|--------------------| 
 
 
  F5                  Bb5                 D5                         E5 
|-------------------|-------------------|-------------|------------------| 
|-------------------|-------------------|-------------|------------------| 
|-------------------|-------------------|-------------|------------------| 
|-------------------|--3----------------|-------------|------------------| 
|--3--------------0-|--1----------------|--0----------|--0-----(0)---2---| 
|--3------------3---|-------------------|--0----------|--0-----(0)---2---| 
| 
|    PM|   PM|    PM     PM|    PM|   PM   ~~~~~~~  PM   ~~  PM    PM  PM 
|-------------------|-------------------|-------------|------------------| 
|-------------------|-------------------|-------------|------------------| 
|-10-----9-----10---|--7-----10-----9---|-10----9-----|--7------7----9---| 
|----7-7---7-7----7-|----7-7----7-7---7-|-----------7-|------7-----7---7-| 
|-------------------|-------------------|-------------|------------------| 
|-------------------|-------------------|-------------|------------------| 
| 
|    PM|   PM|    PM     PM|    PM|   PM   ~~~~~~~  PM   ~~  PM    PM  PM 
|-------------------|-------------------|-------------|------------------| 
|-10-----8-----10---|-11-----10-----8---|-10----8-----|--------------8---| 
|-------------------|-------------------|-------------|-10-----10--------| 
|----7-7---7-7----7-|----7-7----7-7---7-|-----------7-|------7-----7---7-| 
|-------------------|-------------------|-------------|------------------| 
|-------------------|-------------------|-------------|------------------| 
 
 
  F5                  Bb5 
|-------------------|------------------------| 
|-------------------|------------------------| 
|-------------------|------------------------| 
|-------------------|-3--------3-(3)---3-x-x-| 
|--3----------------|-1--------1-(1)---1-x-x-| 
|--3----------------|------------------------| 
| 
|    PM|    PM|   PM                 PM  PM 
|-------------------|------------------------| 
|-------------------|------------------------| 
|-10------------9---|-9h10-10--7--7----9-----| 
|----7-7-10-7-7---7-|----------------7---7---| 
|-------------------|------------------------| 
|-------------------|------------------------| 
| 
|    PM|    PM|   PM                 PM  PM 
|-------------------|------------------------| 
|-10------------8---|-8h10-10----------8-----| 
|--------10---------|---------10-10----------| 
|----7-7----7-7---7-|----------------7---7---| 
|-------------------|------------------------| 
|-------------------|------------------------| 
 
 
  Eb5F5   Eb5 
|-----------------------|----------------------| 
|-----------------------|----------------------| 
|-----------------------|----------------------| 
|-----------------------|----------------------| 
|--1h=3----1-(1)---1----|-(1)---------------1--| 
|--1h=3----1-(1)---1----|-(1)---------------1--| 
| 
|-----------------------|----------------------| 
|-----------------------|----------------------| 
|-12p10p8-12p10p8-12p10p|==8--12p10p8-12p10p8--| 
|-----------------------|----------------------| 
|-----------------------|----------------------| 
|-----------------------|----------------------| 
| 
|-----------------------|----------------------| 
|-11p10p8-11p10p8-11p10p|==8--11p10p8-11p10p8--| 
|-----------------------|----------------------| 
|-----------------------|----------------------| 
|-----------------------|----------------------| 
|-----------------------|----------------------| 
 
 
  Eb5F5   Eb5                            F5 EbF5 
|-----------------------|-----------------------| 
|-----------------------|-----------------------| 
|-----------------------|-----------------------| 
|-----------------------|-----------------------| 
|--1h=3----1-(1)---1----|-(1)--1-------1h=3-1h3-| 
|--1h=3----1-(1)---1----|-(1)--1-------1h=3-1h3-| 
| 
|-----------------------|-----------------------| 
|-----------------------|-----------------------| 
|-12p10p8-12p10p8-12p10p|==8--12p10p8-12p10p8---| 
|-----------------------|-----------------------| 
|-----------------------|-----------------------| 
|-----------------------|-----------------------| 
| 
|-----------------------|-----------------------| 
|-11p10p8-11p10p8-11p10p|==8--11p10p8-11p10p8---| 
|-----------------------|-----------------------| 
|-----------------------|-----------------------| 
|-----------------------|-----------------------| 
|-----------------------|-----------------------| 
 
 
  Eb5F5   Eb5                            F5 EbF5 
|-----------------------|-----------------------|| 
|-----------------------|-----------------------|| 
|-----------------------|-----------------------|| 
|-----------------------|-----------------------|| 
|--1h=3----1-(1)---1----|-(1)--1-------1h=3-1h3-|| 
|--1h=3----1-(1)---1----|-(1)--1-------1h=3-1h3-|| 
| 
|-----------------------|-----------------------|| 
|-----------------------|-----------------------|| 
|-12p10p8-12p10p8-12p10p|==8--12p10p8-12p10p8---|| 
|-----------------------|-----------------------|| 
|-----------------------|-----------------------|| 
|-----------------------|-----------------------|| 
| 
|-----------------------|-----------------------|| 
|-11p10p8-11p10p8-11p10p|==8--11p10p8-11p10p8---|| 
|-----------------------|-----------------------|| 
|-----------------------|-----------------------|| 
|-----------------------|-----------------------|| 
|-----------------------|-----------------------|| 
 
 
 Outro 
  D5 
  Gtr I 
|----17-15-17-17----17----|-17--17-17----17-17----17-| 
|-15-------------18----17-|-----------18-------17----| 
|-------------------------|--------------------------| 
|-------------------------|--------------------------| 
|-------------------------|--------------------------| 
|-------------------------|--------------------------| 
| 
|-------------------------|--------------------------| 
|--6----------------------|-(6)----------------------| 
|--7----------------------|-(7)----------------------| 
|-------------------------|--------------------------| 
|-------------------------|--------------------------| 
|-------------------------|--------------------------| 
| 
|-------------------------|--------------------------| 
|-------------------------|--------------------------| 
|-------------------------|--------------------------| 
|-------------------------|--------------------------| 
|--0----------------------|-(0)----------------------| 
|--0----------------------|-(0)----------------------| 
 
 
|-----17----17-17----17----|-17--17-17----17-17----17-| 
|-17-----15-------------15-|-----------15-------17----| 
|-----------------17-------|--------------------------| 
|--------------------------|--------------------------| 
|--------------------------|--------------------------| 
|--------------------------|--------------------------| 
| 
|--------------------------|--------------------------| 
|-(6)----------------------|-(6)----------------------| 
|-(7)----------------------|-(7)----------------------| 
|--------------------------|--------------------------| 
|--------------------------|--------------------------| 
|--------------------------|--------------------------| 
| 
|--------------------------|--------------------------| 
|--------------------------|--------------------------| 
|--------------------------|--------------------------| 
|--------------------------|--------------------------| 
|-(0)----------------------|-(0)----------------------| 
|-(0)----------------------|-(0)----------------------| 
 
 
|-----17-15-17-17----17----|-17--17-17-------17-------| 
|-18--------------18----17-|-----------17-18----17-15-| 
|--------------------------|--------------------------| 
|--------------------------|--------------------------| 
|--------------------------|--------------------------| 
|--------------------------|--------------------------| 
| 
|--------------------------|--------------------------| 
|-(6)----------------------|-(6)----------------------| 
|-(7)----------------------|-(7)----------------------| 
|--------------------------|--------------------------| 
|--------------------------|--------------------------| 
|--------------------------|--------------------------| 
| 
|--------------------------|--------------------------| 
|--------------------------|--------------------------| 
|--------------------------|--------------------------| 
|--------------------------|--------------------------| 
|-(0)----------------------|-(0)----------------------| 
|-(0)----------------------|-(0)----------------------| 
 
 
|-----------17-17----17----|-----*| 
|-----15-15-------------15-|-----*| 
|-17--------------17-------|-----*| 
|--------------------------|-----*| 
|--------------------------|-----*| 
|--------------------------|-----*| 
| 
|--------------------------|-----*| 
|-(6)----------------------|-----*| 
|-(7)----------------------|-----*| 
|--------------------------|-----*| 
|--------------------------|-----*| 
|--------------------------|-----*| 
| 
|--------------------------|-----*| 
|--------------------------|-----*| 
|--------------------------|-----*| 
|--------------------------|-----*| 
|-(0)----------------------|-----*| 
|-(0)----------------------|-----*| 
 
 

leonardosetti@gmail.com
comments
We did not receive enough feedback on this tab! Please rate:
print report bad tab
1 2 3 4 5
I want to post or [tab]
guest
You may want to rate the tab now too:
select rating
Please do not post tabs as comments. Select "correction" instead!