Oops, an error
Loading. Please wait.

Beverly Hell Tab

1,789 views 1 this week
no commentswrite comment
1 2 3 4 5
excellent!
x 1
add to favorites launch autoscroll
font size
0
reset
Autoscroll
+/-
esc
set tempo
stop
Contributor
Difficulty
Tuning
intermediate
C G C F A D
WARNING: You are trying to view
                                    content from Ultimate-Guitar.com
                                    in an unauthorized application,
                                    which is prohibited.

                                    Please use an official Ultimate
                                    Guitar Tabs application for iPhone,
                                    iPad or Android to access legitimate
                                    chords, guitar, bass, and drum tabs
                                    from Ultimate-Guitar.com database.

                                    Type "ultimate guitar tabs" in Apple
                                    App Store's or Android Market's
                                    search to find the application.
-------------------------------------------------------------------------------
                      Beverly Hell - Here Comes The Kraken
-------------------------------------------------------------------------------


Tabbed by: Zeusimo
Myspace - http://www.myspace.com/jessei_f
Youtube - http://www.youtube.com/zeusimo
Blogger - http://www.zeusimo.blogspot.com
Ultimate-Guitar - http://www.profile.ultimate-guitar.com/zeusimo/

Tuning: Drop C (C-G-C-F-A-D)

This Is How I Learned It From When They Played It Live Not The [EP]
Mix Between Guitar 1 (Tore) And Guitar 2 (Alex)
If You Find An Error Pease Tell Me
Enjoy This Shit XD

Guitar 1                      x6 Guitar 1
D|-----------------------------| D|----|
A|-----------------------------| A|----|
F|-----------------------------| F|----|
C|-----------------------------| C|0-0-|
G|-----------------------------| G|0-0-|
C|1p0-0-0--0-0-0--0-0-0--0-0-0-| C|0-0-|
                                   . .

Guitar 1                                x3
D|---------------------------------------|
A|---------------------------------------|
F|---------------------------------------|
C|0---------0----------------------------|
G|0-12-10-9-0-10-9-7-5-7-8-10-12p10-9h12-|
C|0---------0----------------------------|
  .         .

Guitar 2  x2
D|-------------|
A|-7-7-7-------|
F|101010-------|
C|-------0-5-7-|
G|-------0-5-7-|
C|-------0-5-7-|
         . . .

Guitar 2
D|----------------------|
A|----------------------|
F|----------------------|
C|----------------------|
G|----------------------|
C|5h8p5-7p4-5-7-4h7-5h8-|

Guitar 2
D|12-8----------------------------------|
A|-----12-10----------------------------|
F|-----------12-10----------------------|
C|-----------------12-10----------------|
G|-----------------------12-10-11-10-12-|
C|--------------------------------------|

Guitar 2
D|-------------------------------|
A|-------------------------------|
F|-------------------------------|
C|2-5-4-7-4-5\---8-5-8-3h6-4h7p4-|
G|-------------7-----------------|
C|-------------------------------|
               .

Guitar 2
D|--------------------------------|
A|--------------------------------|
F|--------------------------------|
C|--8-5-8---8-5-8---8-5-8---8-5-8-|
G|7-------7-------7-------7-------|
C|--------------------------------|
  .       .       .       .

Guitar 2
D|----------------|
A|----------------|
F|----------------|
C|4h7-4h7-5h8-8p5-|
G|----------------|
C|----------------|

Guitar 2
D|--------------------------------|
A|--------------------------------|
F|--------------------------------|
C|--8-5-8---8-5-8---8-5-8---8-5-8-|
G|7-------7-------7-------7-------|
C|--------------------------------|
  .       .       .       .

Guitar 2
D|--------------------------------|
A|--------------------------------|
F|--------------------------------|
C|--------------------------------|
G|--5-7-8-7-5-7-4-7-8-5-4-5-7-5-4-|
C|7-------------------------------|

Guitar 1+2 (Tremolo)
D|--------------------------------------------------------------|
A|--------------------------------------------------------------|
F|--------------------------------------------------------------|
C|--------------------------------------------------------------|
G|8-----5-8-----5-8-----5-8-----5-8-----5-8-----5-8-----5-8-----|
C|--7-8-----7-8-----7-8-----7-8-----7-8-----7-8-----7-8-----7-8-|
    . .     . .     . .     . .     . .     . .     . .     . .

Guitar 1+2
D|-----------------------------------------|
A|-----------------------------------------|
F|-----------------------------------------|
C|-----------------------------------------|
G|5-8-5--5-8-5--4-7-4--4-7-4--5-8-5--5-8-5-|
C|-----------------------------------------|

Guitar 2
D|10-6----------------------------|
A|-----10-8-----------------------|
F|----------10-8------------------|
C|---------------10-8-------------|
G|--------------------10-8-9-8-10-|
C|--------------------------------|

Guitar 1+2
D|-------------------------------|
A|-------------------------------|
F|101010-9-9-9-12-12-12-14-14-14-|
C|-x-x-x-x-x-x--x--x--x--x--x--x-|
G|-8-8-8-7-7-7-10-10-10-12-12-12-|
C|-------------------------------|

Guitar 2                             x4
D|------------------------------------|
A|------------------------------------|
F|5-6-8-6-7-9-5-6-8-6-5-4-3-1-0-1-2-4-|
C|------------------------------------|
G|------------------------------------|
C|------------------------------------|

Guitar 2
D|------------------------|
A|-------------------8h11-|
F|--------------7h10------|
C|8-7-5-----6h9-----------|
G|8-7-5-5h8---------------|
C|8-7-5-------------------|
  . . .

Guitar 2
D|------------------------------------------------|
A|------------------------------------------------|
F|-----------------------10----6----7---6h7-------|
C|------------------------------------------------|
G|8-6h8t12-6h8t11-666-66----66---66---66----4h5p4-|
C|------------------------------------------------|
                  ... ..    ..   ..   ..

Guitar 2 (Tremolo)
D|---------------------------------|
A|---------------------------------|
F|---------------------------------|
C|---------------------------------|
G|---------------------------------|
C|88888888888888888888888888888888-|

Guitar 2
D|-------------------------------|
A|-------------------------------|
F|-------------------------------|
C|8-7-10-8-7-8-00-7-00-8-8-7-6-8-|
G|8-7-10-8-7-8-00-7-00-8-8-7-6-8-|
C|8-7-10-8-7-8-00-7-00-8-8-7-6-8-|
               ..   ..

Guitar 2
D|------------------------------------------------|
A|------------------------------------------------|
F|-----------------------10----6----7---6h7-------|
C|------------------------------------------------|
G|8-6h8t12-6h8t11-666-66----66---66---66----4h5p4-|
C|------------------------------------------------|
                  ... ..    ..   ..   ..

Guitar 2
D|------------------------|
A|------------------------|
F|--------------(Tremolo)-|
C|--------6p3-5-888888888-|
G|4h7-5h8-----------------|
C|------------------------|

Guitar 1
D|-------------|
A|-------------|
F|-------------|
C|-------------|
G|-------------|
C|1p0-0--0-0-0-|

Guitar 2
D|-------------|
A|-------------|
F|-------------|
C|-------------|
G|-------------|
C|1p0-0--0-0-0-|

Guitar 1
D|-------------|
A|-------------|
F|-------------|
C|-------------|
G|-------------|
C|1p0-0--0-0-0-|

Guitar 2
D|-------------|
A|-------------|
F|-------------|
C|-------------|
G|-------------|
C|1p0-0--0-0-0-|

Guitar 1+2
D|-------------|
A|-------------|
F|-------------|
C|-------------|
G|-------------|
C|1p0-0--0-0-0-|

Guitar 1+2                                x5
D|-----------------------------------------|
A|-----------------------------------------|
F|-----------------------------------------|
C|1p0-0--0-0-0--1p0-0--0-0-0--1p0-0--0-0-0-|
G|1p0-0--0-0-0--1p0-0--0-0-0--1p0-0--0-0-0-|
C|1p0-0--0-0-0--1p0-0--0-0-0--1p0-0--0-0-0-|
  . . .  . . .  . . .  . . .  . . .  . . .

Guitar 1+2
D|---------------------|
A|---------------------|
F|-------------5-5-3-3-|
C|1p0-0--0-0-0-5-5-3-3-|
G|1p0-0--0-0-0-3-3-1-1-|
C|1p0-0--0-0-0---------|
  . . .  . . . . . . .

Guitar 1+2 (Tremolo)
D|-----------|
A|-----------|
F|7-6-7-10-9-|
C|7-6-7-10-9-|
G|5-4-5--8-7-|
C|-----------|

Guitar 1+2
D|--------|
A|--------|
F|--------|
C|4-3-0-1-|
G|4-3-0-1-|
C|4-3-0-1-|
  . . . .

Guitar 1+2 (Tremolo)
D|-------------------------------|
A|-------------------------------|
F|-------------------------------|
C|-------------------------------|
G|4-5-7-8-7-4-5--4-5-7-12-9-10-7-|
C|-------------------------------|

Guitar 1+2 (Tremolo)
D|------------------------------|
A|------------------------------|
F|------------------------------|
C|---------------------7-9-10-7-|
G|4-5-7-8-7-4-5--4-5-7-7-9-10-7-|
C|---------------------7-9-10-7-|

Guitar 1+2 (Tremolo)
D|-------------------------------|
A|-------------------------------|
F|-------------------------------|
C|-------------------------------|
G|4-5-7-8-7-4-5--4-5-7-12-9-10-7-|
C|-------------------------------|

Guitar 1+2 (Tremolo)
D|------------------------------|
A|------------------------------|
F|------------------------------|
C|---------------------7-10-7-9-|
G|4-5-7-8-7-4-5--4-5-7-7-10-7-9-|
C|---------------------7-10-7-9-|

Guitar 1+2
D|--|
A|--|
F|--|
C|1-|
G|1-|
C|1-|

Guitar 1
D|------------------------------|
A|------------------------------|
F|------------------------------|
C|------------------------------|
G|------------------------------|
C|8-8-8-7--4-5-4--8-8-8-7-8-4-5-|

Guitar 2
D|--------------------------------|
A|--------------------------------|
F|--------------------------------|
C|--------------------------------|
G|--------------------------------|
C|888888-7--4-5-4--888888-7-8-4-5-|
  ...... .

Guitar 2
D|--------------------------------|
A|--------------------------------|
F|--------------------------------|
C|--------------------------------|
G|--------------------------------|
C|888888-7--4-5-4--888888-7-8-4-5-|
  ...... .  . . .  ...... . . . .

Guitar 2
D|--------------------------------|
A|--------------------------------|
F|--------------------------------|
C|--------------------------------|
G|----------------------------(4)-|
C|888888-7--4-5-4--888888-7-8-----|

Guitar 2                         x2
D|--------------------------------|
A|--------------------------------|
F|--------------------------------|
C|888888-7--4-5-4--888888-7-8-4-5-|
G|888888-7--4-5-4--888888-7-8-4-5-|
C|888888-7--4-5-4--888888-7-8-4-5-|
  ...... .  . . .  ...... . . . .

Guitar 2
D|------------------------------|
A|------------------------------|
F|------------------------------|
C|8-8-8-7--4-5-4--8-8-8-7-8-4-5-|
G|8-8-8-7--4-5-4--8-8-8-7-8-4-5-|
C|8-8-8-7--4-5-4--8-8-8-7-8-4-5-|

Guitar 2
D|--------------------------------|
A|--------------------------------|
F|--------------------------------|
C|888888-7--4-5-4--888888-7-8-4-5-|
G|888888-7--4-5-4--888888-7-8-4-5-|
C|888888-7--4-5-4--888888-7-8-4-5-|
  ...... .  . . .  ...... . . . .

Guitar 1
D|------------------------------------------------------------------|
A|------------------------------------------------------------------|
F|8---8-777-11---11121212-17---1515-1414-12-111111--19-1717-1515-14-|
C|x---x-xxx--x----x-x-x-x--x----x-x--x-x--x--x-x-x---x--x-x--x-x--x-|
G|6---6-555--9----9101010-15---1313-1212-10--9-9-9--17-1515-1313-12-|
C|------------------------------------------------------------------|

Guitar 1
D|------------------------------------------------------------|
A|------------------------------------------------------------|
F|---19----1414---11111212111111-11-8-7--77--77--77-8-7/8\5/7-|
C|00--x-00--x-x-0--x-x-x-x-x-x-x--x-x-x--xx--xx--xx-x-x-x-x-x-|
G|00-17-00-1212-0--9-91010-9-9-9--9-6-5--55--55--55-6-5/6\3/5-|
C|00----00------0---------------------------------------------|
  ..    ..      .

Guitar 1
D|-----------------------------------------------|
A|-----------------------------------------------|
F|19-17-14-15-12--12-15-14-1412-1211-11-8-87--57-|
C|-x--x--x--x--x---x--x--x--x-x--x-x--x-x-XX--xx-|
G|17-15-12-13-10--10/13\12-1210-10-9--9-6-65--35-|
C|-----------------------------------------------|

Guitar 2                                x2
D|---------------------------------------|
A|---------------------------------------|
F|---------------------------------------|
C|11-11-11-11-1-4444-00-00-00-00-000-000-|
G|11-11-11-11-1-4444-00-00-00-00-000-000-|
C|11-11-11-11-1-4444-00-00-00-00-000-000-|

Guitar 2          x4
D|-----------------|
A|-----------------|
F|-----------------|
C|-----------------|
G|-----------------|
C|00-10-00-10-0-10-|
  ..    ..    .

Guitar 1
D|----------------------------------------------------|
A|----------------------------------------------------|
F|888888888888-8999-111111111111111111111111-11121212-|
C|xxxxxxxxxxxx-xxxx--x-x-x-x-x-x-x-x-x-x-x-x--x-x-x-x-|
G|666666666666-6777--9-9-9-9-9-9-9-9-9-9-9-9--9101010-|
C|----------------------------------------------------|

Guitar 1
D|----------|
A|----------|
F|17-14/-19-|
C|-x--x---x-|
G|15-12/-17-|
C|----------|

Guitar 1                 x2
D|------------------------|
A|------------------------|
F|------------------------|
C|0-0-0-0-0-0-0-0-0-0-0-0-|
G|0-0-0-0-0-0-0-0-0-0-0-0-|
C|0-0-0-0-0-0-0-0-0-0-0-0-|
  . . . . . . . . . . . .

Guitar 1                             x2
D|------------------------------------|
A|------------------------------------|
F|------------------------------------|
C|------------------14h17-------------|
G|------12h15-14h17-------14h17-12h15-|
C|12h15-------------------------------|

Guitar 1                             x2
D|------------------------------------|
A|------------------------------------|
F|------------------------------------|
C|------------------17h20-------------|
G|------12h15-14h17-------14h17-12h15-|
C|12h15-------------------------------|

Guitar 1                             x2
D|------------------------------------|
A|------------------------------------|
F|------------------------------------|
C|------------------14h17-------------|
G|------12h15-14h17-------14h17-12h15-|
C|12h15-------------------------------|

Guitar 1
D|---------------------------------------------------------------------21-|
A|------------------------------------------------------------------19----|
F|------------------------------------------------------------18h21-------|
C|------------------17h20-------------------------------17h20-------------|
G|------12h15-14h17-------14h17-12h15-------12h15-14h17-------------------|
C|12h15-------------------------------12h15-------------------------------|
comments
We did not receive enough feedback on this tab! Please rate:
print report bad tab
1 2 3 4 5
I want to post or [tab]
guest
You may want to rate the tab now too:
select rating
Please do not post tabs as comments. Select "correction" instead!