Oops, an error
Loading. Please wait.

Confessions Of What Ive Done Tab

ver1
ver1

Whole song

Interactive

More versions @911Tabs.com
9,272 views 3 this week
5 commentsread comments
1 2 3 4 5
excellent!
x 8
Autoscroll
+/-
esc
set tempo
stop
Contributor
WARNING: You are trying to view
                                    content from Ultimate-Guitar.com
                                    in an unauthorized application,
                                    which is prohibited.

                                    Please use an official Ultimate
                                    Guitar Tabs application for iPhone,
                                    iPad or Android to access legitimate
                                    chords, guitar, bass, and drum tabs
                                    from Ultimate-Guitar.com database.

                                    Type "ultimate guitar tabs" in Apple
                                    App Store's or Android Market's
                                    search to find the application.
-------------------------------------------------------------------------------
             Confessions Of What I've Done - Here Comes The Kraken
-------------------------------------------------------------------------------


Tabbed by: Zeusimo
Myspace - http://myspace.com/jessei_f
Youtube - http://www.youtube.com/zeusimo
Twitter - http://twitter.com/zeusimo
Ultimate-Guitar - http://profile.ultimate-guitar.com/zeusimo/
Guitar Cover - http://www.youtube.com/watch?v=_ODXgA2HX3A

Tuning: Drop C (C-G-C-F-A-D)

Not Done Yet I'll Upload Guitar 1 Later
If You Find An Error Pease Tell Me
Enjoy This Shit XD

Guitar 1+2
D|--------------------------|
A|--------------------------|
F|--------------------------|
C|--------------------------|
G|0000-000000---------------|
C|0000-000000-11-8-7-10-9-7-|
  .... ......

Guitar 1+2
D|----------------------------|
A|----------------------------|
F|----------------------------|
C|11-0-8-0-7-0-(10)-0-9-0-7-0-|
G|----------------------------|
C|----------------------------|

Guitar 2
D|-----------------------|
A|-----------------------|
F|-----------------------|
C|---------------6---(6)-|
G|0-000000-4-8-9---9-----|
C|0-000000---------------|
    ......

Guitar 2
D|---------------------|
A|---------------------|
F|---------------------|
C|---------2h6---------|
G|0-000000-----3h5-----|
C|0-000000---------3h4-|
    ......

Guitar 2
D|---------------------|
A|---------------------|
F|---------------------|
C|---------------------|
G|0-000000-8p5-3h5-----|
C|0-000000---------7h8-|
    ......

Guitar 2
D|---------------------------------|
A|---------------------------------|
F|---------------------------------|
C|---------------------------------|
G|0-000000-5h8-3h5-----------------|
C|0-000000---------7h8-5h7-3h5-1h2-|
    ......

Guitar 2
D|------------|
A|------------|
F|------------|
C|0-0-0-0-----|
G|0-0-0-0-10\-|
C|0-0-0-0-10\-|

Guitar 2
D|------------------------|
A|------------------------|
F|------------------------|
C|------4-------------(4)-|
G|5-7-8---8-7-5-7-(8)-----|
C|------------------------|
  . . .   . . . .

Guitar 2
D|----------------------------|
A|----------------------------|
F|----------------------------|
C|------4-----------8-7-5-7-4-|
G|5-7-8---8-7-5-7-8-8-7-5-7-4-|
C|------------------8-7-5-7-4-|
  . . .   . . . . .

Guitar 2
D|---------------------|
A|---------------------|
F|---------------------|
C|--------(4)-5-5-5555-|
G|5-7-(8)-----5-5-5555-|
C|------------5-5-5555-|
  . .

Guitar 2
D|-------------------------------------------|
A|-------------------------------------------|
F|---------13-17-14-/17-14-12-14-15-14-12-14-|
C|------15-----------------------------------|
G|---17--------------------------------------|
C|19-----------------------------------------|

Guitar 2
D|-----------------------------------|
A|-----------------------------------|
F|---------13-17-14-/17-14-12-14-----|
C|------15-----------------------5-2-|
G|---17--------------------------5-2-|
C|19-----------------------------5-2-|
                                 . .

Guitar 2                                    x2
D|-------------------------------------------|
A|-------------------------------------------|
F|---------13-17-14-/17-14-12-14-15-14-12-14-|
C|------15-----------------------------------|
G|---17--------------------------------------|
C|19-----------------------------------------|

Guitar 2              x8
D|---------------------|
A|---------------------|
F|---------12h14-13h17-|
C|------15-------------|
G|---17----------------|
C|19-------------------|

Guitar 2
D|----------------------------------------------------|
A|----------------------------------------------------|
F|----------------------------------------------------|
C|00-00-000000-00-00-000000-00-00-000000-00-00-00-----|
G|00-00-000000-00-00-000000-00-00-000000-00-00-00-12\-|
C|00-00-000000-00-00-000000-00-00-000000-00-00-00-12\-|
  .. .. ...... .. .. ...... .. .. ...... .. .. ..

Guitar 2                                x4
D|---------------------------------------|
A|---------------------------------------|
F|---------------------------------------|
C|---------------------------------------|
G|6-9-5-8-8-11-11\10p8-7-10-6-9------(2)-|
C|------------------------------0000-----|
                                ....

Guitar 2
D|------------------------------------|
A|------------------------------------|
F|------------------------------------|
C|------------------------------------|
G|6-9-5-8-6-9-7-10-6-9-7-10-9-12-8-11-|
C|------------------------------------|

Guitar 2                                     x2
D|--------------------------------------------|
A|--------------------------------------------|
F|--------------------------------------------|
C|101010101010101010101010--------------------|
G|101010101010101010101010------3333-1111-(2)-|
C|000000000000000000000000-7777---------------|
  ........................

Guitar 2
D|--------------------------------------------------------------------|
A|--------------------------------------------------------------------|
F|--------------------------------------------------------------------|
C|0-----0--0-0-0--0-0-0--0-0-0--0-0-0--0-0-0--0-0---------------------|
G|0-12\-0--0-0-0--0-0-0--0-0-0--0-0-0--0-0-0--0-0-------3333-1111-(2)-|
C|0-12\-0--0-0-0--0-0-0--0-0-0--0-0-0--0-0-0--0-0--7777---------------|
  .     .  . . .  . . .  . . .  . . .  . . .  . .

Guitar 2
D|---------------------------------------------------------------|
A|---------------------------------------------------------------|
F|---------------------------------------------------------------|
C|0--0-0-0--0-0-0--0-0-0--0-0-0--0-0-0--0------------------------|
G|0--0-0-0--0-0-0--0-0-0--0-0-0--0-0-0--0-12\------3333-1111-(2)-|
C|0--0-0-0--0-0-0--0-0-0--0-0-0--0-0-0--0-12\-7777---------------|
  .  . . .  . . .  . . .  . . .  . . .  .

Guitar 2
D|-----------|
A|-----------|
F|-----------|
C|0-12-11-10-|
G|0-12-11-10-|
C|0-12-11-10-|

Guitar 2
D|------------------------------------|
A|------------------------------------|
F|------------------------------------|
C|------------------------------------|
G|----888-----555-----8-7-5-9-8-6-(3)-|
C|000-----000-----000-----------------|
  ...     ...     ...

Guitar 2
D|------------------------------------------|
A|--------------------------------------5h8-|
F|----------------------------------5h8-----|
C|------------------------------5h8---------|
G|----888-----555-----8-7-5-5h8-------------|
C|000-----000-----000-----------------------|
  ...     ...     ...

Guitar 2
D|--------------------------------------------|
A|--------------------------------------------|
F|--------------------------------------------|
C|--------------------------------------------|
G|----8-7-5h7-----9-8-6h8-----8-7-5-9-8-6-(3)-|
C|000---------000---------000-----------------|
  ...         ...         ...

Guitar 2
D|--------------------------------------------------|
A|----------------------------------------------5h8-|
F|------------------------------------------5h8-----|
C|--------------------------------------5h8---------|
G|----8-7-5h7-----9-8-6h8-----8-7-5-5h8-------------|
C|000---------000---------000-----------------------|
  ...         ...         ...

Guitar 2
D|--------------------------------------------|
A|--------------------------------------------|
F|--------------------------------------------|
C|--------------------------------------------|
G|----8-7-5h7-----9-8-6h8-----8-7-5-9-8-6-(3)-|
C|000---------000---------000-----------------|
  ...         ...         ...

Guitar 2
D|--------------------------------------------------|
A|----------------------------------------------5h8-|
F|------------------------------------------5h8-----|
C|--------------------------------------5h8---------|
G|----8-7-5h7-----9-8-6h8-----8-7-5-5h8-------------|
C|000---------000---------000-----------------------|
  ...         ...         ...

Guitar 1
D|---------------13-17-20-17-13----------13-17-|
A|------------15----------------15----15-------|
F|---------14----------------------14----------|
C|------15-------------------------------------|
G|---17----------------------------------------|
C|19-------------------------------------------|

Guitar 1
D|151515151515-17-141414141414-16-131313131313-15-|
A|------------------------------------------------|
F|------------------------------------------------|
C|------------------------------------------------|
G|------------------------------------------------|
C|------------------------------------------------|

Guitar 1
D|10----8------------------10----------|
A|---11---9-10-12-14-11-13----13-12-10-|
F|-------------------------------------|
C|-------------------------------------|
G|-------------------------------------|
C|-------------------------------------|

Guitar 1
D|------------------------------------------------------------------|
A|12p9-12p9-12p9-12p9-12p9-12p9-15p12-15p12-15p12-15p12-15p12-15p12-|
F|------------------------------------------------------------------|
C|------------------------------------------------------------------|
G|------------------------------------------------------------------|
C|------------------------------------------------------------------|

Guitar 1
D|13-17-13----------13-17-12-15-12----------12-15-|
A|---------15----15----------------13----13-------|
F|------------14----------------------12----------|
C|------------------------------------------------|
G|------------------------------------------------|
C|------------------------------------------------|

Guitar 1
D|13-17-13----------13-17-12h15-12h15-12h15-15p12-|
A|---------15----15-------------------------------|
F|------------14----------------------------------|
C|------------------------------------------------|
G|------------------------------------------------|
C|------------------------------------------------|

Guitar 1
D|13-17-13----------13-17-12-15-12----------12-15-|
A|---------15----15----------------13----13-------|
F|------------14----------------------12----------|
C|------------------------------------------------|
G|------------------------------------------------|
C|------------------------------------------------|

Guitar 1
D|13-17-13----------13-17-12h15-12h15-12h15-15p12-|
A|---------15----15-------------------------------|
F|------------14----------------------------------|
C|------------------------------------------------|
G|------------------------------------------------|
C|------------------------------------------------|

Guitar 1                                     Guitar 2                                  x4
D|---------------13-17---------------13-18-| D|---------------13-17---------------13-18-|
A|------------15------------------15-------| A|------------15------------------15-------|
F|---------14------------------14----------| F|---------14------------------14----------|
C|------15------------------15-------------| C|------15------------------15-------------|
G|---17------------------17----------------| G|---17------------------17----------------|
C|19------------------19-------------------| C|19------------------19-------------------|

Guitar 1
D|---------------13-15---------------13-16-|
A|------------15------------------15-------|
F|---------14------------------14----------|
C|------15------------------15-------------|
G|---17------------------17----------------|
C|19------------------19-------------------|

Guitar 1
D|---------------13-17---------------13-18---------------13-15---------------13-16-|
A|------------15------------------15------------------15------------------15-------|
F|---------14------------------14------------------14------------------14----------|
C|------15------------------15------------------15------------------15-------------|
G|---17------------------17------------------17------------------17----------------|
C|19------------------19------------------19------------------19-------------------|

Guitar 1
D|---------------13-17-20-17-13----------13-17-|
A|------------15----------------15----15-------|
F|---------14----------------------14----------|
C|------15-------------------------------------|
G|---17----------------------------------------|
C|19-------------------------------------------|

Guitar 1+2
D|-------------13-17-13----------13-17-| 
A|----------15----------15----15-------|
F|-------------------------14----------|
C|0-000-000----------------------------|
G|0-000-000----------------------------|
C|0-000-000----------------------------|
  . ... ...

Guitar 1                             Guitar 2
D|-------------8-12-8---------8-12-| D|-------------13-17-13----------13-17-|
A|----------10--------10---10------| A|----------15----------15----15-------|
F|-----------------------9---------| F|-------------------------14----------|
C|0-000-000------------------------| C|0-000-000----------------------------|
G|0-000-000------------------------| G|0-000-000----------------------------|
C|0-000-000------------------------| C|0-000-000----------------------------|
  . ... ...                            . ... ...

Guitar 1+2
D|-----13-17-13----------13-17-|
A|--15----------15----15-------|
F|-----------------14----------|
C|0----------------------------|
G|0----------------------------|
C|0----------------------------|
  .

Guitar 1                             Guitar 2
D|-------------8-12-8---------8-12-| D|-------------13-17-13----------13-17-|
A|----------10--------10---10------| A|----------15----------15----15-------|
F|-----------------------9---------| F|-------------------------14----------|
C|0-000-000------------------------| C|0-000-000----------------------------|
G|0-000-000------------------------| G|0-000-000----------------------------|
C|0-000-000------------------------| C|0-000-000----------------------------|
  . ... ...                            . ... ...

Guitar 1+2
D|-------------13-17-13----------13-17-|
A|----------15----------15----15-------|
F|-------------------------14----------|
C|0-000-000----------------------------|
G|0-000-000----------------------------|
C|0-000-000----------------------------|
  . ... ...

Guitar 1                             Guitar 2
D|-------------8-12-8---------8-12-| D|-------------13-17-13----------13-17-|
A|----------10--------10---10------| A|----------15----------15----15-------|
F|-----------------------9---------| F|-------------------------14----------|
C|0-000-000------------------------| C|0-000-000----------------------------|
G|0-000-000------------------------| G|0-000-000----------------------------|
C|0-000-000------------------------| C|0-000-000----------------------------|
  . ... ...                            . ... ...

Guitar 1+2
D|-------------13-17-13----------13-17---|
A|----------15----------15----15---------|
F|-------------------------14------------|
C|0-000-000----------------------------0-|
G|0-000-000----------------------------0-|
C|0-000-000----------------------------0-|
  . ... ...                            .

Guitar 2
D|--------------------------------|
A|--------------------------------|
F|--------------------------------|
C|4-1-0-1-------4-------------(4)-|
G|4-1-0-1-5-7-8---8-7-5-7-(8)-----|
C|4-1-0-1-------------------------|
  . . . . . . . . . . . .

Guitar 2
D|---------------------------------------|
A|---------------------------------------|
F|---------------------------------------|
C|------4--------------------------------|
G|5-7-8---8-7-5-7-8-6-9-5-8-8-11-11/10p8-|
C|---------------------------------------|
  . . . . . . . . .

Guitar 2
D|------------------------|
A|------------------------|
F|------------------------|
C|------4-------------(4)-|
G|5-7-8---8-7-5-7-(8)-----|
C|------------------------|
  . . . . . . . .

Guitar 2
D|----------------------------|
A|----------------------------|
F|----------------------------|
C|------4-----------8-7-5-7-4-|
G|5-7-8---8-7-5-7-8-8-7-5-7-4-|
C|------------------8-7-5-7-4-|
  . . . . . . . . .

Guitar 2
D|------------------------|
A|------------------------|
F|------------------------|
C|------4-------------(4)-|
G|5-7-8---8-7-5-7-(8)-----|
C|------------------------|
  . . . . . . . .

Guitar 2                                x2
D|---------------------------------------|
A|---------------------------------------|
F|---------------------------------------|
C|---------------------------------------|
G|6-9-5-8-8-11-11\10p8-7-10-6-9------(2)-|
C|------------------------------0000-----|
                                ....

Guitar 2
D|-------------------|
A|-------------------|
F|--------9h12-10h13-|
C|0----10------------|
G|0-12---------------|
C|0------------------|
comments
print report bad tab
5 comments total. Showing first comments.
+1 reply
DrappedInBlack wrote on November 30 2008, 02:58 pm

xD finally someone tabs them >.< i think they play in drop B though not D

0 reply
MagnetGenocide wrote on December 5 2008, 05:37 pm

can anyone confirm this???

+1 reply
Jdfs1 wrote on July 6 2009, 10:01 pm

Good Tab. And they play in drop C, as this tab is. 5*

I want to post or [tab]
guest
You may want to rate the tab now too:
select rating
Please do not post tabs as comments. Select "correction" instead!