Oops, an error
Loading. Please wait.

Dont Fail Me Darko Tab

ver1
ver1

Whole song

Interactive

More versions @911Tabs.com
13,618 views 24 this week
5 commentsread comments
1 2 3 4 5
excellent!
x 7
Autoscroll
+/-
esc
set tempo
stop
Contributor
Hey! There's an official Ultimate Guitar app which is ideal
for learning songs when you're away from computer. Get the app
WARNING: You are trying to view
                                    content from Ultimate-Guitar.com
                                    in an unauthorized application,
                                    which is prohibited.

                                    Please use an official Ultimate
                                    Guitar Tabs application for iPhone,
                                    iPad or Android to access legitimate
                                    chords, guitar, bass, and drum tabs
                                    from Ultimate-Guitar.com database.

                                    Type "ultimate guitar tabs" in Apple
                                    App Store's or Android Market's
                                    search to find the application.
-------------------------------------------------------------------------------
               Don't Fail Me Darko - Here Comes The Kraken
-------------------------------------------------------------------------------


Tabbed by: Zeusimo
Myspace - http://myspace.com/jessei_f
Youtube - http://www.youtube.com/zeusimo
Twitter - http://twitter.com/zeusimo
Ultimate-Guitar - http://profile.ultimate-guitar.com/zeusimo/
Guitar Cover - http://www.youtube.com/watch?v=He9HZLFfy3I

Tuning: Drop C (C-G-C-F-A-D)

Not Done Yet I'll Upload Guitar 1 Later
If You Find An Error Pease Tell Me
Enjoy This Shit XD

Guitar 2
D|----------------------------------|
A|----------------------------------|
F|--------------------------5h8-----|
C|------5h8-3h6---------5h8-----5h8-|
G|--5h8---------3h6-5h8-------------|
C|8---------------------------------|

Guitar 2           x2
D|------------------|
A|------------------|
F|------------------|
C|---------7h10-----|
G|----7h10------5h8-|
C|5h8---------------|

Guitar 2             x2
D|--------------------|
A|--------------------|
F|--------------------|
C|----------7h10------|
G|-----7h10------7h10-|
C|7h10----------------|

Guitar 2             x2
D|--------------------|
A|--------------------|
F|--------------------|
C|----------10p7------|
G|-----10p7------10p7-|
C|10p7----------------|

Guitar 2
D|--------------------------------|
A|--------------------------------|
F|--------------------------------|
C|--------------------------------|
G|8-8-8-8-7-7-8-7-5-5-5-5-4-5-8-7-|
C|--------------------------------|

Guitar 2
D|--------------------|
A|--------------------|
F|--------------------|
C|--------------------|
G|00-12-00-10-8\7-5-4-|
C|--------------------|
  ..    ..

Guitar 2
D|--------------------------------------------|
A|--------------------------------------------|
F|--------------------------------------------|
C|----------------------------------------3h6-|
G|7-5-4-5-----3h6p3-----7-5-4-5-----3h6p3-----|
C|--------3h6-------6p3---------3h6-----------|

Guitar 2
D|--------------------|
A|--------------------|
F|--------------------|
C|--------------------|
G|00-12-00-10-8\7-5-4-|
C|--------------------|
  ..    ..

Guitar 2                                             x2
D|----------------------------------------------------|
A|----------------------------------------------------|
F|----------------------------------------------------|
C|----------------------------------------------------|
G|9999-88-1010-99-88888-555-1010-99-88-555-1010-99-88-|
C|----------------------------------------------------|
                        ...            ...

Guitar 2                             x2
D|------------------------------------|
A|------------------------------------|
F|------------------------------------|
C|-------------8h12-------------------|
G|----8h12--------------8h12----------|
C|000------000------000------000-8h12-|
  ...      ...      ...      ...

Guitar 2
D|------------------------------------|
A|------------------------------------|
F|------------------------------------|
C|------------------------------------|
G|----12p8-----12p8-----12p8-----12p8-|
C|888------888------888------888------|
  ...      ...      ...      ...

Guitar 2
D|----------------------------------------------------|
A|----------------------------------------------------|
F|----------------------------------------------------|
C|----------------------------------------------------|
G|-------12p10--------12p10--------12p10--------12p10-|
C|101010-------101010-------101010-------101010-------|
   . . .        . . .        . . .        . . .

Guitar 2                             x2
D|------------------------------------|
A|------------------------------------|
F|------------------------------------|
C|-------------8h12-------------------|
G|----8h12--------------8h12----------|
C|000------000------000------000-8h12-|
  ...      ...      ...      ...

Guitar 2
D|------------------------------------|
A|------------------------------------|
F|------------------------------------|
C|------------------------------------|
G|----12p8-----12p8-----12p8-----12p8-|
C|888------888------888------888------|
  ...      ...      ...      ...

Guitar 2
D|----------------------------------------------------|
A|----------------------------------------------------|
F|----------------------------------------------------|
C|----------------------------------------------------|
G|-------12p10--------12p10--------12p10--------12p10-|
C|101010-------101010-------101010-------101010-------|
   . . .        . . .        . . .        . . .

Guitar 2
D|--------------------------------------------|
A|--------------------------------------------|
F|--------------------------------------------|
C|--------------------------------------------|
G|12121212121212121212-77777-88888-5555555555-|
C|--------------------------------------------|

Guitar 2
D|---------------------------------|
A|---------------------------------|
F|---------------------------------|
C|---------------------------------|
G|77777-88888-10101010101010101010-|
C|---------------------------------|

Guitar 2
D|---------------------------------------------|
A|---------------------------------------------|
F|---------------------------------------------|
C|---------------------------------------------|
G|88888-77777-12121212121212121212-77777-88888-|
C|---------------------------------------------|

Guitar 2
D|--------------------------------------------|
A|--------------------------------------------|
F|--------------------------------------------|
C|--------------------------------------------|
G|12121212121212121212-77777-88888-5555555555-|
C|--------------------------------------------|

Guitar 2
D|---------------------------------|
A|---------------------------------|
F|---------------------------------|
C|---------------------------------|
G|77777-88888-10101010101010101010-|
C|---------------------------------|

Guitar 2
D|---------------------------------------------|
A|---------------------------------------------|
F|---------------------------------------------|
C|---------------------------------------------|
G|88888-77777-12121212121212121212-77777-88888-|
C|---------------------------------------------|

Guitar 2
D|--------------------------------------------|
A|--------------------------------------------|
F|--------------------------------------------|
C|--------------------------------------------|
G|12121212121212121212-77777-88888-5555555555-|
C|--------------------------------------------|

Guitar 2
D|---------------------------------|
A|---------------------------------|
F|---------------------------------|
C|---------------------------------|
G|77777-88888-10101010101010101010-|
C|---------------------------------|

Guitar 2
D|-------------------------------------------|
A|-------------------------------------------|
F|-------------------------------------------|
C|-------------------------------------------|
G|88888-77777-12121212121212121212-77777-12\-|
C|---------------------------------------12\-|

Guitar 2
D|----------|
A|----------|
F|----------|
C|----------|
G|----------|
C|0-0-0-0-0-|

Guitar 2                                                                   x4
D|----------------------12-15-15-12-----------------------------------12h16-|
A|-------------------13-------------13-----------------------------13-------|
F|----------------12-------------------12-----------------------12----------|
C|-------------13-------------------------13-----------------13-------------|
G|----------15-------------------------------15-----------15----------------|
C|0-0-0-0-0-------------------------------------0-0-0-0-0-------------------|

Guitar 2
D|----------------------12h16p12-------------|
A|-------------------13----------13----------|
F|----------------12----------------12-------|
C|-------------13----------------------13----|
G|----------15----------------------------15-|
C|0-0-0-0-0----------------------------------|

Guitar 2                                       x3
D|----------------------12-16-15-12-------------|
A|-------------------13-------------13----------|
F|----------------12-------------------12-------|
C|-------------13-------------------------13----|
G|----------15-------------------------------15-|
C|0-0-0-0-0-------------------------------------|

Guitar 2
D|--------------------------------|
A|--------------------------------|
F|--------------------------------|
C|--------------------------------|
G|5-5-5-5-5-5-5-5-5-5-5-5-5-5-5-5-|
C|--------------------------------|

Guitar 2
D|--------------------------------|
A|--------------------------------|
F|--------------------------------|
C|--------------------------------|
G|4-4-4-4-4-4-4-4-7-7-7-7-8-8-8-8-|
C|--------------------------------|

Guitar 2                               x2
D|--------------------------------------|
A|--------------------------------------|
F|--------------------------------------|
C|--------------------------------------|
G|5-4h5-7-5-4h5-8-5-4h5-7-1010-88-77-55-|
C|--------------------------------------|

Guitar 2                               x2
D|--------------------------------------|
A|--------------------------------------|
F|--------------------------------------|
C|--------------------------------------|
G|5-4h5-7-5-4h5-7-5-4h5-7-1010-88-77-55-|
C|--------------------------------------|

Guitar 2
D|-------------|
A|-------------|
F|-------------|
C|0-0-0-00-0-0-|
G|0-0-0-00-0-0-|
C|0-0-0-00-0-0-|
  . . . .. . .

Guitar 2
D|-------------|
A|-------------|
F|-------------|
C|0-000-0-0-00-|
G|0-000-0-0-00-|
C|0-000-0-0-00-|
  . ... . . ..

Guitar 2    x6
D|-----------|
A|-----------|
F|-----------|
C|000-0-0-00-|
G|000-0-0-00-|
C|000-0-0-00-|
  ... . . ..

Guitar 2
D|--------|
A|--------|
F|--------|
C|000-0-0-|
G|000-0-0-|
C|000-0-0-|
  ... . .

Guitar 2
D|------------------------------------|
A|------------------------------------|
F|---------7----------------7777------|
C|-------7---7------------7------8888-|
G|---5-8-------8-5----5-8-------------|
C|10---------------10-----------------|
   .                .

Guitar 2
D|-------------------------------------|
A|-----------------8-------11-10-7h8p5-|
F|---------7---------7-8-9-------------|
C|-------7---7-------------------------|
G|---5-8-------8-5---------------------|
C|10-----------------------------------|
   .

Guitar 2
D|------------------------------------|
A|------------------------------------|
F|---------7----------------7777------|
C|-------7---7------------7------8888-|
G|---5-8-------8-5----5-8-------------|
C|10---------------10-----------------|
   .                .

Guitar 2
D|-------------------------------------|
A|-----------------8-------11-10-7h8p5-|
F|---------7---------7-8-9-------------|
C|-------7---7-------------------------|
G|---5-8-------8-5---------------------|
C|10-----------------------------------|
   .

Guitar 2        x3
D|---------------|
A|---------------|
F|---------------|
C|---------------|
G|---7h10----5h8-|
C|00------00-----|
  ..      ..

Guitar 2
D|-----------------|
A|-----------------|
F|-----------------|
C|-----------------|
G|-----------------|
C|7h10-5h8-4h7-5h8-|

Guitar 2        x3
D|---------------|
A|---------------|
F|---------------|
C|---------------|
G|---7h10----5h8-|
C|00------00-----|
  ..      ..

Guitar 2
D|---------------|
A|---------------|
F|---------------|
C|---------------|
G|8h12-7h10-8h11-|
C|---------------|

Guitar 2
D|-------------------------------|
A|-------------------------------|
F|-------------------------------|
C|-------------------------------|
G|-------------------------------|
C|88888-55-77-88-1010-1212121212-|

Guitar 2
D|------------------------|
A|------------------------|
F|------------------------|
C|------------------------|
G|------------------------|
C|1414-1212-1010-88-77777-|

Guitar 2
D|---------------------------------------|
A|---------------------------------------|
F|---------------------------------------|
C|---------------------------------------|
G|---------------------------------------|
C|55-77-88-1010-1212121212-151515-141414-|

Guitar 2
D|-------------------------------|
A|-------------------------------|
F|-------------------------------|
C|-------------------------------|
G|-------------------------------|
C|88888-55-77-88-1010-1212121212-|

Guitar 2
D|------------------------|
A|------------------------|
F|------------------------|
C|------------------------|
G|------------------------|
C|1414-1212-1010-88-77777-|

Guitar 2
D|---------------------------------------|
A|---------------------------------------|
F|---------------------------------------|
C|---------------------------------------|
G|---------------------------------------|
C|55-77-88-1010-1212121212-151515-141414-|

Guitar 1
D|-------------------13-17-13----------17p13-17p13-17p13-------|
A|----------------15----------15----15-------------------15----|
F|---14\-------14----------------14-------------------------14-|
C|12--------15-------------------------------------------------|
G|-------17----------------------------------------------------|
C|-------------------------------------------------------------|

Guitar 1
D|------------13-17-13----------17p13----------|
A|---------15----------15----15-------15-------|
F|------14----------------14-------------14----|
C|---15----------------------------------------|
G|17----------------------------------------17-|
C|---------------------------------------------|

Guitar 1
D|---------------------------------------------13-17b-|
A|---------------14-15-17-15-14-14h15p14-15-13--------|
F|---------14-15--------------------------------------|
C|---14-15--------------------------------------------|
G|17--------------------------------------------------|
C|----------------------------------------------------|

Guitar 1
D|17p13----------17p13-17p13-17p13----------17p13-17p13-|
A|------15----15-------------------15----15-------------|
F|---------14-------------------------14----------------|
C|------------------------------------------------------|
G|------------------------------------------------------|
C|------------------------------------------------------|

Guitar 1
D|15p12----------15p12-15p12-15p12----------15p12-15p12-|
A|------13----13-------------------13----13-------------|
F|---------12-------------------------12----------------|
C|------------------------------------------------------|
G|------------------------------------------------------|
C|------------------------------------------------------|

Guitar 1
D|12p8---------12p8---------12p8---------12p8---------|
A|-----10---10------10---10------10---10------10---10-|
F|--------9------------9------------9------------9----|
C|----------------------------------------------------|
G|----------------------------------------------------|
C|----------------------------------------------------|

Guitar 1
D|10p6-------12p8---------15p12----------17-17/22--------|
A|-----8---8------10---10-------13----13-----------------|
F|-------7-----------9-------------12-------------12ah---|
C|-----------------------------------------------------0-|
G|-----------------------------------------------------0-|
C|-----------------------------------------------------0-|

Guitar 2                                     x2
D|--------------------------------------------|
A|--------------------------------------------|
F|--------------------------------------------|
C|0--000-0-0-0--000-0-0-0--000-0-0-0--0-0-----|
G|0--000-0-0-0--000-0-0-0--000-0-0-0--0-0-12\-|
C|0--000-0-0-0--000-0-0-0--000-0-0-0--0-0-12\-|
  .  ... . . .  ... . . .  ... . . .  . .

Guitar 2
D|------------------------------------------|
A|------------------------------------------|
F|------------------------------------------|
C|0--0000-0-0-0--0000-0-0-0--0000-0-0-0-0-8-|
G|0--0000-0-0-0--0000-0-0-0--0000-0-0-0-0-8-|
C|0--0000-0-0-0--0000-0-0-0--0000-0-0-0-0-8-|
  .  .... . . .  .... . . .  .... . . . . .

Guitar 2
D|-----------------------|
A|-----------------------|
F|-----------------------|
C|0--0--0--0--0--0--0--0-|
G|0--0--0--0--0--0--0--0-|
C|0--0--0--0--0--0--0--0-|
  .  .  .  .  .  .  .  .

Guitar 2
D|----------------------------------|
A|----------------------------------|
F|----------------------------------|
C|7-5-7-5-7-5-7-5-7-5-7-5-7-5-7-5-0-|
G|5-8-5-8-5-8-5-8-5-8-5-8-5-8-5-8-0-|
C|--------------------------------0-|
                                  .
comments
print report bad tab
5 comments total. Showing first comments.
-1 reply
Fatmann28 wrote on March 15 2009, 12:01 am

stop Being Lazy and finish it you boob!!!

+1 reply
Disturbed_EMG wrote on April 21 2010, 09:27 am


Guitar 2 x4
D|----------------------12-15-15-12-----------------------------------12h16-|
A|-------------------13-------------13-----------------------------13-------|
F|----------------12-------------------12-----------------------12----------|
C|-------------13-------------------------13-----------------13-------------|
G|----------15-------------------------------15-----------15----------------|
C|0-0-0-0-0-------------------------------------0-0-0-0-0-------------------|


This should be:

[tab}
Guitar 2 x4
D|----------------------13-17-13------------------------------------13h17-|
A|-------------------15----------15-----------------------------15--------|
F|----------------14----------------14-----------------------14-----------|
C|-------------15----------------------15-----------------15--------------|
G|----------17----------------------------17-----------17-----------------|
C|0-0-0-0-0----------------------------------0-0-0-0-0--------------------|

0 reply
sc_stanger wrote on October 24 2010, 03:06 pm

adding the palm mutes would make a tab like this so much easier to follow. but it's a very small flaw so 5 stars :)

I want to post or [tab]
guest
You may want to rate the tab now too:
select rating
Please do not post tabs as comments. Select "correction" instead!