Oops, an error
Loading. Please wait.

I Should Have Asked Where The Remote Control Was Before I Killed You Tab

3,127 views 1 this week
no commentswrite comment
1 2 3 4 5
excellent!
x 3
Autoscroll
+/-
esc
set tempo
stop
Contributor
NEW! There's an official Ultimate Guitar app which is ideal
for learning songs when you're away from computer. Get the app
WARNING: You are trying to view
                                    content from Ultimate-Guitar.com
                                    in an unauthorized application,
                                    which is prohibited.

                                    Please use an official Ultimate
                                    Guitar Tabs application for iPhone,
                                    iPad or Android to access legitimate
                                    chords, guitar, bass, and drum tabs
                                    from Ultimate-Guitar.com database.

                                    Type "ultimate guitar tabs" in Apple
                                    App Store's or Android Market's
                                    search to find the application.
-------------------------------------------------------------------------------
  I Should Have Asked Where The Remote Control Was Before I killed You - HCTK
-------------------------------------------------------------------------------


Tabbed by: Zeusimo
Myspace - http://myspace.com/jessei_f
Youtube - http://www.youtube.com/zeusimo
Twitter - http://twitter.com/zeusimo
Ultimate-Guitar - http://profile.ultimate-guitar.com/zeusimo/
Guitar Cover - http://www.youtube.com/watch?v=Tq3pDZaFUsY

Tuning: Drop C (C-G-C-F-A-D)

I Could Not Tab Guitar 1 Part Of The Interlude Because It Was Simply Too Quiet
If You Find An Error Pease Tell Me
Enjoy This Shit XD

Guitar 1+2
D|--------------------------|
A|--------------------------|
F|--------------------------|
C|5-2-0---(1)---(2)-5-2-0-1-|
G|5-2-0-------------5-2-0-1-|
C|5-2-0-1-----2-----5-2-0-1-|
  . . . .     .     . . . .

Guitar 1+2       x2
D|----------------|
A|----------------|
F|----------------|
C|5-2-0-1-2-1-0-1-|
G|5-2-0-1-2-1-0-1-|
C|5-2-0-1-2-1-0-1-|
  . . . . . . . .

Guitar 1+2
D|----------|
A|----------|
F|----------|
C|5-2-0-1-2-|
G|5-2-0-1-2-|
C|5-2-0-1-2-|
  . . . . .

Guitar 1+2
D|--------------------------------|
A|--------------------------------|
F|--------------------------------|
C|------------------------5-5-2-2-|
G|--------2-3---------2-3-5-5-2-2-|
C|5-2-0-1-----5-2-0-1-----5-5-2-2-|
                          . . . .

Guitar 1+2   x3
D|------------|
A|------------|
F|------------|
C|------------|
G|--------2-3-|
C|5-2-0-1-----|

Guitar 1+2   x4
D|------------|
A|------------|
F|------------|
C|5-2-0-1-2-1-|
G|5-2-0-1-2-1-|
C|5-2-0-1-2-1-|
  . . . . . .

Guitar 1+2
D|------------------------------|
A|------------------------------|
F|------------------------------|
C|------------------------------|
G|--------------------3333-2222-|
C|3333-4444-6666-7777-----------|

Guitar 1     Guitar 2
D|---------| D|---------|
A|5-2-3333-| A|---------|
F|---------| F|---------|
C|---------| C|---------|
G|---------| G|5-0-1111-|
C|---------| C|---------|

Guitar 1+2
D|----------------------|
A|----------------------|
F|----------------------|
C|55-22-00-11-----------|
G|55-22-00-11-3333-2222-|
C|55-22-00-11-----------|
  .. .. .. ..

Guitar 1     Guitar 2
D|---------| D|---------|
A|5-2-3333-| A|---------|
F|---------| F|---------|
C|---------| C|---------|
G|---------| G|5-1-2222-|
C|---------| C|---------|

Guitar 1                        Guitar 2
D|----------------------------| D|----------------------------------|
A|----------------------------| A|----------------------------------|
F|444-77-222-55-111-44-222-55-| F|----------------------------------|
C|----------------------------| C|999-1212-777-1010-666-99-777-1010-|
G|----------------------------| G|----------------------------------|
C|----------------------------| C|----------------------------------|

Guitar 1          Guitar 2
D|--------0-3-1-| D|----------------|
A|0-3-1-4-------| A|----------------|
F|--------------| F|----------------|
C|--------------| C|9-12-7-10-6-9-7-|
G|--------------| G|----------------|
C|--------------| C|----------------|

Guitar 1                           x2
D|----------------------------------|
A|----------------------6-3-5h8-6h9-|
F|---2-4------------2-4-------------|
C|-------5-2-1-3--------------------|
G|00-------------00-----------------|
C|----------------------------------|
  ..             ..

Guitar 2                               x2
D|--------------------------------------|
A|--------------------------------------|
F|--------------------------------------|
C|---7-10-------------7-10--------------|
G|--------10-7-5-8---------10-7-4h7-5h8-|
C|00---------------00-------------------|
  ..               ..

Guitar 1                Guitar 2
D|------------0-3-----| D|-----------------------|
A|----0-3-1-5-----0-3-| A|-----------------------|
F|--------------------| F|-----------------------|
C|--------------------| C|----9-12-7-10-6-9-7-10-|
G|--------------------| G|-----------------------|
C|00------------------| C|00---------------------|
  ..                      ..

Guitar 1                 Guitar 2
D|---------------------| D|----------------------|
A|---------------------| A|----------------------|
F|-----4-7-2-5-1-4-2-5-| F|----------------------|
C|---------------------| C|----------------------|
G|3333-----------------| G|3333-7-10-5-8-4-7-5-8-|
C|3333-----------------| C|3333------------------|
  ....                     ....

Guitar 1                 Guitar 2
D|---------------------| D|------------------------|
A|---------------------| A|------------------------|
F|-------------3-6-2-5-| F|------------------------|
C|-----2-5-4-7---------| C|-----9-12-7-10-6-9-7-10-|
G|3333-----------------| G|3333--------------------|
C|3333-----------------| C|3333--------------------|
  ....                     ....

Guitar 1                 Guitar 2
D|---------------------| D|----------------------|
A|---------------------| A|----------------------|
F|-----4-7-2-5-1-4-2-5-| F|----------------------|
C|---------------------| C|----------------------|
G|3333-----------------| G|3333-7-10-5-8-4-7-5-8-|
C|3333-----------------| C|3333------------------|
  ....                     ....

Guitar 1          x2  Guitar 2                 x2
D|------------------| D|------------------------|
A|------------------| A|------------------------|
F|------------------| F|------------------------|
C|0000-000000000000-| C|0000-000000000000-01010-|
G|0000-000000000000-| G|0000-000000000000-01010-|
C|0000-000000000000-| C|0000-000000000000-01010-|
  .... ............     .... ............ .....

Guitar 1                 x2
D|------------------------|
A|------------------------|
F|------------------------|
C|0000-000000000000-01010-|
G|0000-000000000000-01010-|
C|0000-000000000000-01010-|
  .... ............ .....

Guitar 1
D|------------------------------------------|
A|------------------------------------------|
F|------------------------------------------|
C|8888-888888888888-89898-7777-777777777777-|
G|8888-888888888888-89898-7777-777777777777-|
C|8888-888888888888-89898-7777-777777777777-|
  .... ............ ..... .... ............

Guitar 2
D|-------------------------------------|
A|-------------------------------------|
F|-------------------------------------|
C|----------------------------8------7-|
G|----------------------------8------7-|
C|/12-/13-/15-\12-/14-/16-\12-8-/13\-7-|

Guitar 1+2
D|---------------13-17t20p17-13-------|
A|------------15----------------15----|
F|---------14----------------------14-|
C|------15----------------------------|
G|---17-------------------------------|
C|19----------------------------------|

Guitar 1+2
D|------------------|
A|------------------|
F|------------------|
C|0000-000000000000-|
G|0000-000000000000-|
C|0000-000000000000-|
  .... ............

Guitar 1+2
D|---------------13-17t20p17-13-------|
A|------------15----------------15----|
F|---------14----------------------14-|
C|------15----------------------------|
G|---17-------------------------------|
C|19----------------------------------|

Guitar 1+2
D|------------------|
A|------------------|
F|------------------|
C|5555-555555555555-|
G|5555-555555555555-|
C|5555-555555555555-|
  .... ............

Guitar 1+2
D|---------------13-17t20p17-13-------|
A|------------15----------------15----|
F|---------14----------------------14-|
C|------15----------------------------|
G|---17-------------------------------|
C|19----------------------------------|

Guitar 1+2
D|------------------|
A|------------------|
F|------------------|
C|8888-888888888888-|
G|8888-888888888888-|
C|8888-888888888888-|
  .... ............

Guitar 1+2
D|---------------13-17t20p17-13-------|
A|------------15----------------15----|
F|---------14----------------------14-|
C|------15----------------------------|
G|---17-------------------------------|
C|19----------------------------------|

Guitar 1+2
D|------------------|
A|------------------|
F|------------------|
C|7777-777777777777-|
G|7777-777777777777-|
C|7777-777777777777-|
  .... ............

Guitar 1+2
D|---------------13-17t20p17-13-------|
A|------------15----------------15----|
F|---------14----------------------14-|
C|------15----------------------------|
G|---17-------------------------------|
C|19----------------------------------|

Guitar 1      Guitar 2
D|---13-17\-| D|-------|
A|15--------| A|-------|
F|----------| F|15-17\-|
C|----------| C|-------|
G|----------| G|-------|
C|----------| C|-------|

Guitar 1                   x3 Guitar 2                  x11
D|--------------------------| D|--------------------------|
A|-----8-7-----8-7-5-4h7p4--| A|--------------------------|
F|--------------------------| F|--------------------------|
C|444------444--------------| C|--------------------------|
G|--------------------------| G|----10-9-----10-9-7-5h7h8-|
C|--------------------------| C|555------555--------------|
  ...      ...                  ...      ...

Guitar 1
D|------------------------------------------------------------|
A|4t8p4-4t8p4-4t8p4-4t8p4-4t8p4-4t8p4-4t8p4-4t8p4-4t8p4-4t8p4-|
F|------------------------------------------------------------|
C|------------------------------------------------------------|
G|------------------------------------------------------------|
C|------------------------------------------------------------|

Guitar 1
D|------------------------------------------------------------|
A|5t9p5-5t9p5-5t9p5-5t9p5-5t9p5-6t9p6-6t9p6-6t9p6-6t9p6-6t9p6-|
F|------------------------------------------------------------|
C|------------------------------------------------------------|
G|------------------------------------------------------------|
C|------------------------------------------------------------|

Guitar 1
D|-----------------------------------------------------|
A|8t11p8-8t11p8-8t11p8-8t11p8-8t11p8-6t9p6-6t9p6-6t9p6-|
F|-----------------------------------------------------|
C|-----------------------------------------------------|
G|-----------------------------------------------------|
C|-----------------------------------------------------|

Guitar 1
D|---------------------------------------------------------|
A|6t8p6-6t8p6-6t8p6-6t8p6-6t8p6-13t10p13-13t10p13-13t10p13-|
F|---------------------------------------------------------|
C|---------------------------------------------------------|
G|---------------------------------------------------------|
C|---------------------------------------------------------|

Guitar 1                            x4 Guitar 3
D|-----------------------------------| D|------13-17-13-------|
A|8t11p8-8t11p8-8t11p8-8t11p8-8t11p8-| A|---15----------15----|
F|-----------------------------------| F|14----------------14-|
C|-----------------------------------| C|---------------------|
G|-----------------------------------| G|---------------------|
C|-----------------------------------| C|---------------------|

Guitar 1
D|-----------------------------------------------------|
A|-----------------------------------------------------|
F|-----------------------------------------------------|
C|--2-3-5-4-3---4-5-7-6-5---6-7-9-8-7----9-10-12-11-10-|
G|5-----------7-----------9-----------12---------------|
C|-----------------------------------------------------|

Guitar 1           x4
D|------13-17-13----|
A|---15----------15-|
F|14----------------|
C|------------------|
G|------------------|
C|------------------|

Guitar 1           x4
D|------13-18-13----|
A|---15----------15-|
F|14----------------|
C|------------------|
G|------------------|
C|------------------|

Guitar 1           x4
D|------13-15-13----|
A|---15----------15-|
F|14----------------|
C|------------------|
G|------------------|
C|------------------|

Guitar 1           x4
D|------13-16-13----|
A|---15----------15-|
F|14----------------|
C|------------------|
G|------------------|
C|------------------|

Guitar 1+2         x4
D|------13-17-13----|
A|---15----------15-|
F|14----------------|
C|------------------|
G|------------------|
C|------------------|

Guitar 1+2         x4
D|------13-18-13----|
A|---15----------15-|
F|14----------------|
C|------------------|
G|------------------|
C|------------------|

Guitar 1+2         x4
D|------13-15-13----|
A|---15----------15-|
F|14----------------|
C|------------------|
G|------------------|
C|------------------|

Guitar 1+2         x4
D|------13-16-13----|
A|---15----------15-|
F|14----------------|
C|------------------|
G|------------------|
C|------------------|

Guitar 1+2                                                               x2
D|------13-17-13----------13-18-13----------13-14-13----------13-15-13----|
A|---15----------15----15----------15----15----------15----15----------15-|
F|14----------------14----------------14----------------14----------------|
C|------------------------------------------------------------------------|
G|------------------------------------------------------------------------|
C|------------------------------------------------------------------------|

Guitar 1+2
D|-----------------|
A|-----------------|
F|-----------------|
C|000--000-000-000-|
G|000--000-000-000-|
C|000--000-000-000-|
  ...  ... ... ...

Guitar 1                 Guitar 2             x4
D|---------------------| D|--------------------|
A|---------------------| A|--------------------|
F|---------------------| F|--------------------|
C|----000--000-000-000-| C|--------------------|
G|12\-000--000-000-000-| G|12\-4-7-5-8-4-7-6-8-|
C|12\-000--000-000-000-| C|12\-----------------|
      ...  ... ... ...

Guitar 1     x3
D|------------|
A|------------|
F|------------|
C|000-000-000-|
G|000-000-000-|
C|000-000-000-|
  ... ... ...

Guitar 1
D|--------|
A|--------|
F|--------|
C|000-000-|
G|000-000-|
C|000-000-|
  ... ...

Guitar 1+2
D|------------------------------------|
A|------------------------------------|
F|------------------------------------|
C|00-8-8-8-00-7-7-7-00-5-5-5-00-7-7-7-|
G|00-8-8-8-00-7-7-7-00-5-5-5-00-7-7-7-|
C|00-8-8-8-00-7-7-7-00-5-5-5-00-7-7-7-|
  ..       ..       ..       ..

Guitar 1
D|----------------------------------------------|
A|----------------------------------------------|
F|----------------------------------------------|
C|----------------------------------------------|
G|5-00-7-00-8-0-8-7-5-7h8-5-7-5-7-8-5-5-7-5-7h8-|
C|----------------------------------------------|
    ..   ..   .

Guitar 2
D|----------------------------------|
A|----------------------------------|
F|----------------------------------|
C|----------------------3-----------|
G|5-00-7-00-8-0-5-7-5-8---5-8-5-(3)-|
C|----------------------------------|
    ..   ..   .

Guitar 1+2
D|------------------------------------|
A|------------------------------------|
F|------------------------------------|
C|00-8-8-8-00-7-7-7-00-5-5-5-00-7-7-7-|
G|00-8-8-8-00-7-7-7-00-5-5-5-00-7-7-7-|
C|00-8-8-8-00-7-7-7-00-5-5-5-00-7-7-7-|
  ..       ..       ..       ..

Guitar 1
D|----------------------------------------------|
A|----------------------------------------------|
F|----------------------------------------------|
C|----------------------------------------------|
G|5-00-7-00-8-0-8-7-5-7h8-5-7-5-7-8-5-5-7-5-7h8-|
C|----------------------------------------------|
    ..   ..   .

Guitar 2
D|----------------------------------|
A|----------------------------------|
F|----------------------------------|
C|--3-6---------6------6----6-------|
G|5-----8-11-10---8-10---10---8-(5)-|
C|----------------------------------|


Guitar 1+2
D|------------------------------------|
A|------------------------------------|
F|------------------------------------|
C|00-8-8-8-00-7-7-7-00-5-5-5-00-7-7-7-|
G|00-8-8-8-00-7-7-7-00-5-5-5-00-7-7-7-|
C|00-8-8-8-00-7-7-7-00-5-5-5-00-7-7-7-|
  ..       ..       ..       ..

Guitar 1+2
D|-------|
A|-------|
F|-------|
C|-------|
G|/7-/12-|
C|-------|

Guitar 2                          x13
D|----------------------------------|
A|----------------------------------|
F|---9---------7----5-7-8-7-5-7-8-7-|
C|10---10-9-11---10-----------------|
G|----------------------------------|
C|----------------------------------|

Guitar 1                                x2
D|---------------------------------------|
A|15-13-10-11-8-9-11-8-7-8-10-7-8-9-11-8-|
F|---------------------------------------|
C|---------------------------------------|
G|---------------------------------------|
C|---------------------------------------|

Guitar 2                           x2
D|----------------------------------|
A|----------------------------------|
F|----------------------------------|
C|12-10-7-8-5-6-8-5-4-5-7-4-5-6-8-5-|
G|----------------------------------|
C|----------------------------------|

Guitar 1                         x9 Guitar 2                     x9
D|--------------------------------| D|----------------------------|
A|15-13-10-8-9-11-7-8-10-8-9-11-9-| A|----------------------------|
F|--------------------------------| F|----------------------------|
C|--------------------------------| C|12-10-7-5-6-8-4-5-7-5-6-8-6-|
G|--------------------------------| G|----------------------------|
C|--------------------------------| C|----------------------------|

Guitar 1                          Guitar 2                      
D|------------------------------| D|--------------------------|
A|15-13-11-8-9-11-7-8-10-8-9-11-| A|--------------------------|
F|------------------------------| F|--------------------------|
C|------------------------------| C|12-10-7-5-6-8-4-5-7-5-6-8-|
G|------------------------------| G|--------------------------|
C|------------------------------| C|--------------------------|

Guitar 1                       Guitar 2
D|---------------------------| D|-------------------------|
A|---------------------------| A|-------------------------|
F|---------------------------| F|-------------------------|
C|0---5-2--0-1-2--5-2--0-1-2-| C|0---5-2--0-1-2--5-2--0-1-|
G|0---5-2--0-1-2--5-2--0-1-2-| G|0---5-2--0-1-2--5-2--0-1-|
C|0---5-2--0-1-2--5-2--0-1-2-| C|0---5-2--0-1-2--5-2--0-1-|
      . .  . . .  . .  . . .         . .  . . .  . .  . .

Guitar 2
D|---------------13-17t20p17-13----------13-17t20p17-13-------|
A|------------15----------------15----15----------------15----|
F|---------14----------------------14----------------------14-|
C|------15----------------------------------------------------|
G|---17-------------------------------------------------------|
C|19----------------------------------------------------------|

Guitar 1+2  x2
D|-----------|
A|-----------|
F|-----------|
C|5-2--0-1-2-|
G|5-2--0-1-2-|
C|5-2--0-1-2-|
  . .  . . .
comments
We did not receive enough feedback on this tab! Please rate:
print report bad tab
1 2 3 4 5
I want to post or [tab]
guest
You may want to rate the tab now too:
select rating
Please do not post tabs as comments. Select "correction" instead!