Oops, an error
Loading. Please wait.

The Legend Of The Rent Was Way Harcore Tab

13,948 views 12 this week
3 commentsread comments
1 2 3 4 5
excellent!
x 8
add to favorites launch autoscroll
font size
0
reset
Autoscroll
+/-
esc
set tempo
stop
Contributor
WARNING: You are trying to view
                                    content from Ultimate-Guitar.com
                                    in an unauthorized application,
                                    which is prohibited.

                                    Please use an official Ultimate
                                    Guitar Tabs application for iPhone,
                                    iPad or Android to access legitimate
                                    chords, guitar, bass, and drum tabs
                                    from Ultimate-Guitar.com database.

                                    Type "ultimate guitar tabs" in Apple
                                    App Store's or Android Market's
                                    search to find the application.
-------------------------------------------------------------------------------
         The Legend Of The Rent Is Way Hardcore - Here Comes The Kraken
-------------------------------------------------------------------------------

Tabbed by: Zeusimo
Myspace - http://myspace.com/jessei_f
Youtube - http://www.youtube.com/zeusimo
Twitter - http://twitter.com/zeusimo
Ultimate-Guitar - http://profile.ultimate-guitar.com/zeusimo/
Guitar Cover - http://www.youtube.com/watch?v=oBFsM0bvEJ4

Tuning: Drop C (C-G-C-F-A-D)

Just Guitar 2 I Will Upload Guitar 1 Later
If You Find An Error Pease Tell Me
Enjoy This Shit XD

Guitar 2
D|------------------------------------------|
A|------------------------------------------|
F|------------------------------------------|
C|------------------------------------------|
G|/4-1-1/5-5/8-7-1-1/4-4/5-5/8-7-1-1/4-4/5\-|
C|------------------------------------------|

Guitar 2                            x4
D|-----------------------------------|
A|-----------------------------------|
F|-----------------------------------|
C|-----------------------------------|
G|----9h12-----7h10-----7h10-5h8-4h7-|
C|000------000------000--------------|
  ...      ...      ...

Guitar 2                                   x2
D|------------------------------------------|
A|------------------------------------------|
F|-------------------------------------7h10-|
C|--------------------------------7h10------|
G|----9h12p9-----7h10p7------7h10-----------|
C|000--------000--------7h10----------------|
  ...        ...

Guitar 2                            x4
D|-----------------------------------|
A|-----------------------------------|
F|-----------------------------------|
C|-----------------------------------|
G|----9h12-----7h10-----7h10-5h8-4h7-|
C|000------000------000--------------|
  ...      ...      ...

Guitar 2                                   x2
D|------------------------------------------|
A|------------------------------------------|
F|-------------------------------------7h10-|
C|--------------------------------7h10------|
G|----9h12p9-----7h10p7------7h10-----------|
C|000--------000--------7h10----------------|
  ...        ...

Guitar 2
D|------------------------|
A|------------------------|
F|7-9-10-----12-10-9h10p9-|
C|-------7-8--------------|
G|------------------------|
C|------------------------|

Guitar 2
D|------------------------------------------------|
A|------------------------------------------------|
F|77777777-9-101010-------------------------------|
C|------------------777-88888888-1010101010101010-|
G|------------------------------------------------|
C|------------------------------------------------|

Guitar 2
D|------------------------------------------------|
A|------------------------------------------------|
F|------------------------------------------------|
C|77777777-9-101010--------------12-101010-9h10p9-|
G|------------------777-88888888------------------|
C|------------------------------------------------|

Guitar 2
D|------------------------------------------------|
A|------------------------------------------------|
F|77777777-9-101010-------------------------------|
C|------------------777-88888888-1010101010101010-|
G|------------------------------------------------|
C|------------------------------------------------|

Guitar 2
D|------------------------------------------------|
A|------------------------------------------------|
F|------------------------------------------------|
C|77777777-9-101010--------------12-101010-9h10p9-|
G|------------------777-88888888------------------|
C|------------------------------------------------|

Guitar 2
D|------------------------------------------------|
A|------------------------------------------------|
F|77777777-9-101010-------------------------------|
C|------------------777-88888888-1010101010101010-|
G|------------------------------------------------|
C|------------------------------------------------|

Guitar 2
D|--------------------------------|
A|--------------------------------|
F|/7-9-10------10---7h9h10-7h9h10-|
C|--------7-88----8---------------|
G|--------------------------------|
C|--------------------------------|

Guitar 2                        x2
D|-------------------------------|
A|-------------------------------|
F|7-9-10------10---7h9h10-7h9h10-|
C|-------7-88----8---------------|
G|-------------------------------|
C|-------------------------------|

Guitar 2
D|---------------------------------------------|
A|---------------------------------------------|
F|7-9-10------10---7h9h10-7h9h10-7h9h10-7h9h10-|
C|-------7-88----8-----------------------------|
G|---------------------------------------------|
C|---------------------------------------------|

Guitar 2
D|------------------------------------------------|
A|------------------------------------------------|
F|------------------------------------------------|
C|00-00-00-00-00-00-00-00-00-00-00-00-00-00-00-00-|
G|00-00-00-00-00-00-00-00-00-00-00-00-00-00-00-00-|
C|00-00-00-00-00-00-00-00-00-00-00-00-00-00-00-00-|
  .. .. .. .. .. .. .. .. .. .. .. .. .. .. .. ..

Guitar 2                         x4
D|--------------------------------|
A|--------------------------------|
F|--------------------------------|
C|--------------------------------|
G|7-5-4-5-6-5-4-5-7-5-4-5-8-7-5-4-|
C|--------------------------------|
  . . . .         . . . .

Guitar 2                          x4
D|--------------------------------|
A|--------------------------------|
F|--------------------------------|
C|--------------------------------|
G|7-5-4-5-6-5-4-5-7-5-4-5-8-7-5-4-|
C|--------------------------------|

Guitar 2      x2
D|-------------|
A|-------------|
F|-------------|
C|000-000-00-0-|
G|000-000-00-0-|
C|000-000-00-0-|
  ... ... .. .

Guitar 2
D|----------------|
A|----------------|
F|------------7p4-|
C|--------4h7-----|
G|----4h7---------|
C|4h7-------------|

Guitar 2
D|----------------------------------------|
A|----------------------------------------|
F|------------------------------------4h7-|
C|--------------------------------4h7-----|
G|8p5-4-5-7p4-5-6-8p5-4-5-----4h7---------|
C|------------------------4h7-------------|

Guitar 2
D|------------------------------------------------------------|
A|------------------------------------------------------------|
F|------------------------------------5h8----------------7h10-|
C|--------------------------------5h8---------------7h10------|
G|8p5-4-5-7p4-5-6-8p5-4-5-----5h8--------------7h10-----------|
C|------------------------5h8-------------7h10----------------|

Guitar 2
D|--------------------------------------------|
A|--------------------------------------------|
F|---------------------------------------7h10-|
C|----------------------------------7h10------|
G|8p5-4-5-7p4-5-6-8p5-4-5------7h10-----------|
C|------------------------7h10----------------|

Guitar 2
D|------------------------|
A|------------------------|
F|------------------------|
C|------------------------|
G|8p5-4-5-7p4-5-6-8p5-4-5-|
C|------------------------|

Guitar 2
D|-------------------------------------------------------|
A|-------------------------------------------------------|
F|------------4h7-------------5h8----------------7h10----|
C|--------4h7-------------5h8---------------7h10------10-|
G|----4h7-------------5h8--------------7h10------------8-|
C|4h7-------------5h8-------------7h10-----------------7-|

Guitar 2                       x2
D|------------------------------|
A|------------------------------|
F|------------------------------|
C|------------------------------|
G|7-5-4-5-6-5-4-5-7-5-4-5-8-7-5-|
C|------------------------------|

Guitar 2
D|--------------------------------------------------------|
A|--------------------------------------------------------|
F|--------------------------------------------------------|
C|--------------------------------------------------------|
G|7-5-(4)-(5)-(6)-(5)-(4)-(5)-(7)-(5)-(4)-(5)-(8)-(7)-(5)-|
C|--------------------------------------------------------|

Guitar 2
D|-------------------------------|
A|-------------------------------|
F|-------------------------------|
C|-------------------------------|
G|7-5-4-5-6-5-4-5-7-5-4-5-8-7-5\-|
C|-------------------------------|

Guitar 2     x8
D|------------|
A|------------|
F|------------|
C|------------|
G|3h4h5-2h3h4-|
C|------------|

Guitar 2
D|----|
A|----|
F|----|
C|000-|
G|000-|
C|000-|
  ...

Guitar 2     x8
D|------------|
A|------------|
F|------------|
C|------------|
G|3h4h5-2h3h4-|
C|------------|

Guitar 2
D|--------------|
A|--------------|
F|---------12ah-|
C|---------12ah-|
G|--------------|
C|10-7-5-3------|

Guitar 2
D|------|
A|------|
F|------|
C|0-0-0-|
G|0-0-0-|
C|0-0-0-|
  . . .

Guitar 2               x2
D|----------------------|
A|----------------------|
F|----------------------|
C|000-410101-410101-000-|
G|000-410101-410101-000-|
C|000-410101-410101-000-|
  ... ...... ...... ...

Guitar 2
D|--------------------------|
A|--------------------------|
F|--------------------------|
C|000-410101-410101-000-4-3-|
G|000-410101-410101-000-4-3-|
C|000-410101-410101-000-4-3-|
  ... ...... ...... ...   .

Guitar 2
D|--------------------------|
A|--------------------------|
F|--------------------------|
C|--------------------------|
G|4-5-8-7-8-4-5-5-7-5-4-5-4-|
C|--------------------------|

Guitar 2
D|-----------------------------------|
A|-----------------------------------|
F|-----------------------------------|
C|-----------------------------------|
G|---8-7-5----8-7-5----8-7-5-9-8-7-5-|
C|10-------10-------10---------------|
   .        .        .

Guitar 2
D|--------------------------------------------|
A|--------------------------------------------|
F|---------------------------------------7h10-|
C|----------------------------------7h10------|
G|8p5-4-5-7p4-5-6-8p5-4-5------7h10-----------|
C|------------------------7h10----------------|

Guitar 2
D|--------------------------------------------|
A|--------------------------------------------|
F|--------------------------------------------|
C|00-00-00-00-00-00-00-00-00-00-00-00-4-3-2-1-|
G|00-00-00-00-00-00-00-00-00-00-00-00-4-3-2-1-|
C|00-00-00-00-00-00-00-00-00-00-00-00-4-3-2-1-|
  .. .. .. .. .. .. .. .. .. .. .. .. . . . .

Guitar 2
D|--------------------|
A|--------------------|
F|--------------------|
C|0000-0000-0000-0000-|
G|0000-0000-0000-0000-|
C|0000-0000-0000-0000-|
  .... .... .... ....

Guitar 2
D|--------------------------------|
A|--------------------------------|
F|--------------------------------|
C|000-000-000-000-000-000-000-000-|
G|000-000-000-000-000-000-000-000-|
C|000-000-000-000-000-000-000-000-|
  ... ... ... ... ... ... ... ...

Guitar 2
D|------------------------------------------------|
A|------------------------------------------------|
F|------------------------------------------------|
C|------------------------------------------------|
G|----8-----8-----5-----5-----8-----8-----7-----7-|
C|000---000---000---000---000---000---000---000---|
  ...   ...   ...   ...   ...   ...   ...   ...

Guitar 2
D|------------------------------------------------|
A|------------------------------------------------|
F|------------------------------------------------|
C|------------------------------------------------|
G|----7-----7-----5-----5-----4-----4-----5-----5-|
C|000---000---000---000---000---000---000---000---|
  ...   ...   ...   ...   ...   ...   ...   ...

Guitar 2
D|------------------------------------------------|
A|------------------------------------------------|
F|------------------------------------------------|
C|------------------------------------------------|
G|----8-----8-----5-----5-----8-----8-----7-----7-|
C|000---000---000---000---000---000---000---000---|
  ...   ...   ...   ...   ...   ...   ...   ...

Guitar 2
D|------------------------------------------------|
A|------------------------------------------------|
F|------------------------------------------------|
C|------------------------------------------------|
G|----7-----7-----5-----5-----4-----4-----5-----5-|
C|000---000---000---000---000---000---000---000---|
  ...   ...   ...   ...   ...   ...   ...   ...

Guitar 1
D|8p5-------5h8p5-8p5-------5h8p5-|
A|----6---6-----------6---6-------|
F|------5---------------5---------|
C|--------------------------------|
G|--------------------------------|
C|--------------------------------|

Guitar 1
D|10p7-------7h10p7-10p7-------7h10p7-|
A|-----8---8-------------8---8--------|
F|-------7-----------------7----------|
C|------------------------------------|
G|------------------------------------|
C|------------------------------------|

Guitar 1
D|12p8---------8h12p8-12p8---------8h12p8-|
A|-----10---10-------------10---10--------|
F|--------9-------------------9-----------|
C|----------------------------------------|
G|----------------------------------------|
C|----------------------------------------|

Guitar 1
D|12p8---------8h12p8-15p12----------12h15\-|
A|-----10---10--------------13----13--------|
F|--------9--------------------12-----------|
C|------------------------------------------|
G|------------------------------------------|
C|------------------------------------------|

Guitar 1
D|8p5-------5h8p5-8p5-------5h8p5-|
A|----6---6-----------6---6-------|
F|------5---------------5---------|
C|--------------------------------|
G|--------------------------------|
C|--------------------------------|

Guitar 1
D|10p7-------7h10p7-10p7-------7h10p7-|
A|-----8---8-------------8---8--------|
F|-------7-----------------7----------|
C|------------------------------------|
G|------------------------------------|
C|------------------------------------|

Guitar 1
D|12p8---------8h12p8-12p8---------8h12p8-|
A|-----10---10-------------10---10--------|
F|--------9-------------------9-----------|
C|----------------------------------------|
G|----------------------------------------|
C|----------------------------------------|

Guitar 1
D|12p8---------8h12p8-15p12----------12h15p12-|
A|-----10---10--------------13----13----------|
F|--------9--------------------12-------------|
C|--------------------------------------------|
G|--------------------------------------------|
C|--------------------------------------------|

Guitar 1
D|-----------5-8-8-5---------------------7-10-10b-7----------|
A|---------6---------6-----------------8------------8--------|
F|-------5-------------5-------------7----------------7------|
C|-----6-----------------6---------8--------------------8----|
G|---8---------------------8----10------------------------10-|
C|10-------------------------12------------------------------|

Guitar 1
D|--------------8-12-12-8---------------------------12-15-15-12-------------|
A|-----------10-----------10---------------------13-------------13----------|
F|---------9-----------------9----------------12-------------------12-------|
C|------10---------------------10----------13-------------------------13----|
G|---12---------------------------12----15-------------------------------15-|
C|14---------------------------------17-------------------------------------|

Guitar 1
D|-----------5-8-8-5---------------------7-10-10b-7----------|
A|---------6---------6-----------------8------------8--------|
F|-------5-------------5-------------7----------------7------|
C|-----6-----------------6---------8--------------------8----|
G|---8---------------------8----10------------------------10-|
C|10-------------------------12------------------------------|

Guitar 1
D|--------------8-12-12-8---------------------------12-15-15-12-------------|
A|-----------10-----------10---------------------13-------------13----------|
F|---------9-----------------9----------------12-------------------12-------|
C|------10---------------------10----------13-------------------------13----|
G|---12---------------------------12----15-------------------------------15-|
C|14---------------------------------17-------------------------------------|

Guitar 1
D|-------|
A|-------|
F|-------|
C|----00-|
G|5-8-00-|
C|----00-|
      ..

Guitar 1+2
D|8h12p8---------8h12-7h10p7-------7h10-|
A|-------10---10-------------8---8------|
F|----------9------------------7--------|
C|--------------------------------------|
G|--------------------------------------|
C|--------------------------------------|

Guitar 1+2
D|5h8p5-------5h8-7h10p7-------7h10-|
A|------6---6------------8---8------|
F|--------5----------------7--------|
C|----------------------------------|
G|----------------------------------|
C|----------------------------------|

Guitar 1+2
D|8h12p8---------8h12-7h10p7-------7h10-|
A|-------10---10-------------8---8------|
F|----------9------------------7--------|
C|--------------------------------------|
G|--------------------------------------|
C|--------------------------------------|

Guitar 1+2
D|5h8p5-------5h8-7h10p7-------7h10-|
A|------6---6------------8---8------|
F|--------5----------------7--------|
C|----------------------------------|
G|----------------------------------|
C|----------------------------------|

Guitar 1
D|8h12p8-7h10p7-5h8p5-5/7h10p7-8h12p8-| D|8h12-8h12-7h10-7h10-5h8-5h8-7h10-----|
A|------------------------------------| A|-------------------------------------|
F|------------------------------------| F|-------------------------------------|
C|------------------------------------| C|-------------------------------------|
G|------------------------------------| G|---------------------------------12\-|
C|------------------------------------| C|---------------------------------12\-|

Guitar 1
D|----5-8-8/10-7-----|
A|--6------------8---|
F|5----------------7-|
C|-------------------|
G|-------------------|
C|-------------------|

Guitar 1
D|--------------8h12-10p7-------7h10-8p5-------5h8-|
A|-----------10-----------8---8----------6---6-----|
F|---------9----------------7--------------5-------|
C|------10-----------------------------------------|
G|---12--------------------------------------------|
C|14-----------------------------------------------|

Guitar 1
D|10p7-------7h10-12p8---------8h12-10p7-------7h10-|
A|-----8---8-----------10---10-----------8---8------|
F|-------7----------------9----------------7--------|
C|--------------------------------------------------|
G|--------------------------------------------------|
C|--------------------------------------------------|

Guitar 1
D|8p5-------5h8-10p7-------7h10-|
A|----6---6----------8---8------|
F|------5--------------7--------|
C|------------------------------|
G|------------------------------|
C|------------------------------|

Guitar 1
D|--------5h8p5------------------7h10p7----------|
A|------6-------6--------------8--------8--------|
F|----5-----------5----------7------------7------|
C|--6---------------6------8----------------8----|
G|8-------------------8-10--------------------10-|
C|-----------------------------------------------|

Guitar 1
D|-----------8h12p8------------------------12h15p12-------------|
A|--------10--------10------------------13----------13----------|
F|------9--------------9-------------12----------------12-------|
C|---10------------------10-------13----------------------13----|
G|12------------------------12-15----------------------------15-|
C|--------------------------------------------------------------|

Guitar 1
D|--------5h8p5------------------7h10p7----------|
A|------6-------6--------------8--------8--------|
F|----5-----------5----------7------------7------|
C|--6---------------6------8----------------8----|
G|8-------------------8-10--------------------10-|
C|-----------------------------------------------|

Guitar 1
D|-----------8h12p8------------------------12h15p12-------------|
A|--------10--------10------------------13----------13----------|
F|------9--------------9-------------12----------------12-------|
C|---10------------------10-------13----------------------13----|
G|12------------------------12-15----------------------------15-|
C|--------------------------------------------------------------|

Guitar 1 x2 Guitar 2
D|--------| D|------------------|
A|--------| A|------------------|
F|--------| F|------------------|
C|4-1-0-1-| C|4-1-0-1-4-1-0-----|
G|4-1-0-1-| G|4-1-0-1-4-1-0-(1)-|
C|4-1-0-1-| C|4-1-0-1-4-1-0-----|
  . . . .     . . . . . . .

Guitar 1                             x4
D|---------------13h18p13-------------|
A|------------15----------15----------|
F|---------14----------------14-------|
C|------15----------------------15----|
G|---17----------------------------17-|
C|19----------------------------------|

Guitar 1                          x4
D|------------13h18p13-------------|
A|---------15----------15----------|
F|------14----------------14-------|
C|---15----------------------15----|
G|17----------------------------17-|
C|---------------------------------|


Guitar 1
D|---|
A|---|
F|---|
C|00-|
G|00-|
C|00-|
  ..
3 comments total.
-2 reply
billybusa wrote on March 7 2009, 06:35 am

this is only the solo, you should have entered it as solo only

0 reply
9469 wrote on May 26 2011, 09:11 pm

This must have taken forever to tab. I'm very impressed.

0 reply
KillTheSunset wrote on November 16 2011, 12:08 pm

There is alot of Stuff left out. I am gonna Add and correct as much as i can in this next month or so :O

I want to post or [tab]
guest
You may want to rate the tab now too:
select rating
Please do not post tabs as comments. Select "correction" instead!