Oops, an error
Loading. Please wait.

Evitando El Ablande Tab

ver1
ver1

Whole song

Interactive

More versions @911Tabs.com
2,027 views 3 this week
no commentswrite comment
1 2 3 4 5
please rate
Autoscroll
+/-
esc
set tempo
stop
Difficulty
intermediate
WARNING: You are trying to view
                                    content from Ultimate-Guitar.com
                                    in an unauthorized application,
                                    which is prohibited.

                                    Please use an official Ultimate
                                    Guitar Tabs application for iPhone,
                                    iPad or Android to access legitimate
                                    chords, guitar, bass, and drum tabs
                                    from Ultimate-Guitar.com database.

                                    Type "ultimate guitar tabs" in Apple
                                    App Store's or Android Market's
                                    search to find the application.
           Hermetica - Evitando el ablande


 Transcripcion de:floods_of_metal@hotmail.com

E||--------------------------|-------------------|---------------------|
B||--------------------------|-------------------|---------------------|
G||--------------------------|-------------------|---------------------|
D||-----------5-----------5--|-------------------|---------------------|
A||-----------3-----------3--|--4----------------|-----------------0---|
E||--3--2--0-----3--2--0-----|--2----------------|---------2---3-------|

|-----------------------------------|----------------------------------|
|-----------------------------------|----------------------------------|
|*----------------------------------|----------------------------------|
|*----------------------------------|----------------------------------|
|-----------------------------------|----------------------------------|
|---0-0-0-0-0-0-0-0-0-0-0-0-0-0-0-0-|--0-0-0-0-0-0-0-0-0-0-0-0-0-0-0-0-|

--------------------|---------------------||----------------------------------|
--------------------|---------------------||----------------------------------|
--------------------|--------------------*||----------------------------------|
------5-------------|------5-------------*||----------------------------------|
--3---3-------------|--3---3--------------||----------------------------------|
--2-----------------|--2------------------||--0-0-0-0-0-0-0-0-0-0-0-0-0-0-0-0-|

----------------------------------|--------------------|--------------------|
----------------------------------|--------------------|--------------------|
----------------------------------|--------------------|--------------------|
----------------------------------|------5-------------|------5-------------|
----------------------------------|--3---3-------------|--3---3-------------|
--0-0-0-0-0-0-0-0-0-0-0-0-0-0-0-0-|--2-----------------|--2-----------------|

----------------------------------|----------------------------------|
----------------------------------|----------------------------------|
----------------------------------|----------------------------------|
----------------------------------|----------------------------------|
----------------------------------|----------------------------------|
--0-0-0-0-0-0-0-0-0-0-0-0-0-0-0-0-|--0-0-0-0-0-0-0-0-0-0-0-0-0-0-0-0-|

--------------------|--------------------|----------------------------|
--------------------|--------------------|----------------------------|
--------------------|--------------------|----------------------------|
------5-------------|------5-------------|----------------------------|
--3---3-------------|--3---3-------------|--4--------------4---4---4--|
--2-----------------|--2-----------------|--2--2-2-2-2-2-2-2---2---2--|

----------------------------|----------------------------|
----------------------------|----------------------------|
----------------------------|----------------------------|
----------------------------|----------------------------|
--5--------------7---7---7--|----------------------------|
--3--3-3-3-3-3-3-5---5---5--|--3-3--2-2--3-3--2-2--3--2--|

----------------------------|----------------------------|
----------------------------|----------------------------|
----------------------------|----------------------------|
----------------------------|----------------------------|
----------------------------|--4--------------4---4---4--|
--3-3--2-2--3-3--2-2--3--2--|--2--2-2-2-2-2-2-2---2---2--|

----------------------------|----------------------------|
----------------------------|----------------------------|
----------------------------|----------------------------|
----------------------------|----------------------------|
--5--------------7---7---7--|----------------------------|
--3--3-3-3-3-3-3-5---5---5--|--3-3--2-2--3-3--2-2--3--2--|

----------------------------|----------------------------------|
----------------------------|----------------------------------|
----------------------------|----------------------------------|
----------------------------|----------------------------------|
----------------------------|----------------------------------|
--3-3--2-2--3-3--2-2--3--2--|--0-0-0-0-0-0-0-0-0-0-0-0-0-0-0-0-|

----------------------------------|--------------------|--------------------|
----------------------------------|--------------------|--------------------|
----------------------------------|--------------------|--------------------|
----------------------------------|------5-------------|------5-------------|
----------------------------------|--3---3-------------|--3---3-------------|
--0-0-0-0-0-0-0-0-0-0-0-0-0-0-0-0-|--2-----------------|--2-----------------|

----------------------------------|----------------------------------|
----------------------------------|----------------------------------|
----------------------------------|----------------------------------|
----------------------------------|----------------------------------|
----------------------------------|----------------------------------|
--0-0-0-0-0-0-0-0-0-0-0-0-0-0-0-0-|--0-0-0-0-0-0-0-0-0-0-0-0-0-0-0-0-|

--------------------|--------------------|----------------------------|
--------------------|--------------------|----------------------------|
--------------------|--------------------|----------------------------|
------5-------------|------5-------------|----------------------------|
--3---3-------------|--3---3-------------|--4--------------4---4---4--|
--2-----------------|--2-----------------|--2--2-2-2-2-2-2-2---2---2--|

----------------------------|----------------------------|
----------------------------|----------------------------|
----------------------------|----------------------------|
----------------------------|----------------------------|
--5--------------7---7---7--|----------------------------|
--3--3-3-3-3-3-3-5---5---5--|--3-3--2-2--3-3--2-2--3--2--|

----------------------------|----------------------------|
----------------------------|----------------------------|
----------------------------|----------------------------|
----------------------------|----------------------------|
----------------------------|--4--------------4---4---4--|
--3-3--2-2--3-3--2-2--3--2--|--2--2-2-2-2-2-2-2---2---2--|

----------------------------|----------------------------|
----------------------------|----------------------------|
----------------------------|----------------------------|
----------------------------|----------------------------|
--5--------------7---7---7--|----------------------------|
--3--3-3-3-3-3-3-5---5---5--|--3-3--2-2--3-3--2-2--3--2--|

----------------------------|----------------------|---------------------------|
----------------------------|----------------------|---------------------------|
----------------------------|----------------------|---------------------------|
----------------------------|--9----9----5----7----|---------------------------|
----------------------------|--7----7----3----5----|--5-5-5-5-5-5--------------|
--3-3--2-2--3-3--2-2--3--2--|----------------------|--------------3---2---3----|

----------------------|---------------------------|----------------------|
----------------------|---------------------------|----------------------|
----------------------|---------------------------|----------------------|
--9----9----5----7----|---------------------------|--9----9----5----7----|
--7----7----3----5----|--5-5-5-5-5-5--------------|--7----7----3----5----|
----------------------|--------------3---2---3----|----------------------|

---------------------------|----------------------|---------------------------|
---------------------------|----------------------|---------------------------|
---------------------------|----------------------|---------------------------|
---------------------------|--9----9----5----7----|---------------------------|
--5-5-5-5-5-5--------------|--7----7----3----5----|--5-5-5-5-5-5--------------|
--------------3---2---3----|----------------------|--------------3---2---3----|

------------------|--------------------------|-------------------|
------------------|--------------------------|-------------------|
------------------|--------------------------|-------------------|
------------------|-----------------------5--|--------------4----|
------------------|--------------2--3--5--3--|--------------2----|
------------------|--0--2--3--5--------------|-------------------|

---------------------|------------------|--------------------------|
---------------------|------------------|--------------------------|
---------------------|------------------|--------------------------|
---------------------|------------------|-----------------------5--|
----------------2----|------------------|--------------2--3--5--3--|
------3----2----0----|------------------|--0--2--3--5--------------|

-------------------|---------------------|------------------|
-------------------|---------------------|------------------|
-------------------|---------------------|------------------|
--------------4----|---------------------|------------------|
--------------2----|----------------2----|------------------|
-------------------|------3----2----0----|------------------|

--------------------------|-------------------|---------------------|
--------------------------|-------------------|---------------------|
--------------------------|-------------------|---------------------|
-----------------------5--|--------------4----|---------------------|
--------------2--3--5--3--|--------------2----|----------------2----|
--0--2--3--5--------------|-------------------|------3----2----0----|

------------------|--------------------------|-------------------|
------------------|--------------------------|-------------------|
------------------|--------------------------|-------------------|
------------------|-----------------------5--|--------------4----|
------------------|--------------2--3--5--3--|--------------2----|
------------------|--0--2--3--5--------------|-------------------|

---------------------|------------------|-----------------|
---------------------|------------------|-----------------|
---------------------|------------------|------------2----|
---------------------|------------------|--2----4----2----|
----------------2----|------------------|--2----4----0----|
------3----2----0----|------------------|--0----2---------|


     Solo
|-----------------------------------------------------------|
|---12t8h5-12t8h5-12t8h5-12t8h5-13t8h5-13t8h5-13t8h5-13t8h5-|
|*----------------------------------------------------------|
|*----------------------------------------------------------|
|-----------------------------------------------------------|
|-----------------------------------------------------------|

----------------------------------------------------------|
--12t7h4-12t7h4-12t7h4-12t7h4-12t8h5-12t8h5-12t8h5-12t8h5-|
----------------------------------------------------------|
----------------------------------------------------------|
----------------------------------------------------------|
----------------------------------------------------------|

----------------------------------------------------------|
----------------------------------------------------------|
--12t9h5-12t9h5-12t9h5-12t9h5-14t9h5-14t9h5-14t9h5-14t9h5-|
----------------------------------------------------------|
----------------------------------------------------------|
----------------------------------------------------------|

-----------------------------------------------------------||
-----------------------------------------------------------||
--11t8h4-11t8h4-11t8h4-11t8h4-11t8h4-11t8h4-11t8h4-11t8h4-*||
----------------------------------------------------------*||
-----------------------------------------------------------||
-----------------------------------------------------------||

-----------------------|-------------------------|---------------------------|
--7/8--7---8--5~-------|--10b-----10-8-10~-------|--7/8--7--8--10~--8--7--8--|
-----------------------|-------------------------|---------------------------|
-----------------------|-------------------------|---------------------------|
-----------------------|-------------------------|---------------------------|
-----------------------|-------------------------|---------------------------|

-------------------------|--------------------------------|
--7h8h7----------10b-----|--10-8-7------7-8-10-10h8-7-----|
--------7--9~------------|---------9-------------------9--|
-------------------------|--------------------------------|
-------------------------|--------------------------------|
-------------------------|--------------------------------|

--7------------------------|--10-8-7----8-7------7----------------|
-----------10-8-10-8-7-----|---------10-----10-8---10-8-7---8-7---|
-----------------------9~--|------------------------------9-----9-|
---------------------------|--------------------------------------|
---------------------------|--------------------------------------|
---------------------------|--------------------------------------|

--------------------|----------------------|---------------------------|
--------------------|----------------------|---------------------------|
--7-9~--------------|----------------------|---------------------------|
--------------------|--9----9----5----7----|---------------------------|
--------------------|--7----7----3----5----|--5-5-5-5-5-5--------------|
--------------------|----------------------|--------------3---2---3----|

----------------------|---------------------------|----------------------|
----------------------|---------------------------|----------------------|
----------------------|---------------------------|----------------------|
--9----9----5----7----|---------------------------|--9----9----5----7----|
--7----7----3----5----|--5-5-5-5-5-5--------------|--7----7----3----5----|
----------------------|--------------3---2---3----|----------------------|

---------------------------|----------------------|---------------------------|
---------------------------|----------------------|---------------------------|
---------------------------|----------------------|---------------------------|
---------------------------|--9----9----5----7----|---------------------------|
--5-5-5-5-5-5--------------|--7----7----3----5----|--5-5-5-5-5-5--------------|
--------------3---2---3----|----------------------|--------------3---2---3----|

----------------------|---------------------------|----------------------|
----------------------|---------------------------|----------------------|
----------------------|---------------------------|----------------------|
--9----9----5----7----|---------------------------|--9----9----5----7----|
--7----7----3----5----|--5-5-5-5-5-5--------------|--7----7----3----5----|
----------------------|--------------3---2---3----|----------------------|

---------------------------|----------------------|---------------------------|
---------------------------|----------------------|---------------------------|
---------------------------|----------------------|---------------------------|
---------------------------|--9----9----5----7----|---------------------------|
--5-5-5-5-5-5--------------|--7----7----3----5----|--5-5-5-5-5-5--------------|
--------------3---2---3----|----------------------|--------------3---2---3----|

----------------------|---------------------------|------------------|
----------------------|---------------------------|------------------|
----------------------|---------------------------|------------------|
--9----9----5----7----|---------------------------|------------------|
--7----7----3----5----|--5-5-5-5-5-5---------2----|------------------|
----------------------|--------------3---2---0----|------------------|

--------------------------|-------------------||
--------------------------|-------------------||
--------------------------|-------------------||
-----------5-----------5--|-------------------||
-----------3-----------3--|--4----------------||
--3--2--0-----3--2--0-----|--2----------------||
comments
We did not receive enough feedback on this tab! Please rate:
print report bad tab
1 2 3 4 5
I want to post or [tab]
guest
You may want to rate the tab now too:
select rating
Please do not post tabs as comments. Select "correction" instead!