Oops, an error
Loading. Please wait.

Tu Eres Su Seguridad Tab

2,887 views 6 this week
no commentswrite comment
1 2 3 4 5
please rate
Autoscroll
+/-
esc
set tempo
stop
Contributor
WARNING: You are trying to view
                                    content from Ultimate-Guitar.com
                                    in an unauthorized application,
                                    which is prohibited.

                                    Please use an official Ultimate
                                    Guitar Tabs application for iPhone,
                                    iPad or Android to access legitimate
                                    chords, guitar, bass, and drum tabs
                                    from Ultimate-Guitar.com database.

                                    Type "ultimate guitar tabs" in Apple
                                    App Store's or Android Market's
                                    search to find the application.
#----------------------------------PLEASE NOTE---------------------------------#
#This file is the author's own work and represents their interpretation of the #
#song. You may only use this file for private study, scholarship, or research. #
#------------------------------------------------------------------------------#

TÚ ERES SU SEGURIDAD
As recorded by Hermetica
(From the 1989 Album HERMETICA)

Transcribed by Facundo Daniel Bressan
	

Words by Ricardo Iorio Music by Hermetica
Arranged by Hermetica

G5
x 10 12 x x x
	
F#5
x 9 11 x x x
	
D5
10 12 x x x x
	
C5
x 3 5 x x x

E5
0 2 x x x x
	
A5
x 0 2 x x x
	
D5V
x 5 7 x x x
	
E5VII
x 7 9 x x x

B5
x 2 4 x x x

Gtr I (E A D G B E) - 'Untitled'
Gtr II (E A D G B E) - 'Untitled'

   Intro
    Q=150                                          1.
          G5 F#5      G5          G5 D5                   G5 F#5      G5 C5
   4/4
    Gtr I
    PM--|                   PM--|                   PM--|
    E S S  E  E  +Q    Q    E S S  E  E  +Q    Q    E S S  E  E  +Q    E E
||------------------------|-----------------------|------------------------|
||o-----------------------|-----------------------|------------------------|
||------------------------|-----------------------|------------------------|
||--------12-11-(11)--12--|-------12--------------|-------12-11-(11)--12-5-|
||o-------10--9--(9)--10--|-------10-12-(12)--12--|-------10--9--(9)--10-3-|
||--0-0-0-----------------|-0-0-0----10-(10)--10--|-0-0-0------------------|


                         2.
      N.C.(G)                   G5 F#5      G5 C5      N.C.(G)
                ~~~~~~    PM--|                                    ~
  +E  E E E E E E +E      E S S  E  E  +Q    E E   +E  E E E E E E E
|----------------------||------------------------|-------------------|
|---------------------o||------------------------|-------------------|
|----------------------||------------------------|-------------------|
|-(5)------------------||-------12-11-(11)--12-5-|-(5)---------------|
|-(3)-------5---------o||-------10--9--(9)--10-3-|-(3)-------5-----3-|
|-----3-2-3---3-2-(2)--||-0-0-0------------------|-----3-2-3---3-2---|


                                                   E5
                                       Gtrs I, II
                ~~~~~~
  +E  E E E E E E +E    +Q   H    Q    E E E E E E E +E
|---------------------|--------------|-------------------||
|---------------------|--------------|-------------------||
|---------------------|--------------|-------------------||
|---------------------|--------------|-------------------||
|-(3)-------5---------|--------------|-------5-----2-(2)-||
|-----3-2-3---3-2-(2)-|-(2)----------|-3-2-3---3-2-0-(0)-||


   Pre Verse
    $
               C5 D5              G5  F#5E5             C5 A5
    +E  E. S E Q  Q    +E  E. S E  Q   E E   +E  E. S E Q  Q
||-------------------|---------------------|------------------|
||o------------------|---------------------|------------------|
||-------------------|---------------------|------------------|
||-------------5--7--|-(7)-7--7-7-12--11-9-|-(9)-9------5--2--|
||o------------3--5--|-(5)-5--5-5-10---9-7-|-(7)-7------3--0--|
||--(0)-0--0-0-------|---------------------|--------0-0-------|


                           Verse
  N.C.(G)                       E5        C5                 D5
                                PM--------|        PM--------|
  E E E E E E E +E          +E  E. S E Q  Q    +E  E. S E Q  Q
|--------------------||-||-------------------|------------------|
|-------------------o||-||o------------------|------------------|
|--------------------||-||-------------------|------------------|
|--------------------||-||----------------5--|-(5)-5--5-5-5--7--|
|-------5-----------o||-||o-----2--2-2-2--3--|-(3)-3--3-3-3--5--|
|-3-2-3---3-2-0-(0)--||-||--(0)-0--0-0-0-----|------------------|


                G5      F#5 G5  F#E5                 C5
      PM--------------------------|        PM--------|
  +E  E. S E Q  E E   E E E E E E Q    +E  E. S E Q  Q
|-------------------|----------------|------------------|
|-------------------|----------------|------------------|
|-------------------|----------------|------------------|
|-(7)-7--7-7-7------|----------------|---------------5--|
|-(5)-5--5-5-5--5---|-5-4---5---4-2--|-----2--2-2-2--3--|
|---------------3---|-3-2---3---2-0--|-(0)-0--0-0-0-----|


                                       1.
                D5                 E5
      PM--------|        PM--------|
  +E  E. S E Q  Q    +E  E. S E Q  Q    +Q   S S E S S S S S S E
|------------------|------------------|---------------------------||
|------------------|------------------|--------------------------o||
|------------------|------------------|----------0-4p2p0----------||
|-(5)-5--5-5-5--7--|-(7)-7--7-7-7-----|------2h4---------4p2p0----||
|-(3)-3--3-3-3--5--|-(5)-5--5-5-5--2--|------------------------2-o||
|------------------|---------------0--|-(0)--------------------0--||


                             Chorus
  2.
                         A5                 B5                 C5
  +Q   S S E S S S S S S E    +E  E. S E Q  Q    +E  E. S E Q  Q
|--------------------------||------------------|------------------|
|--------------------------||------------------|------------------|
|----------0-4p2p0---------||------------------|------------------|
|------2h4---------4p2p0-2-||-(2)-2--2-2-2--4--|-(4)-4--4-4-4--5--|
|------------------------0-||-(0)-0--0-0-0--2--|-(2)-2--2-2-2--3--|
|-(0)----------------------||------------------|------------------|


                D5            C5B5                 C5
  +E  E. S E Q  Q    E E Q  E E Q    +E  E. S E Q  Q
|------------------|---------------|------------------|
|------------------|---------------|------------------|
|------------------|---------------|------------------|
|-(5)-5--5-5-5--7--|-----7--7-5-4--|-(4)-4--4-4-4--5--|
|-(3)-3--3-3-3--5--|-5-5-5--5-3-2--|-(2)-2--2-2-2--3--|
|------------------|---------------|------------------|


                                                 D.S.
                D5                                 E5
  +E  E. S E Q  Q    E E E E E E E E   E E E E E E E +E
|------------------|-----------------|-------------------||
|------------------|-----------------|-------------------||
|------------------|-----------------|-------------------||
|-(5)-5--5-5-5--7--|-----------------|-------------------||
|-(3)-3--3-3-3--5--|-5-5-5-5-5-5-5-5-|-------5-----2-(2)-||
|------------------|-----------------|-3-2-3---3-2-0-(0)-||


   Verse
                  C5                 D5                 E5
        PM--------|        PM--------|        PM--------|
    +E  E. S E Q  Q    +E  E. S E Q  Q    +E  E. S E Q  Q
||-------------------|------------------|------------------|
||o------------------|------------------|------------------|
||-------------------|------------------|------------------|
||----------------5--|-(5)-5--5-5-5--7--|-(7)-7--7-7-7-----|
||o-(2)-2--2-2-2--3--|-(3)-3--3-3-3--5--|-(5)-5--5-5-5--2--|
||--(0)-0--0-0-0-----|------------------|---------------0--|


                                                          Chorus
  1.                          2.
                                                      A5                 B5
  +Q   S S E S S S S S S E     +Q   S S E S S S S S S E    +E  E. S E Q  Q
|---------------------------||--------------------------||-------------------|
|--------------------------o||--------------------------||-------------------|
|----------0-4p2p0----------||----------0-4p2p0---------||-------------------|
|------2h4---------4p2p0----||------2h4---------4p2p0-2-||-(2)-2--2-2-2--4---|
|-(2)--------------------2-o||-(2)--------------------0-||-(0)-0--0-0-0--2---|
|-(0)--------------------0--||-(0)----------------------||-------------------|


                C5                 D5            C5B5
  +E  E. S E Q  Q    +E  E. S E Q  Q    E E Q  E E Q
|------------------|------------------|---------------|
|------------------|------------------|---------------|
|------------------|------------------|---------------|
|-(4)-4--4-4-4--5--|-(5)-5--5-5-5--7--|-----7--7-5-4--|
|-(2)-2--2-2-2--3--|-(3)-3--3-3-3--5--|-5-5-5--5-3-2--|
|------------------|------------------|---------------|


                C5                 D5
  +E  E. S E Q  Q    +E  E. S E Q  Q    E E E E E E E E
|------------------|------------------|-----------------||
|------------------|------------------|-----------------||
|------------------|------------------|-----------------||
|-(4)-4--4-4-4--5--|-(5)-5--5-5-5--7--|-----------------||
|-(2)-2--2-2-2--3--|-(3)-3--3-3-3--5--|-5-5-5-5-5-5-5-5-||
|------------------|------------------|-----------------||


  Solo
               E5                       C5                  D5
   Gtr I
   E E E E E E E +E     E  E  E   E E E Q    +H         E E Q
||-------------------|---------------------|--------------------|
||-------------------|---------------------|--------------------|
||-----------4-------|---------------------|------------4h5-----|
||-----4-5-7---5-(5)-|--5--4------5---4-2--|-(2)------------7---|
||-5-7---------------|---------------------|--------------------|
||-------------------|---------------------|--------------------|
|
|  Gtr II
|                          PM-----------|        PM---------|
|  E E E E E E Q       +E  E.   S E Q   Q    +E  E. S E Q   Q
||-------------------|---------------------|--------------------|
||-------------------|---------------------|--------------------|
||-------------------|---------------------|--------------------|
||-------------------|------------------5--|-(5)-5--5-5-5---7---|
||-------5-----2-----|-(2)-2----2-2-2---3--|-(3)-3--3-3-3---5---|
||-0-2-3---3-2-0-----|-(0)-0----0-0-0------|--------------------|


                    G5                F#5       G5         F#5E5
-------------------------------------------------------------------
  +H          E.  S S  S  S S    S  S S  S  S S  S  S S  S  Q   E
|-----------------------------|-----------------------------------|
|-----------------------------|-----------------------------------|
|-----------------------------|-----------------------------------|
|-(7)--------12--10-9----10-9-|-------9---------------------------|
|---------------------12------|-12-10---12-10-9-12-10-9---------9-|
|-----------------------------|-------------------------10-12-----|
|
|     PM------------------------------------------------------|
| +E  E. S E  Q     E     E      E    E     E    E    E     E Q
|-----------------------------|-----------------------------------|
|-----------------------------|-----------------------------------|
|-----------------------------|-----------------------------------|
|-(7)-7--7-7--7---------------|-----------------------------------|
|-(5)-5--5-5--5-----5---------|--5----4----------5----------4-2---|
|-------------------3---------|--3----2----------3----------2-0---|


                        C5
 ------------------------------|TP
  +E   Q     E E +S.  E    +S.  S
|---------------------------------|
|---------------------------------|
|---------------------------------|
|--------------9-(9)--------------|
|-(9)-10----12-------12---(12)-10-|
|---------------------------------|
|
|      PM---------------|
| +E   E. S  E Q        Q
|---------------------------------|
|---------------------------------|
|---------------------------------|
|-----------------------5---------|
|-(2)--2--2--2-2--------3---------|
|-(0)--0--0--0-0------------------|


                     D5                      G5    C5 D5
-------TP
   +E  E   E   E  Q   E E    Q      E   E H        Q  Q  E E E E
|-------------------------|----------------------|----------------|
|-------------------------|----------------------|----------------|
|-------------------------|----------------------|----------------|
|-------------------------|----------------------|-5--7-----------|
|-(10)-9--10---9-----10-9-|--------10---9--------|-3--5--------5--|
|----------------12-------|-10------------8------|-------3-2-3----|
|
|      PM------------|          PM-----------|
|  +E  E.    S E  Q   Q     +E  E.    S E Q  E E   Q  Q  H
|-------------------------|----------------------|----------------|
|-------------------------|----------------------|----------------|
|-------------------------|----------------------|----------------|
|--(5)-5-----5-5--5---7---|-(7)-7-----7-7-7------|-5--7-----------|
|--(3)-3-----3-3--3---5---|-(5)-5-----5-5-5--5---|-3--5-----------|
|-------------------------|------------------3---|----------------|


                     A5                           B5
     ~~~~~~~~~~~                      ~~~~~
  E  E +E  Q     S S Q     E  E  E    Q       S S  Q
|-----------------------|-----------------------------|
|-----------------------|-----7--8---10b12---10-8-10--|
|----------9b11--9-7-9--|--9--------------------------|
|-----------------------|-----------------------------|
|-----------------------|-----------------------------|
|-3--2-(2)--------------|-----------------------------|
|
| H.                 Q    +E  E.   S  E    Q       Q
|-----------------------|-----------------------------|
|-----------------------|-----------------------------|
|-----------------------|-----------------------------|
|--------------------2--|-(2)-2----2--2----2-------4--|
|--------------------0--|-(0)-0----0--0----0-------2--|
|-----------------------|-----------------------------|


                    C5
   +Q      E   E Q  E  S S
|--------------------------|
|-(10)----10---8-7--7-10-8-|
|--------------------------|
|--------------------------|
|--------------------------|
|--------------------------|
|
|  +E  E.    S E Q  Q
|--------------------------|
|--------------------------|
|--------------------------|
|--(4)-4-----4-4-4--5------|
|--(2)-2-----2-2-2--3------|
|--------------------------|


                              D5                      C5B5
                                                 ~
   S  S S  S S S  S S S S S S S S E      +E  S S H      E S S
|--------------------------------------|----------------------|
|--7----8--7-----10-8-7---8-7----------|------------------8p0-|
|-----9------9-7--------9-----9-7-9b11-|-(9)-9-7-9------------|
|--------------------------------------|----------------9-----|
|--------------------------------------|----------------------|
|--------------------------------------|----------------------|
|
| +E    E.     S  E   Q       Q           E  E   Q  E E Q
|--------------------------------------|----------------------|
|--------------------------------------|----------------------|
|--------------------------------------|----------------------|
|-(5)---5------5--5---5-------7--------|---------7--7-5-4-----|
|-(3)---3------3--3---3-------5--------|--5--5---5--5-3-2-----|
|--------------------------------------|----------------------|


                             C5                                   D5
   S  S S S S S S S  S S S S S S S S    S  S S S S S S S  S S S S S S E
|------------------------------------|-----------------------------------|
|--7p=0-8p0-7p0-8p0-10p0-8p0-7p0-8p0-|--7p=0-8p0-7p0-8p0-10p0-8p0-7p0-8--|
|------------------------------------|-----------------------------------|
|------------------------------------|-----------------------------------|
|------------------------------------|-----------------------------------|
|------------------------------------|-----------------------------------|
|
| +E    E.    S E    Q       Q         +E    E.    S E    Q       Q
|------------------------------------|-----------------------------------|
|------------------------------------|-----------------------------------|
|------------------------------------|-----------------------------------|
|-(4)---4-----4-4----4-------5-------|-(5)---5-----5-5----5-------7------|
|-(2)---2-----2-2----2-------3-------|-(3)---3-----3-3----3-------5------|
|------------------------------------|-----------------------------------|


   S S S  S S S  S S S  S S S  S S S S
|-10-8-7----8-7------7-----------------|
|--------10-----10-8---10-8-7-10-8-7---|
|------------------------------------7-|
|--------------------------------------|
|--------------------------------------|
|--------------------------------------|
|
|  E   E    E    E   E    E    E   E
|--------------------------------------|
|--------------------------------------|
|--------------------------------------|
|--------------------------------------|
|--5---5----5----5---5----5----5---5---|
|--------------------------------------|


        A5          B5                    C5
   Q       S S H      E    H         E  E Q
|-----------------------|--------------------|
|---------------------7-|--7---------8-10-8--|
|--9b11----9-7-9--------|--------------------|
|-----------------------|--------------------|
|-----------------------|--------------------|
|-----------------------|--------------------|
|
| +E    E.   S E Q  Q     +E  E. S E Q    Q
|-----------------------|--------------------|
|-----------------------|--------------------|
|-----------------------|--------------------|
|-------2----2-2-2--4---|-(4)-4--4-4-4----5--|
|-(5)---0----0-0-0--2---|-(2)-2--2-2-2----3--|
|-----------------------|--------------------|


                          D5
  +E  S S S E   +E    +Q     S S S
|---------------------------10-8-7-|
|-(8)-7h8p7------------------------|
|-----------9---(9)---(9)----------|
|----------------------------------|
|----------------------------------|
|----------------------------------|
|
| +E  E.    S E     Q     Q
|----------------------------------|
|----------------------------------|
|----------------------------------|
|-(5)-5-----5-5-----5-----7--------|
|-(3)-3-----3-3-----3-----5--------|
|----------------------------------|


                        C5   B5                             C5
   S E   E   S S  S S S  S S S  S S S    S  S S  S S H        S E
|----8---8---8-7------7---------------|----------------------------|
|-10-------------10-8---10-8-7-10-8-7-|-----8-7--------------------|
|-------------------------------------|--9-------9-7-9----------9--|
|-------------------------------------|----------------------------|
|-------------------------------------|----------------------------|
|-------------------------------------|----------------------------|
|
|  E   E   Q        E    E   Q          +E    E.     S E Q  Q
|-------------------------------------|----------------------------|
|-------------------------------------|----------------------------|
|-------------------------------------|----------------------------|
|----------7--------7----5---4--------|-(4)---4------4-4-4--5------|
|--5---5---5--------5----3---2--------|-(2)---2------2-2-2--3------|
|-------------------------------------|----------------------------|


                   D5
   Q     E   E E E T T T  T  +E
|--------------7-8-7h8p7---------|
|------------8-----------10-(10)-|
|--------9-----------------------|
|-10-----------------------------|
|--------------------------------|
|--------------------------------|
|
| +E  E.   S E Q   Q
|--------------------------------|
|--------------------------------|
|--------------------------------|
|-(5)-5----5-5-5---7-------------|
|-(3)-3----3-3-3---5-------------|
|--------------------------------|


                                                E5
                          ~~~~
   Q       E E  E  E     +Q       +Q    H       Q
|-10b12---10------12b14r(12)---|-(12)--------------|
|--------------12--------------|-------------------|
|------------------------------|-------------------|
|------------------------------|-------------------|
|------------------------------|-------------------|
|------------------------------|----------------0--|
|
|  E    E  E E  E  E      E  E     E  E E E E E Q
|------------------------------|-------------------|
|------------------------------|-------------------|
|------------------------------|-------------------|
|------------------------------|-------------------|
|--5----5--5-5--5--5------5--5-|----------5-----2--|
|------------------------------|---3--2-3---3-2-0--|


  Pre Verse
              C5 D5              G5  F#5E5             C5 A5
   Gtrs I, II
   +E  E. S E Q  Q    +E  E. S E  Q   E E   +E  E. S E Q  Q
||------------------|---------------------|------------------|
||------------------|---------------------|------------------|
||------------------|---------------------|------------------|
||------------5--7--|-(7)-7--7-7-12--11-9-|-(9)-9------5--2--|
||------------3--5--|-(5)-5--5-5-10---9-7-|-(7)-7------3--0--|
||-(0)-0--0-0-------|---------------------|--------0-0-------|


                       Verse
  $$
              E5                      C5                 D5
                            PM--------|        PM--------|
  E E E E E E E +E      +E  E. S E Q  Q    +E  E. S E Q  Q
|-------------------||-------------------|------------------|
|-------------------||o------------------|------------------|
|-------------------||-------------------|------------------|
|-------------------||----------------5--|-(5)-5--5-5-5--7--|
|-------5-----2-(2)-||o-(2)-2--2-2-2--3--|-(3)-3--3-3-3--5--|
|-3-2-3---3-2-0-(0)-||--(0)-0--0-0-0-----|------------------|


                    1.                           2.
                E5                                                       A5
      PM--------|
  +E  E. S E Q  Q    +Q   S S E S S S S S S E     +Q   S S E S S S S S S E
|------------------|---------------------------||---------------------------||
|------------------|--------------------------o||---------------------------||
|------------------|----------0-4p2p0----------||----------0-4p2p0----------||
|-(7)-7--7-7-7-----|------2h4---------4p2p0----||------2h4---------4p2p0-2--||
|-(5)-5--5-5-5--2--|-(2)--------------------2-o||-(2)--------------------0--||
|---------------0--|-(0)--------------------0--||-(0)-----------------------||


  Chorus
                 B5                 C5                 D5
   +E  E. S E Q  Q    +E  E. S E Q  Q    +E  E. S E Q  Q
||------------------|------------------|------------------|
||------------------|------------------|------------------|
||------------------|------------------|------------------|
||-(2)-2--2-2-2--4--|-(4)-4--4-4-4--5--|-(5)-5--5-5-5--7--|
||-(0)-0--0-0-0--2--|-(2)-2--2-2-2--3--|-(3)-3--3-3-3--5--|
||------------------|------------------|------------------|


                                                                D.S.S.
           C5B5                 C5                 D5
  E E Q  E E Q    +E  E. S E Q  Q    +E  E. S E Q  Q    E E E E E E E E
|---------------|------------------|------------------|-----------------||
|---------------|------------------|------------------|-----------------||
|---------------|------------------|------------------|-----------------||
|-----7--7-5-4--|-(4)-4--4-4-4--5--|-(5)-5--5-5-5--7--|-----------------||
|-5-5-5--5-3-2--|-(2)-2--2-2-2--3--|-(3)-3--3-3-3--5--|-5-5-5-5-5-5-5-5-||
|---------------|------------------|------------------|-----------------||


                  Outro
              E5        F#5      G5            D5
  E E E E E E Q    +Q    E  Q.    E  E    +Q    E  Q.    +Q
|----------------|---------------------|----------------------|
|----------------|---------------------|----------------------|
|----------------|---------------------|----------------------|
|----------------|------11-11----12-12-|-(12)--12-12----(12)--|
|-------5-----2--|-(2)---9--9----10-10-|-(10)--12-12----(12)--|
|-3-2-3---3-2-0--|-(0)-----------------|-------10-10----(10)--|


                            E5
   +W           E E E E E E Q    +W           W
|-------------|----------------|------------|------*|
|-------------|----------------|------------|------*|
|-------------|----------------|------------|------*|
|-(12)--------|----------------|------------|------*|
|-(12)--------|-------5-----2--|-(2)--------|------*|
|-(10)--------|-3-2-3---3-2-0--|-(0)--------|------*|



Duration Legend
---------------
W - whole; H - half; Q - quarter; E - 8th; S - 16th; T - 32nd; X - 64th; a - acciaccatura
+ - note tied to previous; . - note dotted; .. - note double dotted
Uncapitalized letters represent notes that are staccato (1/2 duration)
Irregular groupings are notated above the duration line
Duration letters will always appear directly above the note/fret number it represents the
duration for.  Duration letters with no fret number below them represent rests.  Multi-
bar rests are notated in the form Wxn, where n is the number of bars to rest for.  Low
melody durations appear below the staff

Tablature Legend
----------------
 h   - hammer-on
 p   - pull-off
 b   - bend
 pb  - pre-bend
 r   - bend release (if no number after the r, then release immediately)
 /\  - slide into or out of (from/to "nowhere")
 s   - legato slide
 S   - shift slide
 - natural harmonic
[n]  - artificial harmonic
n(n) - tapped harmonic
 ~   - vibrato
 tr  - trill
 T   - tap
 TP  - trem. picking
 PM  - palm muting
\n/  - tremolo bar dip; n = amount to dip
 \n  - tremolo bar down
 n/  - tremolo bar up
/n\  - tremolo bar inverted dip
 =   - hold bend; also acts as connecting device for hammers/pulls
 <> - volume swell (louder/softer)
 x   - on rhythm slash represents muted slash
 o   - on rhythm slash represents single note slash

Misc Legend
-----------
 |  - bar
||  - double bar
||o - repeat start
o|| - repeat end
*|  - double bar (ending)
 :  - bar (freetime)
 $  - Segno
 &  - Coda
Tempo markers -  = BPM(8/16=s8/s16), where s8 = swing 8ths, s16 = swing 16ths

comments
We did not receive enough feedback on this tab! Please rate:
1 2 3 4 5
I want to post or [tab]
guest
You may want to rate the tab now too:
select rating
Please do not post tabs as comments. Select "correction" instead!