Oops, an error
Loading. Please wait.

Vientos De Poder Tab

2,082 views 1 this week
no commentswrite comment
1 2 3 4 5
please rate
Autoscroll
+/-
esc
set tempo
stop
Difficulty
intermediate
WARNING: You are trying to view
                                    content from Ultimate-Guitar.com
                                    in an unauthorized application,
                                    which is prohibited.

                                    Please use an official Ultimate
                                    Guitar Tabs application for iPhone,
                                    iPad or Android to access legitimate
                                    chords, guitar, bass, and drum tabs
                                    from Ultimate-Guitar.com database.

                                    Type "ultimate guitar tabs" in Apple
                                    App Store's or Android Market's
                                    search to find the application.
        
        Hermetica - Vientos de poder (Iorio/Romano)                          


                                                  
 Transcripcion de:floods_of_metal@hotmail.com



                                                                    
E||----------------------|------------------|----------------------|
B||----------------------|------------------|----------------------|
G||-------------2--------|------------------|----------------------|
D||--2--2----2--2--------|------------------|-------------2--------|
A||--0--0----0--0--------|------------------|--2--2----2--2--------|
E||----------------------|------------------|--0--0----0--0--------|


                                                            
------------------|---------------------|------------------|
------------------|---------------------|------------------|
------------------|---------------------|------------------|
------------------|--0----2----3--------|------------------|
------------------|--0----2----3--------|------------------|
------------------|-------0----1--------|------------------|


                                                             
---------------------|-------------------|------------------|
---------------------|-------------------|------------------|
---------------------|-------------------|------------------|
------------5--------|----------7--------|------------------|
--5--3------3--------|----------5--------|------------------|
--3--1---------------|-------------------|------------------|


                                                                 
----------------------|------------------|----------------------|
----------------------|------------------|----------------------|
-------------2--------|------------------|----------------------|
--2--2----2--2--------|------------------|-------------2--------|
--0--0----0--0--------|------------------|--2--2----2--2--------|
----------------------|------------------|--0--0----0--0--------|


                                                            
------------------|---------------------|------------------|
------------------|---------------------|------------------|
------------------|---------------------|------------------|
------------------|--0----2----3--------|------------------|
------------------|--0----2----3--------|------------------|
------------------|-------0----1--------|------------------|


                                                             
---------------------|-------------------|------------------|
---------------------|-------------------|------------------|
---------------------|-------------------|------------------|
------------5--------|----------7--------|------------------|
--5--3------3--------|----------5--------|------------------|
--3--1---------------|-------------------|------------------|


                                                          
-------------------|------------------|------------------|
-------------------|------------------|------------------|
-------------------|------------------|------------------|
-------------------|------------------|------------------|
--7----------------|------------------|------------------|
--5----------------|------------------|------------------|


                                                    
----------------------|----------------------------|
----------------------|----------------------------|
----------------------|----------------------------|
----------------------|----------------------------|
--5/------------------|----------------------------|
--5/---------0--0--0--|--0--0--0--0-0-0--0--0-0-0--|


                                                          
----------------------------|----------------------------|
----------------------------|----------------------------|
----------------------------|----------------------------|
----------------------------|----------------------------|
----------------------------|----------------------------|
--0--0--0--0-0-0--0--0-0-0--|--0--0--0--0-0-0--0--0-0-0--|


                                                          
----------------------------|----------------------------|
----------------------------|----------------------------|
----------------------------|----------------------------|
----------------------------|--2-------------------------|
----------------------------|--2-------------------------|
--0--0--0--0-0-0--0--0-0-0--|-----0--0--0-0-0--0--0-0-0--|


                                                          
----------------------------|----------------------------|
----------------------------|----------------------------|
----------------------------|----------------------------|
----------------------------|----------------------------|
----------------------------|----------------------------|
--0--0--0--0-0-0--0--0-0-0--|--0--0--0--0-0-0--0--0-0-0--|


                                                          
----------------------------|----------------------------|
----------------------------|----------------------------|
----------------------------|----------------------------|
----------------------------|--2-------------------------|
----------------------------|--2-------------------------|
--0--0--0--0-0-0--0--0-0-0--|-----0--0--0-0-0--0--0-0-0--|


                                                          
----------------------------|----------------------------|
----------------------------|----------------------------|
----------------------------|----------------------------|
----------------------------|----------------------------|
----------------------------|----------------------------|
--0--0--0--0-0-0--0--0-0-0--|--0--0--0--0-0-0--0--0-0-0--|


                                                          
----------------------------|----------------------------|
----------------------------|----------------------------|
----------------------------|----------------------------|
----------------------------|--2-------------------------|
----------------------------|--2-------------------------|
--0--0--0--0-0-0--0--0-0-0--|-----0--0--0-0-0--0--0-0-0--|


                                                          
----------------------------|----------------------------|
----------------------------|----------------------------|
----------------------------|----------------------------|
----------------------------|----------------------------|
----------------------------|----------------------------|
--0--0--0--0-0-0--0--0-0-0--|--0--0--0--0-0-0--0--0-0-0--|


                                                                        
----------------------------|-------------------|----------------------|
----------------------------|-------------------|----------------------|
----------------------------|-------------------|----------------------|
----------------------------|--9----------------|------10----9----7----|
----------------------------|--7----------------|------8-----7----5----|
--0--0--0--0-0-0--0--0-0-0--|--0----------------|----------------------|


                                                                   
-------------------|--------------------------|-------------------|
-------------------|--------------------------|-------------------|
-------------------|--------------------------|-------------------|
--9----------------|--------------------------|--9----------------|
--7----------------|-----------------------5--|--7----------------|
-------------------|--0--5--7--8--7--5--7-----|-------------------|


                                                                          
----------------------|-----------------------|--------------------------|
----------------------|-----------------------|--------------------------|
----------------------|-----------------------|--------------------------|
------10----9----7----|--9--------------------|--------------------------|
------8-----7----5----|--7--------------------|-----------------------5--|
----------------------|-----------0--0--0--0--|--0--5--7--8--7--5--7-----|


                                                               
-------------------|----------------------|-------------------|
-------------------|----------------------|-------------------|
-------------------|----------------------|-------------------|
--9----------------|------10----9----7----|--9----------------|
--7----------------|------8-----7----5----|--7----------------|
--0----------------|----------------------|-------------------|


                                                                      
--------------------------|-------------------|----------------------|
--------------------------|-------------------|----------------------|
--------------------------|-------------------|----------------------|
--------------------------|--9----------------|------10----9----7----|
-----------------------5--|--7----------------|------8-----7----5----|
--0--5--7--8--7--5--7-----|--0----------------|----------------------|


                                                                            
-------------------|--------------------------|----------------------------|
-------------------|--------------------------|----------------------------|
-------------------|--------------------------|----------------------------|
--9----------------|--------------------------|----------------------------|
--7----------------|-----------------------5--|----------------------------|
-------------------|--0--5--7--8--7--5--7-----|--0--0--0--0-0-0--0--0-0-0--|


                                                          
----------------------------|----------------------------|
----------------------------|----------------------------|
----------------------------|----------------------------|
----------------------------|----------------------------|
----------------------------|----------------------------|
--0--0--0--0-0-0--0--0-0-0--|--0--0--0--0-0-0--0--0-0-0--|


                                                          
----------------------------|----------------------------|
----------------------------|----------------------------|
----------------------------|----------------------------|
---------------------10/-9--|----------------------------|
---------------------8/--7--|----------------------------|
--0--0--0--0-0-0--0---------|--0--0--0--0-0-0--0--0-0-0--|


                                                          
----------------------------|----------------------------|
----------------------------|----------------------------|
----------------------------|----------------------------|
----------------------------|----------------------------|
----------------------------|----------------------------|
--0--0--0--0-0-0--0--0-0-0--|--0--0--0--0-0-0--0--0-0-0--|


                                                          
----------------------------|----------------------------|
----------------------------|----------------------------|
----------------------------|----------------------------|
---------------------10/-9--|----------------------------|
---------------------8/--7--|----------------------------|
--0--0--0--0-0-0--0---------|--0--0--0--0-0-0--0--0-0-0--|


                                                          
----------------------------|----------------------------|
----------------------------|----------------------------|
----------------------------|----------------------------|
----------------------------|----------------------------|
----------------------------|----------------------------|
--0--0--0--0-0-0--0--0-0-0--|--0--0--0--0-0-0--0--0-0-0--|


                                                          
----------------------------|----------------------------|
----------------------------|----------------------------|
----------------------------|----------------------------|
---------------------10/-9--|----------------------------|
---------------------8/--7--|----------------------------|
--0--0--0--0-0-0--0---------|--0--0--0--0-0-0--0--0-0-0--|


                                                          
----------------------------|----------------------------|
----------------------------|----------------------------|
----------------------------|----------------------------|
----------------------------|----------------------------|
----------------------------|----------------------------|
--0--0--0--0-0-0--0--0-0-0--|--0--0--0--0-0-0--0--0-0-0--|


                                                        
----------------------------|--------------------------|
----------------------------|--------------------------|
----------------------------|--------------------------|
---------------------9/-10--|--------4-----------------|
---------------------7/-8---|--------4-----------------|
--0--0--0--0-0-0--0---------|--2--2--2----2--2--2-2-2--|


                                                      
----------------------------|------------------------|
----------------------------|------------------------|
----------------------------|------------------------|
----------------------------|--------4----------5----|
----------------------------|--------4----------3----|
--2--2--2--2-2-2--2--2-2-2--|--2--2--2----2--2-------|


                                                      
--------------------------|--------------------------|
--------------------------|--------------------------|
--------------------------|--------------------------|
--------5-----------------|--------4-----------------|
--------3-----------------|--------4-----------------|
--2--2-------2--2--2--2-2-|--2--2--2----2--2--2-2-2--|


                                                      
----------------------------|------------------------|
----------------------------|------------------------|
----------------------------|------------------------|
----------------------------|--------4----------5----|
----------------------------|--------4----------3----|
--2--2--2--2-2-2--2--2-2-2--|--2--2--2----2--2-------|


                                                        
--------------------------|----------------------------|
--------------------------|----------------------------|
--------------------------|----------------------------|
--------5-----------------|----------------------------|
--------3-----------------|----------------------------|
--2--2-------2--2--2--2-2-|--0--0--0--0-0-0--0--0-0-0--|


                                                          
----------------------------|----------------------------|
----------------------------|----------------------------|
----------------------------|----------------------------|
----------------------------|----------------------------|
----------------------------|----------------------------|
--0--0--0--0-0-0--0--0-0-0--|--0--0--0--0-0-0--0--0-0-0--|


                                                          
----------------------------|----------------------------|
----------------------------|----------------------------|
----------------------------|----------------------------|
---------------------10/-9--|----------------------------|
---------------------8/--7--|----------------------------|
--0--0--0--0-0-0--0---------|--0--0--0--0-0-0--0--0-0-0--|


                                                          
----------------------------|----------------------------|
----------------------------|----------------------------|
----------------------------|----------------------------|
----------------------------|----------------------------|
----------------------------|----------------------------|
--0--0--0--0-0-0--0--0-0-0--|--0--0--0--0-0-0--0--0-0-0--|


                                                          
----------------------------|----------------------------|
----------------------------|----------------------------|
----------------------------|----------------------------|
---------------------10/-9--|----------------------------|
---------------------8/--7--|----------------------------|
--0--0--0--0-0-0--0---------|--0--0--0--0-0-0--0--0-0-0--|


                                                          
----------------------------|----------------------------|
----------------------------|----------------------------|
----------------------------|----------------------------|
----------------------------|----------------------------|
----------------------------|----------------------------|
--0--0--0--0-0-0--0--0-0-0--|--0--0--0--0-0-0--0--0-0-0--|


                                                          
----------------------------|----------------------------|
----------------------------|----------------------------|
----------------------------|----------------------------|
---------------------10/-9--|----------------------------|
---------------------8/--7--|----------------------------|
--0--0--0--0-0-0--0---------|--0--0--0--0-0-0--0--0-0-0--|


                                                          
----------------------------|----------------------------|
----------------------------|----------------------------|
----------------------------|----------------------------|
----------------------------|----------------------------|
----------------------------|----------------------------|
--0--0--0--0-0-0--0--0-0-0--|--0--0--0--0-0-0--0--0-0-0--|


                                                        
----------------------------|--------------------------|
----------------------------|--------------------------|
----------------------------|--------------------------|
---------------------9/-10--|--------4-----------------|
---------------------7/-8---|--------4-----------------|
--0--0--0--0-0-0--0---------|--2--2--2----2--2--2-2-2--|


                                                        
----------------------------|--------------------------|
----------------------------|--------------------------|
----------------------------|--------------------------|
----------------------------|--------4-----------------|
----------------------------|--------4-----------------|
--2--2--2--2-2-2--2--2-2-2--|--2--2--2----2--2--2-2-2--|


                                                    
------------------------|--------------------------|
------------------------|--------------------------|
------------------------|--------------------------|
--------5----------5----|--------4-----------------|
--------3----------3----|--------4-----------------|
--2--2-------2--2-------|--2--2--2----2--2--2-2-2--|


                                                        
----------------------------|--------------------------|
----------------------------|--------------------------|
----------------------------|--------------------------|
----------------------------|--------4-----------------|
----------------------------|--------4-----------------|
--2--2--2--2-2-2--2--2-2-2--|--2--2--2----2--2--2-2-2--|


                                                                  
------------------------|-------------------|--------------------|
------------------------|-------------------|--------------------|
------------------------|-------------------|--------------------|
--------5----------5----|-------------------|--5-----------------|
--------3----------3----|--2----------------|--3--------5--------|
--2--2-------2--2-------|--0----------------|-----------3--------|


                                                                 
-------------------|------------------------|-------------------|
-------------------|------------------------|-------------------|
-------------------|------------------------|-------------------|
-------------------|------------------------|-------------------|
--7----------------|---------------------5--|--2----------------|
--5----------------|------8--7--8--5--8-----|--0----------------|


                                                                    
--------------------|-------------------|--------------------------|
--------------------|-------------------|--------------------------|
--------------------|-------------------|--------------------------|
--5-----------------|-------------------|--------------------------|
--3--------5--------|--7----------------|---------7-----------7----|
-----------3--------|--5----------------|--5-5-5--5----5-5-5--5----|


                                                             
-------------------|--------------------|-------------------|
-------------------|--------------------|-------------------|
-------------------|--------------------|-------------------|
-------------------|--5-----------------|-------------------|
--2----------------|--3--------5--------|--7----------------|
--0----------------|-----------3--------|--5----------------|


                                                                  
------------------------|-------------------|--------------------|
------------------------|-------------------|--------------------|
------------------------|-------------------|--------------------|
------------------------|-------------------|--5-----------------|
---------------------5--|--2----------------|--3--------5--------|
------8--7--8--5--8-----|--0----------------|-----------3--------|


                                                                           
-------------------|--------------------------|---------------------------|
-------------------|--------------------------|---------------------------|
-------------------|--------------------------|---------------------------|
-------------------|--------------------------|--------10/-9--------7/-9--|
--7----------------|---------7-----------7----|--------8/--7--------5/-7--|
--5----------------|--5-5-5--5----5-5-5--5----|--0--0---------0--0--------|


                                                       
--------------------------|---------------------------|
--------------------------|---------------------------|
--------------------------|---------------------------|
--------10/-9-------------|--------10/-9--------7/-9--|
--------8/--7--------9----|--------8/--7--------5/-7--|
--0--0---------0--0--7----|--0--0---------0--0--------|


                                                       
--------------------------|---------------------------|
--------------------------|---------------------------|
--------------------------|---------------------------|
--------10/-9-------------|--------10/-9--------7/-9--|
--------8/--7--------9----|--------8/--7--------5/-7--|
--0--0---------0--0--7----|--0--0---------0--0--------|


                                                       
--------------------------|---------------------------|
--------------------------|---------------------------|
--------------------------|---------------------------|
--------10/-9-------------|--------10/-9--------7/-9--|
--------8/--7--------9----|--------8/--7--------5/-7--|
--0--0---------0--0--7----|--0--0---------0--0--------|


                                                       
--------------------------|---------------------------|
--------------------------|---------------------------|
--------------------------|---------------------------|
--------------------------|--------10/-9--------7/-9--|
-----------------------5--|--------8/--7--------5/-7--|
--0--0--8--7--5--7--8-----|--0--0---------0--0--------|


                                                       
--------------------------|---------------------------|
--------------------------|---------------------------|
--------------------------|---------------------------|
--------10/-9-------------|--------10/-9--------7/-9--|
--------8/--7--------9----|--------8/--7--------5/-7--|
--0--0---------0--0--7----|--0--0---------0--0--------|


                                                       
--------------------------|---------------------------|
--------------------------|---------------------------|
--------------------------|---------------------------|
--------10/-9-------------|--------10/-9--------7/-9--|
--------8/--7--------9----|--------8/--7--------5/-7--|
--0--0---------0--0--7----|--0--0---------0--0--------|


                                                       
--------------------------|---------------------------|
--------------------------|---------------------------|
--------------------------|---------------------------|
--------10/-9-------------|--------10/-9--------7/-9--|
--------8/--7--------9----|--------8/--7--------5/-7--|
--0--0---------0--0--7----|--0--0---------0--0--------|


                          Solo                                               
--------------------------|------------------------|----------------------|
--------------------------|------------------------|----------------------|
--------------------------|------------------------|----------------------|
--------------------------|---------------------7--|--9~--------5h7----4--|
-----------------------5--|--7~-------7--9--10-----|----------------------|
--0--0--8--7--5--7--8-----|------------------------|----------------------|


                                                         
---------------------|----------------------------------|
---------------------|----------------------------------|
---------------------|----------------------------------|
--5----------4---5---|--4-5-4-5-4-5-4-5-4-5-4-5-4-5-4-5-|
---------------------|----------------------------------|
---------------------|----------------------------------|


                                                                             
--------------------------|----------------------|--------------------------|
--------------------------|----------------------|--------------------------|
--4--5-----4--------------|----------------------|--7--5--4-----5--4--------|
--------7-----5--7--5--4--|--5--4----------------|-----------7--------7--5--|
--------------------------|----------5--7~-------|--------------------------|
--------------------------|----------------------|--------------------------|


                                                                                
--------------------------------|------------------------|---------------------|
--------------------------------|------------------------|-----------------7---|
--------------------------------|------------------------|-------------9-------|
--9----7----5----7----5----4----|---------------------7--|--9------------------|
--------------------------------|--7--------7--9--10-----|---------------------|
--------------------------------|------------------------|---------------------|


                                                     
---------------------------|------------------------|
--8---7-8-7----7---8---10--|--8---7-8-7----7~-------|
------------9--------------|------------9-----------|
---------------------------|------------------------|
---------------------------|------------------------|
---------------------------|------------------------|


                                                     
--7-------------------------|-----------------------|
-----10--8--7--10--8--7-----|--8--7-----------------|
-------------------------9--|--------9--7--9~-------|
----------------------------|-----------------------|
----------------------------|-----------------------|
----------------------------|-----------------------|


                                                           
--10--8--7------8--7---------|--7-------------------------|
------------10--------10--8--|-----10--8--7--10--8--7-----|
-----------------------------|-------------------------9--|
-----------------------------|----------------------------|
-----------------------------|----------------------------|
-----------------------------|----------------------------|


                                                                  
--------------------------------|--------------------------------|
--7--8--7-8-7----7--8--7-8-7----|--7--8--7-8-7----7--8--7-8-7----|
--------------9--------------9--|--------------9--------------9--|
--------------------------------|--------------------------------|
--------------------------------|--------------------------------|
--------------------------------|--------------------------------|


                                                                              
--------------------------------|-----------------------|--10b---------------|
--7--10b---10-8-10~---8----7----|--8---7-8-7------------|--------------------|
--------------------------------|------------9~---------|--------------------|
--------------------------------|-----------------------|--------------------|
--------------------------------|-----------------------|--------------------|
--------------------------------|-----------------------|--------------------|


                                                                
--12b-------12~-----7--|--10-8-7----8-7------7-----------------|
-----------------------|---------10-----10-8---10-8-7-10-8-7---|
-----------------------|-------------------------------------9-|
-----------------------|---------------------------------------|
-----------------------|---------------------------------------|
-----------------------|---------------------------------------|


                                                                                
------------------------12--|--15-12----12-15-12----12-15-12----12-15-12----12-|
--8--10b---10-8-10~---------|--------15----------15----------15----------15----|
----------------------------|--------------------------------------------------|
----------------------------|--------------------------------------------------|
----------------------------|--------------------------------------------------|
----------------------------|--------------------------------------------------|


                                                                              
--15-12----12-------------------------------------|--------------------------|
--------15----15-12----12-15-12----12-15-12-------|--------------------------|
--------------------14----------14----------14-12-|--14~-----------11----12--|
--------------------------------------------------|------------14------------|
--------------------------------------------------|--------------------------|
--------------------------------------------------|--------------------------|


                                                          
----------------------|----------------------------------|
----------------------|----------------------------------|
----11----------------|--14--12--11------12--11----------|
----------14~---------|--------------14----------14--12--|
----------------------|----------------------------------|
----------------------|----------------------------------|


                                                          
----------------------------|----------------------------|
----------------------------|----------------------------|
--12--11--14--12------------|----------------------------|
------------------12~-------|------------7--9------7--9--|
----------------------------|--7--9--10--------10--------|
----------------------------|----------------------------|


                                                                   
-------------------------|-------------------|--------------------|
-------------------------|-------------------|--------------------|
----------------9~-------|-------------------|--------------------|
--10--7--9--10-----------|-------------------|--5-----------------|
-------------------------|--2----------------|--3--------5--------|
-------------------------|--0----------------|-----------3--------|


                                                                 
-------------------|------------------------|-------------------|
-------------------|------------------------|-------------------|
-------------------|------------------------|-------------------|
-------------------|------------------------|-------------------|
--7----------------|---------------------5--|--2----------------|
--5----------------|------8--7--8--5--8-----|--0----------------|


                                                                    
--------------------|-------------------|--------------------------|
--------------------|-------------------|--------------------------|
--------------------|-------------------|--------------------------|
--5-----------------|-------------------|---------7-----------7----|
--3--------5--------|--7----------------|--0-0-0--5----0-0-0--5----|
-----------3--------|--5----------------|--------------------------|


                                                             
-------------------|--------------------|-------------------|
-------------------|--------------------|-------------------|
-------------------|--------------------|-------------------|
-------------------|--5-----------------|-------------------|
--2----------------|--3--------5--------|--7----------------|
--0----------------|-----------3--------|--5----------------|


                                                                  
------------------------|-------------------|--------------------|
------------------------|-------------------|--------------------|
------------------------|-------------------|--------------------|
------------------------|-------------------|--5-----------------|
---------------------5--|--2----------------|--3--------5--------|
------8--7--8--5--8-----|--0----------------|-----------3--------|


                                                                           
-------------------|--------------------------|---------------------------|
-------------------|--------------------------|---------------------------|
-------------------|--------------------------|---------------------------|
-------------------|---------7-----------7----|--------10/-9--------7/-9--|
--7----------------|--0-0-0--5----0-0-0--5----|--------8/--7--------5/-7--|
--5----------------|--------------------------|--0--0---------0--0--------|


                                                       
--------------------------|---------------------------|
--------------------------|---------------------------|
--------------------------|---------------------------|
--------10/-9-------------|--------10/-9--------7/-9--|
--------8/--7--------9----|--------8/--7--------5/-7--|
--0--0---------0--0--7----|--0--0---------0--0--------|


                                                       
--------------------------|---------------------------|
--------------------------|---------------------------|
--------------------------|---------------------------|
--------10/-9-------------|--------10/-9--------7/-9--|
--------8/--7--------9----|--------8/--7--------5/-7--|
--0--0---------0--0--7----|--0--0---------0--0--------|


                                                       
--------------------------|---------------------------|
--------------------------|---------------------------|
--------------------------|---------------------------|
--------10/-9-------------|--------10/-9--------7/-9--|
--------8/--7--------9----|--------8/--7--------5/-7--|
--0--0---------0--0--7----|--0--0---------0--0--------|


                                                
--------------------------|-------------------||
--------------------------|-------------------||
--------------------------|-------------------||
--------------------------|-------------------||
-----------------------5--|--2----------------||
--0--0--8--7--5--7--8-----|--0----------------||
comments
We did not receive enough feedback on this tab! Please rate:
print report bad tab
1 2 3 4 5
I want to post or [tab]
guest
You may want to rate the tab now too:
select rating
Please do not post tabs as comments. Select "correction" instead!