Oops, an error
Loading. Please wait.

I Dont Wanna Dance Bass Tab

ver2
ver2

Whole song

More versions @911Tabs.com
171 views 3 this week
no commentswrite comment
1 2 3 4 5
excellent!
x 1
Autoscroll
+/-
esc
set tempo
stop
Contributor
WARNING: You are trying to view
                                    content from Ultimate-Guitar.com
                                    in an unauthorized application,
                                    which is prohibited.

                                    Please use an official Ultimate
                                    Guitar Tabs application for iPhone,
                                    iPad or Android to access legitimate
                                    chords, guitar, bass, and drum tabs
                                    from Ultimate-Guitar.com database.

                                    Type "ultimate guitar tabs" in Apple
                                    App Store's or Android Market's
                                    search to find the application.
0:06
G|-----------------------------------------------------------------|
D|-----------------------------------------------------------------|
A|-----------------2-2-2-2-2-2-5-5-----------------3-3-3-3-3-3-3-3-|
E|-3-3-3-3-3-3-3-3-----------------0-0-0-0-0-0-0-0-----------------|

0:13
G|-----------------------------------------------------------------|
D|-----------------------------------------------------------------|
A|-7---7---7---7---5---5---5---5-----------------------------------|
E|---------------------------------5---5---5---5---5-3-5-5-5---5---|

0:20
G|-----------------------------------------------------------------|
D|-----------------------------------------------------------------|
A|-7---7---7---7---5---5---5---5-----------------------------------|
E|---------------------------------5---5---5---5---5-3-5-5-5---5-5-|

0:27
G|-----------------------------------------------------------------|
D|-----------------------------------------------------------------|
A|-7---7---7---7~~~5---5---5---5~~~--------------------------------|
E|---------------------------------5---5---5---5-5-5---5---5---5-5-|

0:33
G|-----------------------------------------------------------------|
D|-----------------------------------------------------------------|
A|-7---7---7---7~~~5---5---5---5-----------------------------------|
E|---------------------------------5---5---5---5---5-\-------------|

0:39
G|-----------------------------------------------------------------|
D|-----------------------------------------------------------------|
A|-----------------2-2-2-2-2-2-2-2-7-7-7-7-7-7-7-7-3-3-3-3-3-3-3---|
E|-3-3-3-3-3-3-3-3-------------------------------------------------|

G|--------------------------------------------------------------------|
D|--------------------------------------------------------------------|
A|---------------0-2-2-2-2-2-2-2-2-7-7-7-7-7-7-7-7-3-3-3-3-7/15-15-15-|
E|-3-3-3-3-3-3-3------------------------------------------------------|

0:53
G|-----------------------------------------------------------------|
D|-----------------------------------------------------------------|
A|-7-7-7-7-7-7-7---3-3-3-3-3-3-3-------------------5-5-5-5-5-5-5-5-|
E|---------------------------------3-3-3-3-3-3-3-3-----------------|

G|-----------------------------------------------------------------|
D|-----------------------------------------------------------------|
A|-----------------2-2-2-2-2-2-2-2-7-7-7-7-7-7-7~~-----------------|
E|-3-3-3-3-3-3-3-3---------------------------------8-\-------------|

1:06
G|-------------------------------------------------------------5---|
D|-----------------------------------------------------------------|
A|-----------------2-2-2-2-2-2-5-5---------7---7---3-3-3-3-3-3-----|
E|-3-3-3-3-3-3-3-3-----------------0-0-0-0---0---0-----------------|

G|-----------------------------------------------------------------|-------|
D|-----------------------------------------------------------------|-------|
A|-----------------2-2-2-2-2-2-5-5-----------------3-3-3-3-3-3-3-3-|-------|
E|-3-3-3-3-3-3-3-3-----------------0-0-0-0-0-0-0-0-----------------|-0---0-|

1:24 x3
G|-------------------------------------------------------------------|
D|o-----------------------------------------------------------------o|
A|o-7---7-----7-----5~~~~-5-----5---0---0-----0-----0-0-0-0---------o|
E|------------------------------------------------------------3-3~~--|

1:43
G|-----------------------------------------------------------------|
D|-----------------------------------------------------------------|
A|-7---7-----7-----5~~~~-5-----5---0---0-----0---------------------|
E|-------------------------------------------------5-\-----------~-|

1:49
G|-----------------------------------------------------------------------|
D|---------------------------------------------------------/-10-10-10----|
A|-----------------2-2-2-2-2-2-2-2-7-7-7-7-7-7-7-7-3-3-3-3------------10-|
E|-3-3-3-3-3-3-3---------------------------------------------------------|

1:56
G|-----------------------------------------------------------------------|
D|-----------------------------------------------------------------------|
A|-----------------2-2-2/14-14-14-14\5---7-7-7-7-7-7-7-7-3-3-3-3-3-3-5-5-|
E|-3-3-3-3-3-3-3-3-------------------------------------------------------|

2:03
G|-----------------------------------------------------------------|
D|-----------------------------------------------------------------|
A|-----------------3-3-3-3-3-3-3-------------------5-5-5-5-5-5-5-5-|
E|-0-0-0-0-0-0-0-------------------3-3-3-3-3-3-3-3-----------------|

G|-----------------------4-----4-----------------------------------|
D|-----------------------------------------------------------------|
A|-----------------2-2-2---2-2-----7-7-7-7-7-7-7-------------------|
E|-3-3-3-3-3-3-3-----------------------------------8-\-------------|

2:17
G|-----------------------------------------------------------------|
D|-----------------------------0---2-2-2-2-2-2-2-------------------|
A|-----------------2-2-2-2-2-2---2-----------------3-3-3-3-3-3-3---|
E|-3-3-3-3-3-3-3---------------------------------------------------|

G|-----------------------------------------------------------------|
D|-----------------------------0-----------------------------------|
A|-----------------2-2-2-2-2-2---2-----------------3-3-3-3-3-3-3-3-|
E|-3-3-3-3-3-3-3-------------------0-0-0-0-0-0-0-0-----------------|

2:30
G|-----------------------------------------------------------------|
D|---------------------------------5-5-5-5-5-5-5-7-4-4-4-4-5-4-----|
A|-0-0-0-0-0-0-0---3-3-3-3-3-3-3-------------------------------5---|
E|-----------------------------------------------------------------|

G|-------------------------------------------------------------------------------------|
D|-----------------------------------------5---5---5-5-5-5-5-5-5-7-4-4-4-4-4-4-4-4-----|
A|-0-0-0-0-0-0-0---3-3-3-3-3-3-3---7-7-7-7---7---7---------------------------------5---|
E|-------------------------------------------------------------------------------------|

G|---------------------------|
D|-14-------12-------7-------|
A|---------------------------|
E|---------------------------|

2:56
G|-------------------------------4-------------------------------------|
D|---------------------------------------------5---5-7---------2-2-5-5-|
A|-10\-------------0-0-2-2-2-2-2---2-2-7-7-7-7---7-----3-3-5-5---------|
E|-----3-3-3-3-3-3-----------------------------------------------------|

3:02
G|-----------------------------------------------------------------|
D|---------5---5---------------------------5---5-----------2-2-----|
A|-----------------2-2-2-2-2-2-5-5-7-7-7-7---7---7-3-3-5-5-----3-3-|
E|-3-3-3-3---3---3-------------------------------------------------|

3:08
G|-----------------------------------------------------------------|
D|-----------------------------------------------------------------|
A|-----------------3-3-3-3-3-3-3-------------------5-5-5-5-5-5-5---|
E|-0-0-0-0-0-0-0-------------------3-3-3-3-3-3-3-------------------|

G|-----------------------------------------------------------------|
D|-------------------------0---0-----------------------------------|
A|-----------------2-2-2-2---2---2-7-7-7-7-7-7-7~~-----------------|
E|-3-3-3-3-3-3-3-----------------------------------8-\-------------|

3:22
G|-----------------------------------------------------------------|
D|-----------------------------------------------------------------|
A|-----------------2-2-2-2-2-2-2-2-7-7-7-7-7-7-7-7-3-3-3-3-3-3-3---|
E|-3-3-3-3-3-3-3---------------------------------------------------|

G|-----------------------------------------------------------------|
D|-------------------------------------------------------------7---|
A|-----------------2-2-2-2-2-2-2-2-7-7-7-7-7-7-7-7-3-3-3-3-3-3-----|
E|-3-3-3-3-3-3-3---------------------------------------------------|

3:36
G|-----------------------------------------------------------------|
D|---------5---5-----------5---5---------------------------9-9-7---|
A|-----------------2-2-2-2---2---2-----------------3-3-3-3---------|
E|-3-3-3-3---3---3-----------------0-0-0-0-0-0-0-0-----------------|

3:43
G|-----------------------------------------------------------------------|
D|---------5---5-------------------2-2-4-4-5-5-7-7-10-10-9-9-7-7-5-5-----|
A|-----------------2-2-2-2-2-2-2-2---------------------------------------|
E|-3-3-3-3---3---3---------------------------------------------------3---|
Tabbed by Dave Vucko
comments
We did not receive enough feedback on this tab! Please rate:
1 2 3 4 5
I want to post or [tab]
guest
You may want to rate the tab now too:
select rating
Please do not post tabs as comments. Select "correction" instead!