Oops, an error
Loading. Please wait.

And Love Said No Tab

by Him
ver1
ver1

Whole song

More versions @911Tabs.com
7,624 views 18 this week
no commentswrite comment
1 2 3 4 5
accurate
x 3
Autoscroll
+/-
esc
set tempo
stop
Contributor
Difficulty
intermediate
WARNING: You are trying to view
                                    content from Ultimate-Guitar.com
                                    in an unauthorized application,
                                    which is prohibited.

                                    Please use an official Ultimate
                                    Guitar Tabs application for iPhone,
                                    iPad or Android to access legitimate
                                    chords, guitar, bass, and drum tabs
                                    from Ultimate-Guitar.com database.

                                    Type "ultimate guitar tabs" in Apple
                                    App Store's or Android Market's
                                    search to find the application.
#----------------------------------PLEASE NOTE---------------------------------#
#This file is the author's own work and represents their interpretation of the #
#song. You may only use this file for private study, scholarship, or research. #
#------------------------------------------------------------------------------##

                                AND LOVE SAID NO
                              As recorded by H.I.M.
        (From the 2004 Album AND LOVE SAID NO: GREATEST HITS 1997 - 2004)

Words by Ville Valo

Music by H.I.M.
Arranged by H.I.M.


Gtr I (E A D G B E) - 'Acoustic'
Gtr II (E A D G B E) - 'Distortion'
Gtr III (E A D G B E) - 'piano'
Gtr IV (E A D G B E) - 'bells'
Gtr V (E A D G B E) - 'dist'

 Intro
  Q=130
  N.C.
 4/4
  Gtr I
   E   E  E  E   E  E  E   E    E  E   E  E  E   E  E E
|-----------------------------|-------------------------|
|---------8---------5---------|-7---------3-(3)-(3)-5p3-|
|-----(4)-------(4)-------(4)-|-------(4)---(4)-(4)-----|
|-(5)-------(5)-------(5)-----|---(5)-----------(5)-----|
|-----------------------------|-------------------------|
|-----------------------------|-------------------------|
|
| Gtr II
|  W                            W
|-----------------------------|-------------------------|
|-----------------------------|-------------------------|
|-----------------------------|-------------------------|
|-----------------------------|-------------------------|
|-----------------------------|-------------------------|
|-----------------------------|-------------------------|


   E   E  E  E   E  E  E   E    E  E   E  E  E    E  E    E
|-----------------------------|------------------------------|
|-(3)-----8---------5---------|-7---------3-(3)--(3)-5p===3--|
|-----(4)-------(4)-------(4)-|-------(4)---(4)--(4)---------|
|-(5)-------(5)-------(5)-----|---(5)------------(5)---------|
|-----------------------------|------------------------------|
|-----------------------------|------------------------------|
|
|                                                         ~~~
|  W                            H            E   +E  E   +E
|-----------------------------|------------------------------|
|-----------------------------|------------------------------|
|-----------------------------|------------------------------|
|-----------------------------|------------------------------|
|-----------------------------|------------------------------|
|-----------------------------|--------------2b3r(2)-2b3-(2)-|


  E5                       D5/A
   E   E  E   E   E  E  E   E     E   E   E  E  E   E  E E
|------------------------------|---------------------------|
|-(3)-(3)-8----------5---------|--7----------3-(3)-(3)-5p3-|
|-----(4)--------(4)-------(4)-|---------(4)---(4)-(4)-----|
|-(5)--------(5)-------(5)-----|-----(5)-----------(5)-----|
|------------------------------|---------------------------|
|------------------------------|---------------------------|
|
|  Q      Q.         Q      E    +E   E   Q    +E   E  E E
|------------------------------|---------------------------|
|------------------------------|---------------------------|
|------------------------------|---------------------------|
|--2------2----------2------7--|-(7)--7---7----(7)--7--7-7-|
|--2------2----------2------5--|-(5)--5---5----(5)--5--5-5-|
|--0------0----------0------5--|-(5)--5---5----(5)--5--5-5-|


  C5/G                     G5/D                  N.C.
   E   E  E   E   E  E  E   E      E   E   E   E  E    E  E    E
|------------------------------|----------------------------------|
|-(3)-----8----------5---------|---7-----------3-(3)--(3)-5p===3--|
|-----(4)--------(4)-------(4)-|----------(4)----(4)--(4)---------|
|-(5)--------(5)-------(5)-----|------(5)-------------(5)---------|
|------------------------------|----------------------------------|
|------------------------------|----------------------------------|
|
|                                                              ~~~
|  Q      Q.         Q      E     +E   E   E   E  E   +E  E   +E
|------------------------------|----------------------------------|
|------------------------------|----------------------------------|
|------------------------------|----------------------------------|
|--5------5----------5-----12--|-(12)-12--12--12------------------|
|--3------3----------3-----10--|-(10)-10--10--10------------------|
|--3------3----------3-----10--|-(10)-10--10--10--2b3r(2)-2b3-(2)-|


  E5                         D5/A
   E   E   E   E   E   E  E   E     E   E   E   E  E   E   E  E
|--------------------------------|------------------------------|
|-(3)-(3)--8-----------5---------|--7-----------3-(3)-(3)--5p=3-|
|-----(4)---------(4)--------(4)-|---------(4)----(4)-(4)-------|
|-(5)---------(5)--------(5)-----|-----(5)------------(5)-------|
|--------------------------------|------------------------------|
|--------------------------------|------------------------------|
|
|  Q       Q.          Q      E    +E   E   Q     +E   E   E  E
|--------------------------------|------------------------------|
|--------------------------------|------------------------------|
|--------------------------------|------------------------------|
|--2-------2-----------2------7--|-(7)--7---7-----(7)--7---7--7-|
|--2-------2-----------2------5--|-(5)--5---5-----(5)--5---5--5-|
|--0-------0-----------0------5--|-(5)--5---5-----(5)--5---5--5-|
|
| Gtr III
|  E   E   E   E   E   E  E   E     E   E   E   E  E   E   E  E
|-12--12--12--12--12--12-12--12--|-12--12--12--12-12--12--12-12-|
|--------------------------------|------------------------------|
|--------------------------------|------------------------------|
|--------------------------------|------------------------------|
|--------------------------------|------------------------------|
|--------------------------------|------------------------------|


  C5/G                       G5/D                  N.C.
   E   E   E   E   E   E  E   E      E   E   E   E  E    E    E    E
|--------------------------------|------------------------------------|
|-(3)------8-----------5---------|---7-----------3-(3)--(3)---5p===3--|
|-----(4)---------(4)--------(4)-|----------(4)----(4)--(4)-----------|
|-(5)---------(5)--------(5)-----|------(5)-------------(5)-----------|
|--------------------------------|------------------------------------|
|--------------------------------|------------------------------------|
|
|                                                                  ~~~
|  Q       Q.          Q      E     +E   E   E   E  E   +E    E   +E
|--------------------------------|------------------------------------|
|--------------------------------|------------------------------------|
|--------------------------------|------------------------------------|
|--5-------5-----------5-----12--|-(12)-12--12--12--------------------|
|--3-------3-----------3-----10--|-(10)-10--10--10--------------------|
|--3-------3-----------3-----10--|-(10)-10--10--10--2b3r(2)---2b3-(2)-|
|
|  E   E   E   E   E   E  E   E      E   E   E   E  E    E   +E    E
|-12--12--12--12--12--12-12--12--|--12--12--12--12-12---12--(12)------|
|--------------------------------|------------------------------------|
|--------------------------------|------------------------------------|
|--------------------------------|------------------------------------|
|--------------------------------|------------------------------------|
|--------------------------------|------------------------------------|


   Verse
    N.C.
     Q     Q.   q  E   +Q.   E E E Q    Q    Q.   q  E   +Q.   E E E Q
||-------------------|----------------|----------------|-----------------|
||o-(3)---(3)--------|----------------|----------------|-----------------|
||-------------------|----------------|----------------|-----------------|
||---------2----0----|-----------0----|------2----0----|-----------0-----|
||o----------------2-|-(2)---0-2---2--|--------------2-|-(2)---0-2---2---|
||---0---------------|----------------|-0--------------|-----------------|
|
|   Gtr III
|    Q     Q.   q  E   +W               Q    Q.   q  E   +W
||-------------------|----------------|----------------|-----------------|
||o------------------|----------------|----------------|-----------------|
||-------------------|----------------|----------------|-----------------|
||-------^-9----7--4-|-(4)------------|----^-9----7--4-|-(4)-------------|
||o------^10----9--5-|-(5)------------|----^10----9--5-|-(5)-------------|
||-------------------|----------------|----------------|-----------------|


                                    1.
  Q    Q.   q  E   +Q.   E E E Q    H    +E  Q  E   +Q.   H    +E
|----------------|----------------|---------------|-----------------||
|----------------|----------------|---------------|----------------o||
|----------------|----------------|---------------|-----------------||
|------2----0----|-----------0----|----------5--4-|-(4)---0----(0)--||
|--------------2-|-(2)---0-2---2--|-0----(0)------|----------------o||
|-0--------------|----------------|---------------|-----------------||
|
| Q    Q.   q  E   +W               W                W
|----------------|----------------|---------------|-----------------||
|----------------|----------------|---------------|----------------o||
|----------------|----------------|---------------|-----------------||
|----^-9----7--4-|-(4)------------|---------------|-----------------||
|----^10----9--5-|-(5)------------|---------------|----------------o||
|----------------|----------------|---------------|-----------------||


  2.
                                                          Gtr II
  H    +E  Q  E   +Q.   H    +E    H    +E  Q  E   +H     E   +E   Q
|---------------|----------------|---------------|------------------------|
|---------------|----------------|---------------|------------------------|
|---------------|----------------|---------------|------------------------|
|-2----(2)-5--4-|-(4)---0----(0)-|-2----(2)-5--4-|-(4)--------------------|
|---------------|----------------|---------------|------------------------|
|---------------|----------------|---------------|--------2b3r(2)-[2]b3r==|


 Chorus
  E5         D5/A
  Q  Q.   Q  E   +E  E Q  +E  E E E
|--------------|--------------------|
|--------------|--------------------|
|--------------|--------------------|
|-2--2----2--7-|-(7)-7-7--(7)-7-7-7-|
|-2--2----2--5-|-(5)-5-5--(5)-5-5-5-|
|-0--0----0--5-|-(5)-5-5--(5)-5-5-5-|


  C5/G       G5/D               N.C.
                                             ~~~
  Q  Q.   Q   E    +E   E  E  E E   +E  E   +E
|---------------|-------------------------------|
|---------------|-------------------------------|
|---------------|-------------------------------|
|-5--5----5--12-|-(12)-12-12-12-----------------|
|-3--3----3--10-|-(10)-10-10-10-----------------|
|-3--3----3--10-|-(10)-10-10-10-2b3r(2)-2b3-(2)-|


  E5         D5/A
  Q  Q.   Q  E   +E  E Q  +E  E E E
|--------------|--------------------|
|--------------|--------------------|
|--------------|--------------------|
|-2--2----2--7-|-(7)-7-7--(7)-7-7-7-|
|-2--2----2--5-|-(5)-5-5--(5)-5-5-5-|
|-0--0----0--5-|-(5)-5-5--(5)-5-5-5-|


  C5/G       G5/D               N.C.
                                             ~~~
  Q  Q.   Q   E    +E   E  E  E E   +E  E   +E
|---------------|-------------------------------|
|---------------|-------------------------------|
|---------------|-------------------------------|
|-5--5----5--12-|-(12)-12-12-12-----------------|
|-3--3----3--10-|-(10)-10-10-10-----------------|
|-3--3----3--10-|-(10)-10-10-10-2b3r(2)-2b3-(2)-|


  E5                       D/F#
   H..                      E    +W
|------------------------------|---------------------------|
|------------------------------|---------------------------|
|------------------------------|---------------------------|
|--2------------------------4--|-(4)-----------------------|
|--2------------------------5--|-(5)-----------------------|
|--0------------------------2--|-(2)-----------------------|
|
| Gtr I
|  E    E  E  E   E  E  E   E     E   E   E  E  E   E  E E
|------------------------------|---------------------------|
|--3---(3)-8---------5---------|--7----------3-(3)-(3)-5p3-|
|------(4)-------(4)-------(4)-|---------(4)---(4)-(4)-----|
|-(5)--------(5)-------(5)-----|-----(5)-----------(5)-----|
|------------------------------|---------------------------|
|------------------------------|---------------------------|


  C5/G                     G5/D                  N.C.
                                                               ~~~
   H..                      E     +E   E   E   E  E   +E  E   +E
|------------------------------|----------------------------------|
|------------------------------|----------------------------------|
|------------------------------|----------------------------------|
|--5-----------------------12--|-(12)-12--12--12------------------|
|--3-----------------------10--|-(10)-10--10--10------------------|
|--3-----------------------10--|-(10)-10--10--10--2b3r(2)-2b3-(2)-|
|
|  E    E  E  E   E  E  E   E      E   E   E   E  E    E  E    E
|------------------------------|----------------------------------|
|-(3)------8---------5---------|---7-----------3-(3)--(3)-5p===3--|
|------(4)-------(4)-------(4)-|----------(4)----(4)--(4)---------|
|-(5)--------(5)-------(5)-----|------(5)-------------(5)---------|
|------------------------------|----------------------------------|
|------------------------------|----------------------------------|


  E5                       D/F#
   H..                      E    +W
|------------------------------|---------------------------|
|------------------------------|---------------------------|
|------------------------------|---------------------------|
|--2------------------------4--|-(4)-----------------------|
|--2------------------------5--|-(5)-----------------------|
|--0------------------------2--|-(2)-----------------------|
|
|  E    E  E  E   E  E  E   E     E   E   E  E  E   E  E E
|------------------------------|---------------------------|
|-(3)--(3)-8---------5---------|--7----------3-(3)-(3)-5p3-|
|------(4)-------(4)-------(4)-|---------(4)---(4)-(4)-----|
|-(5)--------(5)-------(5)-----|-----(5)-----------(5)-----|
|------------------------------|---------------------------|
|------------------------------|---------------------------|


  C5/G                     G5                  N.C.
   H..                      E    +E   E   E  E  E   +E  E   +E
|------------------------------|--------------------------------|
|------------------------------|--------------------------------|
|------------------------------|--------------------------------|
|--5------------------------5--|-(5)--5---5--5------------------|
|--3------------------------5--|-(5)--5---5--5------------------|
|--3------------------------3--|-(3)--3---3--3--2b3r(2)-2b3r(2)-|
|
|  E    E  E  E   E  E  E   E     E   E   E  E  E    E  E    E
|------------------------------|--------------------------------|
|-(3)------8---------5---------|--7----------3-(3)--(3)-5p===3--|
|------(4)-------(4)-------(4)-|---------(4)---(4)--(4)---------|
|-(5)--------(5)-------(5)-----|-----(5)------------(5)---------|
|------------------------------|--------------------------------|
|------------------------------|--------------------------------|


  C5/G                N.C.
                                    ~~~~~~~
   W           +H     E   +E  E    +S  +S
|------------|-----------------------------|
|------------|-----------------------------|
|------------|-----------------------------|
|--5---------|-(5)-------------------------|
|--3---------|-(3)-------------------------|
|--3---------|-(3)----2b3r(2)-2b3==(2)r(2)-|
|
| +W            W
|------------|-----------------------------|
|-(3)--------|-----------------------------|
|------------|-----------------------------|
|------------|-----------------------------|
|------------|-----------------------------|
|------------|-----------------------------|


   Verse
    N.C.
    Gtr I
    Q    Q.   q  E   +Q.   E E E Q    Q    Q.   q  E   +Q.   E E E Q
||-----------------|----------------|----------------|-----------------|
||o----------------|----------------|----------------|-----------------|
||-----------------|----------------|----------------|-----------------|
||-------2----0----|-----------0----|------2----0----|-----------0-----|
||o--------------2-|-(2)---0-2---2--|--------------2-|-(2)---0-2---2---|
||--0--------------|----------------|-0--------------|-----------------|
|
|   Gtr III
|   Q    Q.   q  E   +W               Q    Q.   q  E   +W
||-----------------|----------------|----------------|-----------------|
||o----------------|----------------|----------------|-----------------|
||-----------------|----------------|----------------|-----------------|
||-----^-9----7--4-|-(4)------------|----^-9----7--4-|-(4)-------------|
||o----^10----9--5-|-(5)------------|----^10----9--5-|-(5)-------------|
||-----------------|----------------|----------------|-----------------|


                                    1.
  Q    Q.   q  E   +Q.   E E E Q    H    +E  Q  E   +Q.   H    +E
|----------------|----------------|---------------|-----------------||
|----------------|----------------|---------------|----------------o||
|----------------|----------------|---------------|-----------------||
|------2----0----|-----------0----|----------5--4-|-(4)---0----(0)--||
|--------------2-|-(2)---0-2---2--|-0----(0)------|----------------o||
|-0--------------|----------------|---------------|-----------------||
|
| Q    Q.   q  E   +W               W                W
|----------------|----------------|---------------|-----------------||
|----------------|----------------|---------------|----------------o||
|----------------|----------------|---------------|-----------------||
|----^-9----7--4-|-(4)------------|---------------|-----------------||
|----^10----9--5-|-(5)------------|---------------|----------------o||
|----------------|----------------|---------------|-----------------||


  2.
                                                          Gtr II
  H    +E  Q  E   +Q.   H    +E    H    +E  Q  E   +H     E   +E   Q
|---------------|----------------|---------------|------------------------|
|---------------|----------------|---------------|------------------------|
|---------------|----------------|---------------|------------------------|
|-2----(2)-5--4-|-(4)---0----(0)-|-2----(2)-5--4-|-(4)--------------------|
|---------------|----------------|---------------|------------------------|
|---------------|----------------|---------------|--------2b3r(2)-[2]b3r==|


 Chorus
  E5                       D5/A
   Q      Q.         Q      E    +E   E   Q    +E   E  E E
|------------------------------|---------------------------|
|------------------------------|---------------------------|
|------------------------------|---------------------------|
|--2------2----------2------7--|-(7)--7---7----(7)--7--7-7-|
|--2------2----------2------5--|-(5)--5---5----(5)--5--5-5-|
|--0------0----------0------5--|-(5)--5---5----(5)--5--5-5-|
|
| Gtr I
|  E   E  E   E   E  E  E   E     E   E   E  E  E   E  E E
|------------------------------|---------------------------|
|---------8----------5---------|--7----------3-(3)-(3)-5p3-|
|-----(4)--------(4)-------(4)-|---------(4)---(4)-(4)-----|
|-(5)--------(5)-------(5)-----|-----(5)-----------(5)-----|
|------------------------------|---------------------------|
|------------------------------|---------------------------|


  C5/G                     G5/D                  N.C.
                                                               ~~~
   Q      Q.         Q      E     +E   E   E   E  E   +E  E   +E
|------------------------------|----------------------------------|
|------------------------------|----------------------------------|
|------------------------------|----------------------------------|
|--5------5----------5-----12--|-(12)-12--12--12------------------|
|--3------3----------3-----10--|-(10)-10--10--10------------------|
|--3------3----------3-----10--|-(10)-10--10--10--2b3r(2)-2b3-(2)-|
|
|  E   E  E   E   E  E  E   E      E   E   E   E  E    E  E    E
|------------------------------|----------------------------------|
|-(3)-----8----------5---------|---7-----------3-(3)--(3)-5p===3--|
|-----(4)--------(4)-------(4)-|----------(4)----(4)--(4)---------|
|-(5)--------(5)-------(5)-----|------(5)-------------(5)---------|
|------------------------------|----------------------------------|
|------------------------------|----------------------------------|


  E5                       D5/A
   Q      Q.         Q      E    +E   E   Q    +E   E  E E
|------------------------------|---------------------------|
|------------------------------|---------------------------|
|------------------------------|---------------------------|
|--2------2----------2------7--|-(7)--7---7----(7)--7--7-7-|
|--2------2----------2------5--|-(5)--5---5----(5)--5--5-5-|
|--0------0----------0------5--|-(5)--5---5----(5)--5--5-5-|
|
|  E   E  E   E   E  E  E   E     E   E   E  E  E   E  E E
|------------------------------|---------------------------|
|-(3)-(3)-8----------5---------|--7----------3-(3)-(3)-5p3-|
|-----(4)--------(4)-------(4)-|---------(4)---(4)-(4)-----|
|-(5)--------(5)-------(5)-----|-----(5)-----------(5)-----|
|------------------------------|---------------------------|
|------------------------------|---------------------------|


  C5/G                     G5/D                  N.C.
                                                               ~~~
   Q      Q.         Q      E     +E   E   E   E  E   +E  E   +E
|------------------------------|----------------------------------|
|------------------------------|----------------------------------|
|------------------------------|----------------------------------|
|--5------5----------5-----12--|-(12)-12--12--12------------------|
|--3------3----------3-----10--|-(10)-10--10--10------------------|
|--3------3----------3-----10--|-(10)-10--10--10--2b3r(2)-2b3-(2)-|
|
|  E   E  E   E   E  E  E   E      E   E   E   E  E    E  E    E
|------------------------------|----------------------------------|
|-(3)-----8----------5---------|---7-----------3-(3)--(3)-5p===3--|
|-----(4)--------(4)-------(4)-|----------(4)----(4)--(4)---------|
|-(5)--------(5)-------(5)-----|------(5)-------------(5)---------|
|------------------------------|----------------------------------|
|------------------------------|----------------------------------|


  E5                       D/F#
   H..                      E    +W
|------------------------------|---------------------------|
|------------------------------|---------------------------|
|------------------------------|---------------------------|
|--2------------------------4--|-(4)-----------------------|
|--2------------------------5--|-(5)-----------------------|
|--0------------------------2--|-(2)-----------------------|
|
|  E    E  E  E   E  E  E   E     E   E   E  E  E   E  E E
|------------------------------|---------------------------|
|-(3)--(3)-8---------5---------|--7----------3-(3)-(3)-5p3-|
|------(4)-------(4)-------(4)-|---------(4)---(4)-(4)-----|
|-(5)--------(5)-------(5)-----|-----(5)-----------(5)-----|
|------------------------------|---------------------------|
|------------------------------|---------------------------|


  C5/G                     G5/D                  N.C.
                                                               ~~~
   H..                      E     +E   E   E   E  E   +E  E   +E
|------------------------------|----------------------------------|
|------------------------------|----------------------------------|
|------------------------------|----------------------------------|
|--5-----------------------12--|-(12)-12--12--12------------------|
|--3-----------------------10--|-(10)-10--10--10------------------|
|--3-----------------------10--|-(10)-10--10--10--2b3r(2)-2b3-(2)-|
|
|  E    E  E  E   E  E  E   E      E   E   E   E  E    E  E    E
|------------------------------|----------------------------------|
|-(3)------8---------5---------|---7-----------3-(3)--(3)-5p===3--|
|------(4)-------(4)-------(4)-|----------(4)----(4)--(4)---------|
|-(5)--------(5)-------(5)-----|------(5)-------------(5)---------|
|------------------------------|----------------------------------|
|------------------------------|----------------------------------|


  E5                       D/F#
   H..                      E    +W
|------------------------------|---------------------------|
|------------------------------|---------------------------|
|------------------------------|---------------------------|
|--2------------------------4--|-(4)-----------------------|
|--2------------------------5--|-(5)-----------------------|
|--0------------------------2--|-(2)-----------------------|
|
|  E    E  E  E   E  E  E   E     E   E   E  E  E   E  E E
|------------------------------|---------------------------|
|-(3)--(3)-8---------5---------|--7----------3-(3)-(3)-5p3-|
|------(4)-------(4)-------(4)-|---------(4)---(4)-(4)-----|
|-(5)--------(5)-------(5)-----|-----(5)-----------(5)-----|
|------------------------------|---------------------------|
|------------------------------|---------------------------|


  C5/G                     G5                       N.C.    E5
   H..                      E    +H             +E  E   +E  E
|------------------------------|------------------------------|
|------------------------------|------------------------------|
|------------------------------|------------------------------|
|--5------------------------5--|-(5)------------(5)---------2-|
|--3------------------------5--|-(5)------------(5)---------2-|
|--3------------------------3--|-(3)------------(3)-2b3r(2)-0-|
|
|  E    E  E  E   E  E  E   E     E   E   E  Q.          E  E
|------------------------------|------------------------------|
|-(3)------8---------5---------|--7----------3-----------5--3-|
|------(4)-------(4)-------(4)-|---------(4)------------------|
|-(5)--------(5)-------(5)-----|-----(5)----------------------|
|------------------------------|------------------------------|
|------------------------------|------------------------------|


 Breakdown
            N.C.    E5            N.C.    E5
  +Q   Q  E E   +E  E   +Q   Q  E E   +E  E
|---------------------|---------------------|
|---------------------|---------------------|
|---------------------|---------------------|
|-(2)--2------------2-|-(2)--2------------2-|
|-(2)--2------------2-|-(2)--2------------2-|
|-(0)--0----2b3r(2)-0-|-(0)--0----2b3r(2)-0-|
|
| +W                    +W
|---------------------|---------------------|
|-(3)-----------------|-(3)-----------------|
|---------------------|---------------------|
|---------------------|---------------------|
|---------------------|---------------------|
|---------------------|---------------------|


            N.C.    A5          C5     N.C.    E5
  +Q   Q  E E   +E  E   +E  E E Q      E   +E  E
|---------------------|--------------------------|
|---------------------|--------------------------|
|---------------------|--------------------------|
|-(2)--2------------2-|-(2)-2-2-5\-------------2-|
|-(2)--2------------0-|-(0)-0-0-3\-------------2-|
|-(0)--0----2b3r(2)---|----------------2b3r(2)-0-|
|
| +W                    +H         +E  E    E  E
|---------------------|--------------------------|
|-(3)-----------------|-(3)--------(3)------5--3-|
|---------------------|--------------------------|
|---------------------|----------------5---------|
|---------------------|--------------------------|
|---------------------|--------------------------|


            N.C.    E5            N.C.    E5
  +Q   Q  E E   +E  E   +Q   Q  E E   +E  E
|---------------------|---------------------|
|---------------------|---------------------|
|---------------------|---------------------|
|-(2)--2------------2-|-(2)--2------------2-|
|-(2)--2------------2-|-(2)--2------------2-|
|-(0)--0----2b3r(2)-0-|-(0)--0----2b3r(2)-0-|
|
| +W                    +W
|---------------------|---------------------|
|-(3)-----------------|-(3)-----------------|
|---------------------|---------------------|
|---------------------|---------------------|
|---------------------|---------------------|
|---------------------|---------------------|


            N.C.    A5          C5     N.C.    E5
  +Q   Q  E E   +E  E   +E  E E Q      E   +E  E
|---------------------|--------------------------|
|---------------------|--------------------------|
|---------------------|--------------------------|
|-(2)--2------------2-|-(2)-2-2-5\-------------2-|
|-(2)--2------------0-|-(0)-0-0-3\-------------2-|
|-(0)--0----2b3r(2)---|----------------2b3r(2)-0-|
|
| +W                    +H         +E  E    E  E
|---------------------|--------------------------|
|-(3)-----------------|-(3)--------(3)------5--3-|
|---------------------|--------------------------|
|---------------------|----------------5---------|
|---------------------|--------------------------|
|---------------------|--------------------------|


                >
  +W           +W           +W           +W
|------------|------------|------------|--------|
|------------|------------|------------|--------|
|------------|------------|------------|--------|
|-(2)--------|-(2)--------|-(2)--------|-(2)----|
|-(2)--------|-(2)--------|-(2)--------|-(2)----|
|-(0)--------|-(0)--------|-(0)--------|-(0)----|
|
| +W           +W           +W            W
|------------|------------|------------|--------|
|-(3)--------|-(3)--------|-(3)--------|--------|
|------------|------------|------------|--------|
|------------|------------|------------|--------|
|------------|------------|------------|--------|
|------------|------------|------------|--------|


 Interlude
  N.C.
  Gtr III
  Q    Q.   q  E   +W           Q    Q.   q  E
|----------------|------------|----------------|
|----------------|------------|----------------|
|----------------|------------|----------------|
|----^-9----7--4-|-(4)--------|----^-9----7--4-|
|----^10----9--5-|-(5)--------|----^10----9--5-|
|----------------|------------|----------------|


  +W           Q    Q.   q  E   +W
|------------|----------------|--------|
|------------|----------------|--------|
|------------|----------------|--------|
|-(4)--------|----^-9----7--4-|-(4)----|
|-(5)--------|----^10----9--5-|-(5)----|
|------------|----------------|--------|


  Gtr I
  H       +E  Q  E   +Q.   H    +E
|------------------|----------------|
|------------------|----------------|
|------------------|----------------|
|-2-------(2)-5--4-|-(4)---0----(0)-|
|------------------|----------------|
|------------------|----------------|
|
| Gtr III
| E E E Q     Q  E   +W
|------------------|----------------|
|------------------|----------------|
|-------------0----|----------------|
|-------2--------4-|-(4)------------|
|---0-3------------|----------------|
|------------------|----------------|


                            Gtr II
  H       +E  Q  E   +H     E   +E   Q
|------------------|------------------------|
|------------------|------------------------|
|------------------|------------------------|
|-2-------(2)-5--4-|-(4)--------------------|
|------------------|------------------------|
|------------------|--------2b3r(2)-[2]b3r==|
|
| E E E Q     Q  E   +H     H
|-------0-----3--8-|-(8)--------------------|
|-----1------------|------------------------|
|---2--------------|------------------------|
|------------------|------------------------|
|------------------|------------------------|
|------------------|------------------------|


 Out-Chorus
  N.C.                          D5/A
   H..                           E    +E   E   Q     +E   E   E  E
|-----------------------------------|------------------------------|
|-----------------------------------|------------------------------|
|-----------------------------------|------------------------------|
|--------------------------------7--|-(7)--7---7-----(7)--7---7--7-|
|--------------------------------5--|-(5)--5---5-----(5)--5---5--5-|
|--------------------------------5--|-(5)--5---5-----(5)--5---5--5-|
|
| Gtr I
|  E     E   E   E    E   E  E   E     E   E   E   E  E   E   E  E
|-----------------------------------|------------------------------|
|------------8------------5---------|--7-----------3-(3)-(3)--5p=3-|
|-------(4)----------(4)--------(4)-|---------(4)----(4)-(4)-------|
|-(5)-----------(5)---------(5)-----|-----(5)------------(5)-------|
|-----------------------------------|------------------------------|
|-----------------------------------|------------------------------|
|
| Gtrs III, IV                  Gtr III
|  E     E   E  +E    E   Q      E     E   E   E   E  E   E   E  E
|-----------15-(15)-(15)-12-----12--|-12--12--12--12-12--12--12-12-|
|------(12)---------(12)------------|------------------------------|
|-12--------------------------------|------------------------------|
|-----------------------------------|------------------------------|
|-----------------------------------|------------------------------|
|-----------------------------------|------------------------------|


  C5/G                       G5/D                  N.C.
                                                                  ~~~
   Q       Q.          Q      E     +E   E   E   E  E   +E   E   +E
|--------------------------------|-----------------------------------|
|--------------------------------|-----------------------------------|
|--------------------------------|-----------------------------------|
|--5-------5-----------5-----12--|-(12)-12--12--12-------------------|
|--3-------3-----------3-----10--|-(10)-10--10--10-------------------|
|--3-------3-----------3-----10--|-(10)-10--10--10--2b3r(2)--2b3-(2)-|
|
|  E   E   E   E   E   E  E   E      E   E   E   E  E    E   E    E
|--------------------------------|-----------------------------------|
|-(3)------8-----------5---------|---7-----------3-(3)--(3)--5p===3--|
|-----(4)---------(4)--------(4)-|----------(4)----(4)--(4)----------|
|-(5)---------(5)--------(5)-----|------(5)-------------(5)----------|
|--------------------------------|-----------------------------------|
|--------------------------------|-----------------------------------|
|
|  E   E   E   E   E   E  E   E      E   E   E   E  E    E   E    E
|-12--12--12--12--12--12-12--12--|--12--12--12--12-12---12--12---12--|
|--------------------------------|-----------------------------------|
|--------------------------------|-----------------------------------|
|--------------------------------|-----------------------------------|
|--------------------------------|-----------------------------------|
|--------------------------------|-----------------------------------|


  E5                         D5/A
   Q       Q.          Q      E    +E   E   Q     +E   E   E  E
|--------------------------------|------------------------------|
|--------------------------------|------------------------------|
|--------------------------------|------------------------------|
|--2-------2-----------2------7--|-(7)--7---7-----(7)--7---7--7-|
|--2-------2-----------2------5--|-(5)--5---5-----(5)--5---5--5-|
|--0-------0-----------0------5--|-(5)--5---5-----(5)--5---5--5-|
|
|  E   E   E   E   E   E  E   E     E   E   E   E  E   E   E  E
|--------------------------------|------------------------------|
|-(3)-(3)--8-----------5---------|--7-----------3-(3)-(3)--5p=3-|
|-----(4)---------(4)--------(4)-|---------(4)----(4)-(4)-------|
|-(5)---------(5)--------(5)-----|-----(5)------------(5)-------|
|--------------------------------|------------------------------|
|--------------------------------|------------------------------|
|
|  E   E   E   E   E   E  E   E     E   E   E   E  E   E   E  E
|-12--12--12--12--12--12-12--12--|-12--12--12--12-12--12--12-12-|
|--------------------------------|------------------------------|
|--------------------------------|------------------------------|
|--------------------------------|------------------------------|
|--------------------------------|------------------------------|
|--------------------------------|------------------------------|


  C5/G                       G5/D                  N.C.
                                                                  ~~~
   Q       Q.          Q      E     +E   E   E   E  E   +E   E   +E
|--------------------------------|-----------------------------------|
|--------------------------------|-----------------------------------|
|--------------------------------|-----------------------------------|
|--5-------5-----------5-----12--|-(12)-12--12--12-------------------|
|--3-------3-----------3-----10--|-(10)-10--10--10-------------------|
|--3-------3-----------3-----10--|-(10)-10--10--10--2b3r(2)--2b3-(2)-|
|
|  E   E   E   E   E   E  E   E      E   E   E   E  E    E   E    E
|--------------------------------|-----------------------------------|
|-(3)------8-----------5---------|---7-----------3-(3)--(3)--5p===3--|
|-----(4)---------(4)--------(4)-|----------(4)----(4)--(4)----------|
|-(5)---------(5)--------(5)-----|------(5)-------------(5)----------|
|--------------------------------|-----------------------------------|
|--------------------------------|-----------------------------------|
|
|  E   E   E   E   E   E  E   E      E   E   E   E  E    E   E    E
|-12--12--12--12--12--12-12--12--|--12--12--12--12-12---12--12---12--|
|--------------------------------|-----------------------------------|
|--------------------------------|-----------------------------------|
|--------------------------------|-----------------------------------|
|--------------------------------|-----------------------------------|
|--------------------------------|-----------------------------------|


  E5                         D/F#
   H..                        E    +W
|--------------------------------|------------------------------|
|--------------------------------|------------------------------|
|--------------------------------|------------------------------|
|--2--------------------------4--|-(4)--------------------------|
|--2--------------------------5--|-(5)--------------------------|
|--0--------------------------2--|-(2)--------------------------|
|
|  E    E   E  E   E   E  E   E     E   E   E   E  E   E   E  E
|--------------------------------|------------------------------|
|-(3)--(3)--8----------5---------|--7-----------3-(3)-(3)--5p=3-|
|------(4)--------(4)--------(4)-|---------(4)----(4)-(4)-------|
|-(5)---------(5)--------(5)-----|-----(5)------------(5)-------|
|--------------------------------|------------------------------|
|--------------------------------|------------------------------|
|
|  E    E   E  E   E   E  E   E     E   E   E   E  E   E   E  E
|-12---12--12-12--12--12-12--12--|-12--12--12--12-12--12--12-12-|
|--------------------------------|------------------------------|
|--------------------------------|------------------------------|
|--------------------------------|------------------------------|
|--------------------------------|------------------------------|
|--------------------------------|------------------------------|


  C5/G                       G5/D                  N.C.
                                                                  ~~~
   H..                        E     +E   E   E   E  E   +E   E   +E
|--------------------------------|-----------------------------------|
|--------------------------------|-----------------------------------|
|--------------------------------|-----------------------------------|
|--5-------------------------12--|-(12)-12--12--12-------------------|
|--3-------------------------10--|-(10)-10--10--10-------------------|
|--3-------------------------10--|-(10)-10--10--10--2b3r(2)--2b3-(2)-|
|
|  E    E   E  E   E   E  E   E      E   E   E   E  E    E   E    E
|--------------------------------|-----------------------------------|
|-(3)-------8----------5---------|---7-----------3-(3)--(3)--5p===3--|
|------(4)--------(4)--------(4)-|----------(4)----(4)--(4)----------|
|-(5)---------(5)--------(5)-----|------(5)-------------(5)----------|
|--------------------------------|-----------------------------------|
|--------------------------------|-----------------------------------|
|
|  E    E   E  E   E   E  E   E      E   E   E   E  E    E   E    E
|-12---12--12-12--12--12-12--12--|--12--12--12--12-12---12--12---12--|
|--------------------------------|-----------------------------------|
|--------------------------------|-----------------------------------|
|--------------------------------|-----------------------------------|
|--------------------------------|-----------------------------------|
|--------------------------------|-----------------------------------|


  E5                         D/F#
   H..                        E    +W
|--------------------------------|------------------------------|
|--------------------------------|------------------------------|
|--------------------------------|------------------------------|
|--2--------------------------4--|-(4)--------------------------|
|--2--------------------------5--|-(5)--------------------------|
|--0--------------------------2--|-(2)--------------------------|
|
|  E    E   E  E   E   E  E   E     E   E   E   E  E   E   E  E
|--------------------------------|------------------------------|
|-(3)--(3)--8----------5---------|--7-----------3-(3)-(3)--5p=3-|
|------(4)--------(4)--------(4)-|---------(4)----(4)-(4)-------|
|-(5)---------(5)--------(5)-----|-----(5)------------(5)-------|
|--------------------------------|------------------------------|
|--------------------------------|------------------------------|
|
|  E    E   E  E   E   E  E   E     E   E   E   E  E   E   E  E
|-12---12--12-12--12--12-12--12--|-12--12--12--12-12--12--12-12-|
|--------------------------------|------------------------------|
|--------------------------------|------------------------------|
|--------------------------------|------------------------------|
|--------------------------------|------------------------------|
|--------------------------------|------------------------------|


  C5/G                       G5                   N.C.
   H..                        E    +E   E   E   E  E   +E   E   +E
|--------------------------------|----------------------------------|
|--------------------------------|----------------------------------|
|--------------------------------|----------------------------------|
|--5--------------------------5--|-(5)--5---5---5-------------------|
|--3--------------------------5--|-(5)--5---5---5-------------------|
|--3--------------------------3--|-(3)--3---3---3--2b3r(2)--2b3r(2)-|
|
|  E    E   E  E   E   E  E   E     E   E   E   E  E    E   E    E
|--------------------------------|----------------------------------|
|-(3)-------8----------5---------|--7-----------3-(3)--(3)--5p===3--|
|------(4)--------(4)--------(4)-|---------(4)----(4)--(4)----------|
|-(5)---------(5)--------(5)-----|-----(5)-------------(5)----------|
|--------------------------------|----------------------------------|
|--------------------------------|----------------------------------|
|
|  E    E   E  E   E   E  E   E     E   E   E   E  E    E   E    E
|-12---12--12-12--12--12-12--12--|-12--12--12--12-12---12--12---12--|
|--------------------------------|----------------------------------|
|--------------------------------|----------------------------------|
|--------------------------------|----------------------------------|
|--------------------------------|----------------------------------|
|--------------------------------|----------------------------------|


  C5/G                     G5                  N.C.
   H..                      E    +E   E   E  E  E   +E  E   +E
|------------------------------|--------------------------------|
|------------------------------|--------------------------------|
|------------------------------|--------------------------------|
|--5------------------------5--|-(5)--5---5--5------------------|
|--3------------------------5--|-(5)--5---5--5------------------|
|--3------------------------3--|-(3)--3---3--3--2b3r(2)-2b3r(2)-|
|
|  E    E  E  E   E  E  E   E     E   E   E  E  E    E  E    E
|------------------------------|--------------------------------|
|-(3)--(3)-8---------5---------|--7----------3-(3)--(3)-5p===3--|
|------(4)-------(4)-------(4)-|---------(4)---(4)--(4)---------|
|-(5)--------(5)-------(5)-----|-----(5)------------(5)---------|
|------------------------------|--------------------------------|
|------------------------------|--------------------------------|


  C5/G                     G5                  N.C.
   H..                      E    +E   E   E  E  E   +E  Q
|------------------------------|------------------------------|
|------------------------------|------------------------------|
|------------------------------|------------------------------|
|--5------------------------5--|-(5)--5---5--5----------------|
|--3------------------------5--|-(5)--5---5--5----------------|
|--3------------------------3--|-(3)--3---3--3--2b3r(2)-2b3r==|
|
|  E    E  E  E   E  E  E   E     E   E   E  E  E    E  E   E
|------------------------------|------------------------------|
|-(3)------8---------5---------|--7----------3-(3)--(3)-5p==3-|
|------(4)-------(4)-------(4)-|---------(4)---(4)--(4)-------|
|-(5)--------(5)-------(5)-----|-----(5)------------(5)-------|
|------------------------------|------------------------------|
|------------------------------|------------------------------|


  E5
  W                +W
|----------------|------------------|
|----------------|------------------|
|----------------|------------------|
|-2--------------|-(2)--------------|
|-2--------------|-(2)--------------|
|-0--------------|-(0)--------------|
|
| Gtr V
| Q   Q.    Q.      Q.    Q.   +Q
|----------------|------------------|
|----(8)---(5)---|-(7)---(3)---(3)--|
|----------------|------------------|
|----------------|------------------|
|----------------|------------------|
|----------------|------------------|


                      \0.25______________/
  +W                 +H            +Q   +E  +E
|------------------|----------------------------|
|------------------|----------------------------|
|------------------|----------------------------|
|-(2)--------------|-(2)-----------(2)--(2)-(2)-|
|-(2)--------------|-(2)-----------(2)--(2)-(2)-|
|-(0)--------------|-(0)-----------(0)--(0)-(0)-|
|
| +Q    Q.    Q.      Q.        Q.      +Q
|------------------|----------------------------|
|-(3)--(8)---(5)---|-(7)-------(3)------(3)-----|
|------------------|----------------------------|
|------------------|----------------------------|
|------------------|----------------------------|
|------------------|----------------------------|


  +W                 +W                 +W                 +W
|------------------|------------------|------------------|------------------|
|------------------|------------------|------------------|------------------|
|------------------|------------------|------------------|------------------|
|-(2)--------------|-(2)--------------|-(2)--------------|-(2)--------------|
|-(2)--------------|-(2)--------------|-(2)--------------|-(2)--------------|
|-(0)--------------|-(0)--------------|-(0)--------------|-(0)--------------|
|
| +Q    Q.    Q.      Q.    Q.   +Q     +Q    Q.    Q.      Q.    Q.   +Q
|------------------|------------------|------------------|------------------|
|-(3)--(8)---(5)---|-(7)---(3)---(3)--|-(3)--(8)---(5)---|-(7)---(3)---(3)--|
|------------------|------------------|------------------|------------------|
|------------------|------------------|------------------|------------------|
|------------------|------------------|------------------|------------------|
|------------------|------------------|------------------|------------------|


  +W                 +W                 +W                 +W
|------------------|------------------|------------------|------------------*|
|------------------|------------------|------------------|------------------*|
|------------------|------------------|------------------|------------------*|
|-(2)--------------|-(2)--------------|-(2)--------------|-(2)--------------*|
|-(2)--------------|-(2)--------------|-(2)--------------|-(2)--------------*|
|-(0)--------------|-(0)--------------|-(0)--------------|-(0)--------------*|
|
| +Q    Q.    Q.      Q.    Q.   +Q     +Q    Q.    Q.      Q.    Q.   +Q
|------------------|------------------|------------------|------------------*|
|-(3)--(8)---(5)---|-(7)---(3)---(3)--|-(3)--(8)---(5)---|-(7)---(3)---(3)--*|
|------------------|------------------|------------------|------------------*|
|------------------|------------------|------------------|------------------*|
|------------------|------------------|------------------|------------------*|
|------------------|------------------|------------------|------------------*|


Duration Legend
---------------
W - whole; H - half; Q - quarter; E - 8th; S - 16th; T - 32nd; X - 64th; a - acciaccatura
+ - note tied to previous; . - note dotted; .. - note double dotted
Uncapitalized letters represent notes that are staccato (1/2 duration)
Irregular groupings are notated above the duration line
Duration letters will always appear directly above the note/fret number it represents the
duration for.  Duration letters with no fret number below them represent rests.  Multi-
bar rests are notated in the form Wxn, where n is the number of bars to rest for.  Low
melody durations appear below the staff

Tablature Legend
----------------
 h   - hammer-on
 p   - pull-off
 b   - bend
 pb  - pre-bend
 r   - bend release (if no number after the r, then release immediately)
 /\  - slide into or out of (from/to "nowhere")
 s   - legato slide
 S   - shift slide
  - natural harmonic
[n]  - artificial harmonic
n(n) - tapped harmonic
 ~   - vibrato
 tr  - trill
 T   - tap
 TP  - trem. picking
 PM  - palm muting
\n/  - tremolo bar dip; n = amount to dip
 \n  - tremolo bar down
 n/  - tremolo bar up
/n\  - tremolo bar inverted dip
 =   - hold bend; also acts as connecting device for hammers/pulls
 <>  - volume swell (louder/softer)
 x   - on rhythm slash represents muted slash
 o   - on rhythm slash represents single note slash

Misc Legend
-----------
 |  - bar
||  - double bar
||o - repeat start
o|| - repeat end
*|  - double bar (ending)
 :  - bar (freetime)
 $  - Segno
 &  - Coda
Tempo markers -  = BPM(8/16=s8/s16), where s8 = swing 8ths, s16 = swing 16ths


comments
We did not receive enough feedback on this tab! Please rate:
print report bad tab
1 2 3 4 5
I want to post or [tab]
guest
You may want to rate the tab now too:
select rating
Please do not post tabs as comments. Select "correction" instead!