Oops, an error
Loading. Please wait.

Greatest Lovesongs Vol 666 Bass Tab

by Him
1,854 views 1 this week
1 commentread comment
1 2 3 4 5
please rate
add to favorites launch autoscroll
font size
0
reset
Autoscroll
+/-
esc
set tempo
stop
Contributor
Difficulty
intermediate
WARNING: You are trying to view
                                    content from Ultimate-Guitar.com
                                    in an unauthorized application,
                                    which is prohibited.

                                    Please use an official Ultimate
                                    Guitar Tabs application for iPhone,
                                    iPad or Android to access legitimate
                                    chords, guitar, bass, and drum tabs
                                    from Ultimate-Guitar.com database.

                                    Type "ultimate guitar tabs" in Apple
                                    App Store's or Android Market's
                                    search to find the application.
I did not write any of these tabs, I just collected the different already
written tabs for both this site and Taborama and put them into one album. Enjoy!

-----------------------------------------------------------------------------

For You (Intro)
Tabbed by: his_eternal_requeim


E||-2-22-22-22/-5-55-77-77\-2-22-22-22/-5-55-77-77----------

-----------------------------------------------------------------------------
Your Sweet 666
Tabbed by: his_eternal_requeim

Intro

G--------|
D--------|
A-5-4-0--|
E--------|

G----------------|
D------4-4-5-4---|
A--2-2-----------|
E----------------| X6

G----------------|
D----------------|
A-2-2-2-2-2-0----|
E-------------3--|

Verse

G----------------------------------------|
D----------------------------------------|
A---------------5-5-5-5-5-5--------------|
E-3-3-3-3-3-3-3--------------2-2-2-2-2-2-| X2

G----------|
D----------|
A-5-4-0----|
E-------3--|


G----------------------------------------|
D----------------------------------------|
A---------------5-5-5-5-5-5--------------|
E-3-3-3-3-3-3-3-------------2-2-2-2-2-2--|

G---------------------------------------------------|
D---------------------------------------------------|
A---------------5-5-5-5-5-5-2-2-2-2-2-2-2-4-4-4-5-6-|
E-3-3-3-3-3-3-3-------------------------------------|

Chorus

G-----------------------------------------------------------------------------------------------------|
D-----4-4-5-4-----4-4-5-4-----4-4-5-4-----4-4-5-4-----4-4-5-4-----4-4-5-4------4-4-5-4-----4-4--------|
A-2-2---------2-2---------5-5---------0-0----------------------------------------------0-0-----5-4-0--|

X2


G----------------|
D------4-4-5-4---|
A--2-2-----------|
E----------------| X7

G----------------|
D----------------|
A-2-2-2-2-2-0----|
E-------------3--|

Verse

G----------------------------------------|
D----------------------------------------|
A---------------5-5-5-5-5-5--------------|
E-3-3-3-3-3-3-3--------------2-2-2-2-2-2-| X2

G----------|
D----------|
A-5-4-0----|
E-------3--|


G----------------------------------------|
D----------------------------------------|
A---------------5-5-5-5-5-5--------------|
E-3-3-3-3-3-3-3-------------2-2-2-2-2-2--|

G---------------------------------------------------|
D---------------------------------------------------|
A---------------5-5-5-5-5-5-2-2-2-2-2-2-2-4-4-4-5-6-|
E-3-3-3-3-3-3-3-------------------------------------|


Chorus

G-----------------------------------------------------------------------------------------------------|
D-----4-4-5-4-----4-4-5-4-----4-4-5-4-----4-4-5-4-----4-4-5-4-----4-4-5-4------4-4-5-4-----4-4--------|
A-2-2---------2-2---------5-5---------0-0----------------------------------------------0-0-----5-4-0--|

X2


G----------------|
D------4-4-5-4---|
A--2-2-----------|
E----------------| X8

Space

Ending

G----------------|
D----------------|
A-2/12\2/12\3/9--|
E----------------|

G--------------------------------------------------------------------------------------|
D-----9-9-10-9-----9-9-10-9-------9-9-10-9-------9-9-10-9-----9-9-10-9-----9-9---------|
A-7-7----------7-7----------10-10----------------------------------------------10-9----|
E------------------------------------------10-10----------8-8----------8-8----------10-| X3


G--------------|
D-----9-9-10-9-|
A--------------|
E-8-8----------| X8

G--------------|
D--------------|
A-10-9----7----|
E------10------|


-----------------------------------------------------------------------------
Wicked Game
Tabbed by: i_apathy
Jon Craven

|----------------|----------------|----------------|----------------|
|----------------|----------------|----------------|----------------|
|----------------|----------------|----------------|----------------|
|7-7-7-7-7-7-7-7-|5-5-5-5-5-5-5-5-|0-0-0-0-0-0-0-0-|0-0-0-0-0-0-0-0-|


-----------------------------------------------------------------------------

The Heartless
Tabbed by: HIM


Riff 1: (x2)
G:-----------------|-----------------|-----------------|
D:-----------------|-----------------|-----------------|
A:-----------------|-----------------|-----------------|
E:-----------------|-----------------|-----------------|
B:-2/-5-5-5--5-5-5-|-*-5-5-5-2-2-2-2-|-2/-5-5-5--5-5-5-|

G:-----------------|-----------------|
D:-----------------|-----------------|
A:-----------------|-----------------|
E:-----------------|-----------------|
B:-*-5-5-5-2-2-2-2-|-2/-5-5-5--5-5-5-|


G:-----------------|----------------|-----------------|
D:-----------------|----------------|-----------------|
A:-----------------|-5-5-5-5--5-5-5-|-*-5-4-4-4-4-4-4-|
E:-----------------|----------------|-----------------|
B:-*-5-5-5-2-2-2-2-|----------------|-----------------|

Riff 2: (x7)
G:------------------|-----------------|
D:------------------|-----------------|
A:-/7-7-7-7-7-7-7-7-|-7-5-5-5-5-4-4-4-|
E:------------------|-----------------|
B:------------------|-----------------|

Fill: (?)
G:----------------|-------------------|
D:----------------|-------------------|
A:----------------|-------------------|
E:-3-3-3-3--3-3-3-|-*-2h3-2h3-5-3-2-3-|
B:----------------|-------------------|

Riff 1
Riff 2 (x3)
Fill
Riff 1 (x2)

Riff 4:
G:-----------------|-----------------|-----------------|
D:-----------------|-----------------|-----------------|
A:-4-4-4-4-4-4-4-4-|-4-4-4-4-4-4-4-4-|-4-4-4-4-4-4-4-4-|
E:-----------------|-----------------|-----------------|
B:-----------------|-----------------|-----------------|

G:-----------------|-----------------|
D:-----------------|-----------------|
A:-4-4-4-4-4-4-4-4-|-4-4-4-4-4-4-4-4-|
E:-----------------|-----------------|
B:-----------------|-----------------|

G:-----------------|-----------------|-----------------|
D:-----------------|-----------------|-----------------|
A:-4-4-4-4-4-4-4-4-|-4-4-4-4-4-4-4-4-|-4-4-4-4-4-4-4-4-|
E:-----------------|-----------------|-----------------|
B:-----------------|-----------------|-----------------|

G:-----------------|-----------------|
D:-----------------|-----------------|
A:-0-0-0-0-0-0-0-0-|-0-0-0-0-0-0-0-0-|
E:-----------------|-----------------|
B:-----------------|-----------------|


G:-----------------|-----------------|-----------------|
D:-----------------|-----------------|-----------------|
A:-0-0-0-0-0-0-0-0-|-0-0-0-0-0-0-0-0-|-----------------|
E:-----------------|-----------------|-3-3-3-3-3-3-3-3-|
B:-----------------|-----------------|-----------------|

G:-----------------|-----------------|
D:-----------------|-----------------|
A:-----------------|-----------------|
E:-3-3-3-3-3-3-3-3-|-3-3-3-3-3-3-3-3-|
B:-----------------|-----------------|

G:-----------------|
D:-----------------|
A:-----------------|
E:-3-3-3-3-3-3-3-3-|
B:-----------------|

Riff 5: (x4)
G:---------------|----------------|
D:---------------|----------------|
A:---------------|----------------|
E:------4--------|------------3-4-|
B:-2--2---2-2--2-|-2-2-2--2-2-----|
Pause for 8 measures
Riff 1 (x2)
Break till end

-----------------------------------------------------------------------------

Our Diabolikal Rapture
Tabbed by: his_eternal_requeim

G||----------------------------|
D||----------------------------|
A||-8-----7-----5-------3-5-3--|
E||---0-0---0-0---0-0-0--------|


G||--------------------------------------------------|
D||--------------------------------------------------|
A||--------------------------------------------------|
E||-7-7-7-7-7-7-7-7-7-7-7-7-7-7-7-7-7-7-7-7-7-7-7-7-7| Cnt....

G||-----------------------------------||
D||-----------------------------------||
A||-8-----7-------------5-----3-------||
E||---0-0---0-7-7-7-7-7---0-0---0-----||


G||-----------------------------------||
D||-----------------------------------||
A||-8--7--5--3------------------------||
E||-----------------------------------||

G||-----------------------------------||
D||-----------------------------------||
A||-8--7--5--3--1-----1--3------------||
E||----------------4------------------||

-----------------------------------------------------------------------------


It's All Tears
Tabbed by Dani69

Note *Just play along with the vocals*

Chorus:
		   4& 1&2
G|---------------|---------------|---------------|---------------|
D|---------------|----4-6-7-6-4-6|--6-4---4------|---------------|
A|--------------4|--4------------|------7---7-6-7|--7-7-7-7-7-7-7|
E|---------------|---------------|---------------|---------------|

G|6-5-6-5-6-5-6--|
D|---------------|
A|---------------|
E|---------------| repeat this 4 times (without the rest at the beginning)

Then the Verse:

G|---------------|---------------|---------------|---------------|
D|---------------|---------------|---------------|---------------|
A|4-4-4-4-4-4-4-4|4-4-4-4-4-4-4-4|7-7-7-7-7-7-7-7|---------------|
E|---------------|---------------|---------------|7-7-7-7-7-7-7-7| 3x

G|---------------|---------------|---------------|---------------|
D|---------------|---------------|---------------|---------------|
A|4-4-4-4-4-4-4-4|4-4-4-4-4-4-4-4|7---7-7-7-7-7-7|6---6-6-6-6-6-6|
E|---------------|---------------|---------------|---------------| 1x


-----------------------------------------------------------------------------


When Love and Death Embrace
Tabbed by: HIM

Intro/chorus
G|------------------------0000----|---------------|
D|22222222--------------------0000|---------------|
A|--------2222222233333333--------|333333333333333|
E|--------------------------------|---------------|
Verse/main riff
G|-----------------|-----------------|
D|-----------------|-----------------|
A|-----------------|-----------------|
E|33333333333333333|00000000000000000|

-----------------------------------------------------------------------------


The Beginning of the End
Tabbed by: his_eternal_requeim


Part 1

G|---------------------------|--------------------------|
D|---------------------------|--------------------------|
A|---0--3--3--0--3--3--0--3--|--0--3--3--0--3--0--3--3--|
E|---------------------------|--------------------------|

 ||--------------------------|--------------------------|
 ||--------------------------|--------------------------|
 ||--0--2--2--0--2--2--0--2--|--0--2--2--0--2--0--2--2--|
 ||--------------------------|--------------------------|


Part 2

 ||--------------------------|--------------------------|
 ||--------------------------|--------------------------|
 ||--0--0--------------------|--------------------------|
 ||--------------------------|--------------------------|

Part 3

 ||--------------------------|--------------------------|
 ||--------------------------|--------------------------|
 ||--0----------5------------|--3--------------7--------|
 ||--------------------------|--------------------------|

Part 4

 ||--------------------------|--------------------------|
 ||--------------------------|--------------------------|
 ||--------------------------|--------------------------|
 ||--0--3--3--0--3--3--0--3--|--0--3--3--0--3--0--3--3--|

 ||--------------------------|--------------------------|
 ||--------------------------|--------------------------|
 ||--------------------------|--------------------------|
 ||--0--2--2--0--2--2--0--2--|--0--2--2--0--2--0--2--2--|


Part 5


 ||--------------------------|
 ||--------------------------|
 ||--3--------------------3--|
 ||--------------------------|

Part 6a

 ||--------------------------|
 ||--------------------------|
 ||--3--3--3--3--3--3--3--3--|
 ||--------------------------|

Part 6b

 ||--------------------------|--------------------------|
 ||--------------------------|--------------------------|
 ||--0--3--3--0--3--3--0--3--|--0--2--2--0--2--0--2--2--|
 ||--------------------------|--------------------------|

Part 6c


 ||--------------------------|--------------------------|
 ||--------------------------|--------------------------|
 ||--3--3--3--3--3--3--3--3--|--5--5--5--5--5--5--5--5--|
 ||--------------------------|--------------------------|


ORDER:

Part 1: x4
Part 2: x1
Part 3: x2
Part 1: x4
Part 2: x2
Part 3: x2
Part 1: x2
Part 4: x4
Part 5: x1
Part 3: x4
Part 6a: x1
Part 6b: x1
Part 6a: x1
Part 6b: x1
Part 6c: x1
Part 1: x2



-----------------------------------------------------------------------------
Don't Fear the Reaper
Tabbed by: boxofnirvana


G|------------------------|--------------------------|
D|------------------------|--------------------------|
A|7--7--7--7--5--5--5--5--|--3--3--3--3--5--5--5--5--|
E|------------------------|--------------------------|

--------------------------|--------------------------|
--------------------------|--------------------------|
--7--7--7--7--5--5--5--5--|--3--3--3--3--5--5--5--5--|
--------------------------|--------------------------|

--------------------------|--------------------------|
--------------------------|--------------------------|
--7--7--7--7--5--5--5--5--|--3--3--3--3--5--5--5--5--|
--------------------------|--------------------------|

--------------------------|--------------------------|
--------------------------|--------------------------|
--7--7--7--7--5--5--5--5--|--3--3--3--3--5--5--5--5--|
--------------------------|--------------------------|

--------------------------|--------------------------|
--------------------------|--------------------------|
--7--7--7--7--5--5--5--5--|--3--3--3--3--5--5--5--5--|
--------------------------|--------------------------|

--------------------------|--------------------------|
--------------------------|--------------------------|
--7--7--7--7--5--5--5--5--|--3--3--3--3--5--5--5--5--|
--------------------------|--------------------------|

--------------------------|--------------------------|
--------------------------|--------------------------|
--3--3--3--3--5--5--5--5--|--7--7--7--7--7--7--7--7--|
--------------------------|--------------------------|

--------------------------|--------------------------|
--------------------------|--2--2--2--2--------------|
--3--3--3--3--2--2--2--2--|--------------5--5--5--5--|
--------------------------|--------------------------|

--------------------------|--------------------------|
--------------------------|--------------------------|
--3--3--3--3--5--5--5--5--|--7--7--7--7--5--5--5--5--|
--------------------------|--------------------------|

--------------------------|--------------------------|
--------------------------|--------------------------|
--3--3--3--3--5--5--5--5--|--7--7--7--7--5--5--5--5--|
--------------------------|--------------------------|

--------------------------|--------------------------|
--------------------------|--------------------------|
--3--3--3--3--5--5--5--5--|--7--7--7--7--5--5--5--5--|
--------------------------|--------------------------|

--------------------------|--------------------------|
--------------------------|--------------------------|
--3--3--3--3--5--5--5--5--|--7--7--7--7--5--5--5--5--|
--------------------------|--------------------------|

--------------------------|--------------------------|
--------------------------|--------------------------|
--3--3--3--3--5--5--5--5--|--7--7--7--7--5--5--5--5--|
--------------------------|--------------------------|

--------------------------|--------------------------|
--------------------------|--------------------------|
--3--3--3--3--5--5--5--5--|--7--7--7--7--5--5--5--5--|
--------------------------|--------------------------|

--------------------------|--------------------------|
--------------------------|--------------------------|
--3--3--3--3--5--5--5--5--|--7--7--7--7--5--5--5--5--|
--------------------------|--------------------------|

--------------------------|--------------------------|
--------------------------|--------------------------|
--3--3--3--3--5--5--5--5--|--7--7--7--7--5--5--5--5--|
--------------------------|--------------------------|

--------------------------|--------------------------|
--------------------------|--------------------------|
--3--3--3--3--5--5--5--5--|--7--7--7--7--5--5--5--5--|
--------------------------|--------------------------|

--------------------------|--------------------------|
--------------------------|--------------------------|
--3--3--3--3--5--5--5--5--|--7-----------------------|
--------------------------|--------------------------|


--------------------------|--------------------------|
--------------------------|--------------------------|
--7--7--7--7--5--5--5--5--|--3--3--3--3--5--5--5--5--|
--------------------------|--------------------------|

--------------------------|--------------------------|
--------------------------|--------------------------|
--7--7--7--7--5--5--5--5--|--3--3--3--3--5--5--5--5--|
--------------------------|--------------------------|

--------------------------|--------------------------|
--------------------------|--------------------------|
--7--7--7--7--5--5--5--5--|--3--3--3--3--5--5--5--5--|
--------------------------|--------------------------|

--------------------------|--------------------------|
--------------------------|--------------------------|
--7--7--7--7--5--5--5--5--|--3--3--3--3--5--5--5--5--|
--------------------------|--------------------------|

--------------------------|--------------------------|
--------------------------|--------------------------|
--3--3--3--3--5--5--5--5--|--7--7--7--7--7--7--7--7--|
--------------------------|--------------------------|

--------------------------|--------------------------|
--------------------------|--2--2--2--2--------------|
--3--3--3--3--2--2--2--2--|--------------5--5--5--5--|
--------------------------|--------------------------|

--------------------------|--------------------------|
--------------------------|--------------------------|
--3--3--3--3--5--5--5--5--|--7--7--7--7--5--5--5--5--|
--------------------------|--------------------------|

--------------------------|--------------------------|
--------------------------|--------------------------|
--3--3--3--3--5--5--5--5--|--7--7--7--7--5--5--5--5--|
--------------------------|--------------------------|

--------------------------|--------------------------|
--------------------------|--------------------------|
--3--3--3--3--5--5--5--5--|--7--7--7--7--5--5--5--5--|
--------------------------|--------------------------|

--------------------------|--------------------------|
--------------------------|--------------------------|
--3--3--3--3--5--5--5--5--|--7--7--7--7--5--5--5--5--|
--------------------------|--------------------------|

--------------------------|--------------------------|
--------------------------|--------------------------|
--3--3--3--3--5--5--5--5--|--7--7--7--7--5--5--5--5--|
--------------------------|--------------------------|

--------------------------|--------------------------|
--------------------------|--------------------------|
--3--3--3--3--5--5--5--5--|--7--7--7--7--5--5--5--5--|
--------------------------|--------------------------|

--------------------------|--------------------------|
--------------------------|--------------------------|
--3--3--3--3--5--5--5--5--|--7--7--7--7--5--5--5--5--|
--------------------------|--------------------------|

--------------------------|--------------------------|
--------------------------|--------------------------|
--3--3--3--3--5--5--5--5--|--7--7--7--7--5--5--5--5--|
--------------------------|--------------------------|

--------------------------|--------------------------|
--------------------------|--------------------------|
--3--3--3--3--5--5--5--5--|--7--7--7--7--5--5--5--5--|
--------------------------|--------------------------|

--------------------------|--------------------------|
--------------------------|--------------------------|
--3--3--3--3--5--5--5--5--|--7--7--7--7--5--5--5--5--|
--------------------------|--------------------------|

--------------------------|--------------------------|
--------------------------|--------------------------|
--3--3--3--3--5--5--5--5--|--7--7--7--7--5--5--5--5--|
--------------------------|--------------------------|

--------------------------|--------------------------|
--------------------------|--------------------------|
--3--3--3--3--5--5--5--5--|--7--7--7--7--5--5--5--5--|
--------------------------|--------------------------|

--------------------------|--------------------------|
--------------------------|--2-----------------------|
--3--3--3--3--5--5--5--5--|--------------------------|
--------------------------|--------------------------|

--------------------------|--------------------------|
--------------------------|--------------------------|
--7--7--7--7--5--5--5--5--|--3--3--3--3--5--5--5--5--|
--------------------------|--------------------------|

--------------------------|--------------------------|
--------------------------|--------------------------|
--7--7--7--7--5--5--5--5--|--3--3--3--3--5--5--5--5--|
--------------------------|--------------------------|

--------------------------|--------------------------|
--------------------------|--------------------------|
--7--7--7--7--5--5--5--5--|--3--3--3--3--5--5--5--5--|
--------------------------|--------------------------|

--------------------------|--------------------------|
--------------------------|--------------------------|
--7--7--7--7--5--5--5--5--|--3--3--3--3--5--5--5--5--|
--------------------------|--------------------------|

--------------------------|--------------------------|
--------------------------|--------------------------|
--7--7--7--7--5--5--5--5--|--3--3--3--3--5--5--5--5--|
--------------------------|--------------------------|

--------------------------|--------------------------|
--------------------------|--------------------------|
--7--7--7--7--5--5--5--5--|--3--3--3--3--5--5--5--5--|
--------------------------|--------------------------|

--------------------------|--------------------------|
--------------------------|--------------------------|
--3--3--3--3--5--5--5--5--|--7--7--7--7--7--7--7--7--|
--------------------------|--------------------------|

--------------------------|--------------------------|
--------------------------|--2--2--2--2--------------|
--3--3--3--3--2--2--2--2--|--------------5--5--5--5--|
--------------------------|--------------------------|

--------------------------|--------------------------|
--------------------------|--------------------------|
--3--3--3--3--5--5--5--5--|--7--7--7--7--5--5--5--5--|
--------------------------|--------------------------|

--------------------------|--------------------------|
--------------------------|--------------------------|
--3--3--3--3--5--5--5--5--|--7--7--7--7--5--5--5--5--|
--------------------------|--------------------------|

--------------------------|--------------------------|
--------------------------|--------------------------|
--3--3--3--3--5--5--5--5--|--7--7--7--7--5--5--5--5--|
--------------------------|--------------------------|

--------------------------|--------------------------|
--------------------------|--------------------------|
--3--3--3--3--5--5--5--5--|--7--7--7--7--5--5--5--5--|
--------------------------|--------------------------|

--------------------------|--------------------------|
--------------------------|--------------------------|
--3--3--3--3--5--5--5--5--|--7--7--7--7--5--5--5--5--|
--------------------------|--------------------------|

--------------------------|--------------------------|
--------------------------|--------------------------|
--3--3--3--3--5--5--5--5--|--7--7--7--7--5--5--5--5--|
--------------------------|--------------------------|

--------------------------|--------------------------|
--------------------------|--------------------------|
--3--3--3--3--5--5--5--5--|--7--7--7--7--5--5--5--5--|
--------------------------|--------------------------|

--------------------------|--------------------------|
--------------------------|--------------------------|
--3--3--3--3--5--5--5--5--|--7--7--7--7--5--5--5--5--|
--------------------------|--------------------------|

--------------------------|--------------------------|
--------------------------|--------------------------|
--3--3--3--3--5--5--5--5--|--7--7--7--7--5--5--5--5--|
--------------------------|--------------------------|

--------------------------|--------------------------|
--------------------------|--------------------------|
--3--3--3--3--5--5--5--5--|--7--7--7--7--5--5--5--5--|
--------------------------|--------------------------|

--------------------------|--------------------------|
--------------------------|--------------------------|
--3--3--3--3--5--5--5--5--|--7--7--7--7--5--5--5--5--|
--------------------------|--------------------------|

--------------------------|--------------------------|
--------------------------|--------------------------|
--3--3--3--3--5--5--5--5--|--7--7--7--7--5--5--5--5--|
--------------------------|--------------------------|

--------------------------|--------------------------|
--------------------------|--2-----------------------|
--3--3--3--3--5--5--5--5--|--------------------------|
--------------------------|--------------------------|
comments
We did not receive enough feedback on this tab! Please rate:
print report bad tab
1 2 3 4 5
1 comment total.
0 reply
CruiserBass wrote on December 25 2005, 01:53 pm

just so you know(@ "The heartless"), HIM bassist Migè Amour does NOT play a 5-string, and I bet you know it!

I want to post or [tab]
guest
You may want to rate the tab now too:
select rating
Please do not post tabs as comments. Select "correction" instead!