Oops, an error
Loading. Please wait.

Heartache Every Moment Bass Tab

by Him
ver2
ver2

Whole song

Interactive

More versions @911Tabs.com
468 views 3 this week
no commentswrite comment
1 2 3 4 5
not so good
x 1
Autoscroll
+/-
esc
set tempo
stop
Contributor
Hey! There's an official Ultimate Guitar app which is ideal
for learning songs when you're away from computer. Get the app
WARNING: You are trying to view
                                    content from Ultimate-Guitar.com
                                    in an unauthorized application,
                                    which is prohibited.

                                    Please use an official Ultimate
                                    Guitar Tabs application for iPhone,
                                    iPad or Android to access legitimate
                                    chords, guitar, bass, and drum tabs
                                    from Ultimate-Guitar.com database.

                                    Type "ultimate guitar tabs" in Apple
                                    App Store's or Android Market's
                                    search to find the application.
#----------------------------------PLEASE NOTE---------------------------------#
#This file is the author's own work and represents their interpretation of the #
#song. You may only use this file for private study, scholarship, or research. #
#------------------------------------------------------------------------------##

                        HEARTACHE EVERY MOMENT (Bassline)
                              As recorded by H.I.M.
           (From the 2001 Album DEEP SHADOWS AND BRILLIANT HIGHLIGHTS)

Words by Ville Valo

Music by H.I.M.
Arranged by H.I.M.
Transcribed by vitaha_z

Gtr I (B E A D) - 'Bass'
Gtr II (E A D G B E) - 'Acoustic Grand'
Gtr III (E A D G B E) - 'Acoustic Grand'

 Intro
  Q=120
 4/4
  Gtr I
   W                         W
|-------------------------|--------------------------|
|-------------------------|--------------------------|
|-------------------------|--------------------------|
|-------------------------|--------------------------|
|
| Gtr II
|  E  E  E  E  E  E  E  E    E   E  E  E  E  E  E  E
|-20----20----18----18----|-20-----20----18----18----|
|----18----18----18----18-|-----18----18----18----18-|
|-------------------------|--------------------------|
|--3----------------------|-(3)----------------------|
|--3----------------------|-(3)----------------------|
|--1----------------------|-(1)----------------------|
   W                        +W


   W                          H            Q     Q
|--------------------------|---------------------------|
|--------------------------|---------------------------|
|--------------------------|---------------------------|
|--------------------------|---------------6-----4-----|
|
|  E   E  E  E  E  E  E  E    E   E  E  E  E  E  E  E
|-20-----20----18----18----|-20-----20----18----18-----|
|-----18----18----18----18-|-----18----18----18----18--|
|--------------------------|---------------------------|
|-(3)----------------------|-(3)-----------------------|
|-(3)----------------------|-(3)-----------------------|
|-(1)----------------------|-(1)-----------------------|
  +W                         +W


   H           Q.        E   +E   E  H.
|--------------------------|---------------------------|
|--------------------------|---------------------------|
|--------------------------|---------------------------|
|--2-----------4---------4-|-(4)--6--6-----------------|
|
|  E  E  E  E  E   E  E  E    E   E  E   E  E  E  E  E
|-20----20----18-----18----|-20-----20-----18----18----|
|----18----18-----18----18-|-----18-----18----18----18-|
|--------------------------|---------------------------|
|--------------------------|---------------------------|
|--------------------------|---------------------------|
|--------------------------|---------------------------|


   H           E  Q     E   +E   E  H.
|-------------------------|----------------------------|
|-------------------------|----------------------------|
|-------------------------|----------------------------|
|--2-----------4--4-----4-|-(4)--6--6------------------|
|
|  E  E  E  E  E  E  E  E    E   E  E   E  E  E  E  E
|-20----20----18----18----|-20-----20-----18----18-----|
|----18----18----18----18-|-----18-----18----18----18--|
|-------------------------|----------------------------|
|-------------------------|----------------------------|
|-------------------------|----------------------------|
|-------------------------|----------------------------|


   H           E  Q     E   +E   Q     Q     Q     E
|-------------------------|--------------------------|
|-------------------------|--------------------------|
|-------------------------|--------------------------|
|--2-----------4--4-----1-|-(1)--1-----2-----2-----4-|
|
|  E  E  E  E  E  E  E  E    E   E  E  E  E  E  E  E
|-20----20----18----18----|-20-----20----18----18----|
|----18----18----18----18-|-----18----18----18----18-|
|-------------------------|--------------------------|
|-------------------------|--------------------------|
|-------------------------|--------------------------|
|-------------------------|--------------------------|


  +E   E  H          +E   E   +E   E  H          +E  +E
|---------------------------|------------------------------|
|---------------------------|------------------------------|
|---------------------------|------------------------------|
|-(4)--4--4----------(4)--4-|-(4)--4--4----------(4)-(4)S==|
|
|  E   E  E  E  E  E  E   E    E   E  E  E  E  E  E   E
|-20-----20----18----18-----|-20-----20----18----18--------|
|-----18----18----18-----18-|-----18----18----18-----18----|
|---------------------------|------------------------------|
|---------------------------|------------------------------|
|---------------------------|------------------------------|
|---------------------------|------------------------------|


 Verse
  E E E E E E E E   E E E E E E E E   E E E E E E E E   E E E E E E E E
|-----------------|-----------------|-----------------|------------------|
|-----------------|-----------------|-----------------|------------------|
|-1-1-1-1-3-3-3-3s|=9-9-9-9-9-9-9-9-|-1-1-1-1-3-3-3-3s|=9-9-9-9-9-9-9-9--|
|-----------------|-----------------|-----------------|------------------|


  E E E E E E E E   E E E E E E E E
|-----------------|-----------------|
|-----------------|-----------------|
|-1-1-1-1-3-3-3-3s|=9-9-9-9-9-9-9-9s|
|-----------------|-----------------|


   E  E  E  E  E  E  E  E    E  E  E  E  E  E  E  E
|-------------------------|--------------------------|
|-------------------------|--------------------------|
|-11-11-11-11-11-11-11-11-|-11-11-11-11-11-11-11-11--|
|-------------------------|--------------------------|


  E E E E E E E E   E E E E E E E E   E E E E E E E E   E E E E E E E E
|-----------------|-----------------|-----------------|------------------|
|-----------------|-----------------|-----------------|------------------|
|-1-1-1-1-3-3-3-3s|=9-9-9-9-9-9-9-9-|-1-1-1-1-3-3-3-3s|=9-9-9-9-9-9-9-9--|
|-----------------|-----------------|-----------------|------------------|


  E E E E E E E E   E E E E E E E E   +E  E H    +E  E   E Q.   Q  Q
|-----------------|-----------------|------------------|---------------|
|-----------------|-----------------|------------------|---------------|
|-1-1-1-1-3-3-3-3s|=9-9-9-9-9-9-9---|------------------|---------------|
|-----------------|---------------4-|-(4)-4-4----(4)-4-|-4-4----6--4---|


 Chorus
   H           Q.        E   +E   E  H.
|--------------------------|---------------------------|
|--------------------------|---------------------------|
|--------------------------|---------------------------|
|--2-----------4---------4-|-(4)--6--6-----------------|
|
| Gtr II
|  E  E  E  E  E   E  E  E    E   E  E   E  E  E  E  E
|-20----20----18-----18----|-20-----20-----18----18----|
|----18----18-----18----18-|-----18-----18----18----18-|
|--------------------------|---------------------------|
|--------------------------|---------------------------|
|--------------------------|---------------------------|
|--------------------------|---------------------------|


   H           E  Q     E   +E   E  H.
|-------------------------|----------------------------|
|-------------------------|----------------------------|
|-------------------------|----------------------------|
|--2-----------4--4-----4-|-(4)--6--6------------------|
|
|  E  E  E  E  E  E  E  E    E   E  E   E  E  E  E  E
|-20----20----18----18----|-20-----20-----18----18-----|
|----18----18----18----18-|-----18-----18----18----18--|
|-------------------------|----------------------------|
|-------------------------|----------------------------|
|-------------------------|----------------------------|
|-------------------------|----------------------------|


   H           Q.        E   +E   Q     Q     Q     E
|--------------------------|--------------------------|
|--------------------------|--------------------------|
|--------------------------|--------------------------|
|--2-----------4---------1-|-(1)--1-----2-----2-----4-|
|
|  E  E  E  E  E   E  E  E    E   E  E  E  E  E  E  E
|-20----20----18-----18----|-20-----20----18----18----|
|----18----18-----18----18-|-----18----18----18----18-|
|--------------------------|--------------------------|
|--------------------------|--------------------------|
|--------------------------|--------------------------|
|--------------------------|--------------------------|


  +E   E  H          +E   E   +E   E  Q     Q     Q
|---------------------------|---------------------------|
|---------------------------|---------------------------|
|---------------------------|---------------------------|
|-(4)--4--4----------(4)--4-|-(4)--4--4-----6-----4-----|
|
|  E   E  E  E  E  E  E   E    E   E  E  E  E  E  E  E
|-20-----20----18----18-----|-20-----20----18----18-----|
|-----18----18----18-----18-|-----18----18----18----18--|
|---------------------------|---------------------------|
|---------------------------|---------------------------|
|---------------------------|---------------------------|
|---------------------------|---------------------------|


   H           Q.        E   +E   E  H.
|--------------------------|---------------------------|
|--------------------------|---------------------------|
|--------------------------|---------------------------|
|--2-----------4---------4-|-(4)--6--6-----------------|
|
|  E  E  E  E  E   E  E  E    E   E  E   E  E  E  E  E
|-20----20----18-----18----|-20-----20-----18----18----|
|----18----18-----18----18-|-----18-----18----18----18-|
|--------------------------|---------------------------|
|--------------------------|---------------------------|
|--------------------------|---------------------------|
|--------------------------|---------------------------|


   H           E  Q     E   +E   E  H.
|-------------------------|----------------------------|
|-------------------------|----------------------------|
|-------------------------|----------------------------|
|--2-----------4--4-----4-|-(4)--6--6------------------|
|
|  E  E  E  E  E  E  E  E    E   E  E   E  E  E  E  E
|-20----20----18----18----|-20-----20-----18----18-----|
|----18----18----18----18-|-----18-----18----18----18--|
|-------------------------|----------------------------|
|-------------------------|----------------------------|
|-------------------------|----------------------------|
|-------------------------|----------------------------|


   H           Q.        E   +E   Q     Q     Q     E
|--------------------------|--------------------------|
|--------------------------|--------------------------|
|--------------------------|--------------------------|
|--2-----------4---------1-|-(1)--1-----2-----2-----4-|
|
|  E  E  E  E  E   E  E  E    E   E  E  E  E  E  E  E
|-20----20----18-----18----|-20-----20----18----18----|
|----18----18-----18----18-|-----18----18----18----18-|
|--------------------------|--------------------------|
|--------------------------|--------------------------|
|--------------------------|--------------------------|
|--------------------------|--------------------------|


  +E   E  H          +E   E   +E   E  Q     H
|---------------------------|---------------------------|
|---------------------------|---------------------------|
|---------------------------|---------------------------|
|-(4)--4--4----------(4)--4-|-(4)--4--4-----4-----------|
|
|  E   E  E  E  E  E  E   E    E   E  E  E  E  E  E  E
|-20-----20----18----18-----|-20-----20----18----18-----|
|-----18----18----18-----18-|-----18----18----18----18--|
|---------------------------|---------------------------|
|---------------------------|---------------------------|
|---------------------------|---------------------------|
|---------------------------|---------------------------|


   W                        +W
|-------------------------|---------------------------|
|-------------------------|---------------------------|
|-------------------------|---------------------------|
|--6----------------------|-(6)-----------------------|
|
|  E  E  E  E  E  E  E  E    E    E  E  E  E  E  E  E
|-20----20----18----18----|-20------20----18----18----|
|----18----18----18----18-|------18----18----18----18-|
|-------------------------|---------------------------|
|-------------------------|---------------------------|
|-------------------------|---------------------------|
|-------------------------|---------------------------|
|
|                           Gtr III
|                                                   <
|  W                         H..                    E
|-------------------------|---------------------------|
|-------------------------|---------------------------|
|-------------------------|---------------------------|
|-------------------------|-------------------------3-|
|-------------------------|-------------------------3-|
|-------------------------|-------------------------1-|


  +W                         +W
|--------------------------|---------------------------|
|--------------------------|---------------------------|
|--------------------------|---------------------------|
|-(6)----------------------|-(6)-----------------------|
|
|  E   E  E  E  E  E  E  E    E   E  E  E  E  E  E  E
|-20-----20----18----18----|-20-----20----18----18-----|
|-----18----18----18----18-|-----18----18----18----18--|
|--------------------------|---------------------------|
|--------------------------|---------------------------|
|--------------------------|---------------------------|
|--------------------------|---------------------------|
|
| +W                         +W
|--------------------------|---------------------------|
|--------------------------|---------------------------|
|--------------------------|---------------------------|
|-(3)----------------------|-(3)-----------------------|
|-(3)----------------------|-(3)-----------------------|
|-(1)----------------------|-(1)-----------------------|


 Verse
  E E E E E E E E   E E E E E E E E   E E E E E E E E   E E E E E E E E
|-----------------|-----------------|-----------------|------------------|
|-----------------|-----------------|-----------------|------------------|
|-1-1-1-1-3-3-3-3s|=9-9-9-9-9-9-9-9-|-1-1-1-1-3-3-3-3s|=9-9-9-9-9-9-9-9--|
|-----------------|-----------------|-----------------|------------------|


  E E E E E E E E   E E E E E E E E   +E  E H    +E  E   +E  Q.   Q  Q
|-----------------|-----------------|------------------|-----------------|
|-----------------|-----------------|------------------|-----------------|
|-1-1-1-1-3-3-3-3s|=9-9-9-9-9-9-9---|------------------|-----------------|
|-----------------|---------------4-|-(4)-4-4----(4)-4-|-(4)-4----6--4---|


 Chorus
   H           Q.        E   +E   E  H.
|--------------------------|---------------------------|
|--------------------------|---------------------------|
|--------------------------|---------------------------|
|--2-----------4---------4-|-(4)--6--6-----------------|
|
| Gtr II
|  E  E  E  E  E   E  E  E    E   E  E   E  E  E  E  E
|-20----20----18-----18----|-20-----20-----18----18----|
|----18----18-----18----18-|-----18-----18----18----18-|
|--------------------------|---------------------------|
|--------------------------|---------------------------|
|--------------------------|---------------------------|
|--------------------------|---------------------------|


   H           E  Q     E   +E   E  H.
|-------------------------|----------------------------|
|-------------------------|----------------------------|
|-------------------------|----------------------------|
|--2-----------4--4-----4-|-(4)--6--6------------------|
|
|  E  E  E  E  E  E  E  E    E   E  E   E  E  E  E  E
|-20----20----18----18----|-20-----20-----18----18-----|
|----18----18----18----18-|-----18-----18----18----18--|
|-------------------------|----------------------------|
|-------------------------|----------------------------|
|-------------------------|----------------------------|
|-------------------------|----------------------------|


   H           Q.        E   +E   Q     Q     Q     E
|--------------------------|--------------------------|
|--------------------------|--------------------------|
|--------------------------|--------------------------|
|--2-----------4---------1-|-(1)--1-----2-----2-----4-|
|
|  E  E  E  E  E   E  E  E    E   E  E  E  E  E  E  E
|-20----20----18-----18----|-20-----20----18----18----|
|----18----18-----18----18-|-----18----18----18----18-|
|--------------------------|--------------------------|
|--------------------------|--------------------------|
|--------------------------|--------------------------|
|--------------------------|--------------------------|


  +E   E  Q     E  E  E  E   +E   E  Q     Q     Q
|--------------------------|---------------------------|
|--------------------------|---------------------------|
|--------------------------|---------------------------|
|-(4)--4--4-----4--4--4--4-|-(4)--4--4-----6-----4-----|
|
|  E   E  E  E  E  E  E  E    E   E  E  E  E  E  E  E
|-20-----20----18----18----|-20-----20----18----18-----|
|-----18----18----18----18-|-----18----18----18----18--|
|--------------------------|---------------------------|
|--------------------------|---------------------------|
|--------------------------|---------------------------|
|--------------------------|---------------------------|


   H           Q.        E   +E   E  H.
|--------------------------|---------------------------|
|--------------------------|---------------------------|
|--------------------------|---------------------------|
|--2-----------4---------4-|-(4)--6--6-----------------|
|
|  E  E  E  E  E   E  E  E    E   E  E   E  E  E  E  E
|-20----20----18-----18----|-20-----20-----18----18----|
|----18----18-----18----18-|-----18-----18----18----18-|
|--------------------------|---------------------------|
|--------------------------|---------------------------|
|--------------------------|---------------------------|
|--------------------------|---------------------------|


   H           E  Q     E   +E   E  H.
|-------------------------|----------------------------|
|-------------------------|----------------------------|
|-------------------------|----------------------------|
|--2-----------4--4-----4-|-(4)--6--6------------------|
|
|  E  E  E  E  E  E  E  E    E   E  E   E  E  E  E  E
|-20----20----18----18----|-20-----20-----18----18-----|
|----18----18----18----18-|-----18-----18----18----18--|
|-------------------------|----------------------------|
|-------------------------|----------------------------|
|-------------------------|----------------------------|
|-------------------------|----------------------------|


   H           Q.        E   +E   Q     Q     Q     E
|--------------------------|--------------------------|
|--------------------------|--------------------------|
|--------------------------|--------------------------|
|--2-----------4---------1-|-(1)--1-----2-----2-----4-|
|
|  E  E  E  E  E   E  E  E    E   E  E  E  E  E  E  E
|-20----20----18-----18----|-20-----20----18----18----|
|----18----18-----18----18-|-----18----18----18----18-|
|--------------------------|--------------------------|
|--------------------------|--------------------------|
|--------------------------|--------------------------|
|--------------------------|--------------------------|


  +E   E  Q     E  E  E  E   +E   E  Q     E  E  E +E
|--------------------------|----------------------------|
|--------------------------|----------------------------|
|--------------------------|----------------------------|
|-(4)--4--4-----4--4--4--4-|-(4)--4--4-----4--4--4-(4)--|
|
|  E   E  E  E  E  E  E  E    E   E  E  E  E  E  E  E
|-20-----20----18----18----|-20-----20----18----18------|
|-----18----18----18----18-|-----18----18----18----18---|
|--------------------------|----------------------------|
|--------------------------|----------------------------|
|--------------------------|----------------------------|
|--------------------------|----------------------------|


 Guitar Solo
  Q  Q  E Q  E   +E  E H.        Q  Q  E Q  E   +E  E H.
|--------------|---------------|--------------|-------------|
|--------------|---------------|--------------|-------------|
|-4--4---------|---------------|-4--4---------|-------------|
|-------4-4--4-|-(4)-6-6-------|-------4-4--4-|-(4)-6-6-----|


  Q  Q  E Q  E   +E  Q  Q  Q  E   +E  E H    +E  E   +E  E H.
|--------------|----------------|------------------|-------------|
|--------------|----------------|------------------|-------------|
|-4--4---------|----------------|------------------|-------------|
|-------4-4--1-|-(1)-1--2--2--4-|-(4)-4-4----(4)-4-|-(4)-4-4-----|


 Interlude
  E E E E E E E E   E E E E E E E E   E E E E E E E E   E E E E E E E E
|-----------------|-----------------|-----------------|------------------|
|-----------------|-----------------|-----------------|------------------|
|-----------------|-----------------|-----------------|------------------|
|-2-2-2-2-2-2-2-2-|-2-2-2-2-2-2-2-2-|-4-4-4-4-4-4-4-4-|-4-4-4-4-4-4-4-4--|


  E E E E E E E E   E E E E E E E E   E E E E E E E E   E E E E E E E E
|-----------------|-----------------|-----------------|------------------|
|-----------------|-----------------|-----------------|------------------|
|-----------------|-----------------|-----------------|------------------|
|-6-6-6-6-6-6-6-6-|-6-6-6-6-6-6-6-6-|-4-4-4-4-4-4-4-4-|-4-4-4-4-4-4-4-4--|


  E E E E E E E E   E E E E E E E E   E E E E E E E E   E E E E Q  Q
|-----------------|-----------------|-----------------|----------------|
|-----------------|-----------------|-----------------|----------------|
|-----------------|-----------------|-----------------|----------------|
|-2-2-2-2-2-2-2-2-|-2-2-2-2-2-2-2-2-|-4-4-4-4-4-4-4-4-|-4-4-4-4-6--4---|


 Out-Chorus
   H           Q.        E   +E   E  H.
|--------------------------|---------------------------|
|--------------------------|---------------------------|
|--------------------------|---------------------------|
|--2-----------4---------4-|-(4)--6--6-----------------|
|
| Gtr II
|  E  E  E  E  E   E  E  E    E   E  E   E  E  E  E  E
|-20----20----18-----18----|-20-----20-----18----18----|
|----18----18-----18----18-|-----18-----18----18----18-|
|--------------------------|---------------------------|
|--------------------------|---------------------------|
|--------------------------|---------------------------|
|--------------------------|---------------------------|


   H           E  Q     E   +E   E  H.
|-------------------------|----------------------------|
|-------------------------|----------------------------|
|-------------------------|----------------------------|
|--2-----------4--4-----4-|-(4)--6--6------------------|
|
|  E  E  E  E  E  E  E  E    E   E  E   E  E  E  E  E
|-20----20----18----18----|-20-----20-----18----18-----|
|----18----18----18----18-|-----18-----18----18----18--|
|-------------------------|----------------------------|
|-------------------------|----------------------------|
|-------------------------|----------------------------|
|-------------------------|----------------------------|


   H           Q.        E   +E   Q     Q     Q     E
|--------------------------|--------------------------|
|--------------------------|--------------------------|
|--------------------------|--------------------------|
|--2-----------4---------1-|-(1)--1-----2-----2-----4-|
|
|  E  E  E  E  E   E  E  E    E   E  E  E  E  E  E  E
|-20----20----18-----18----|-20-----20----18----18----|
|----18----18-----18----18-|-----18----18----18----18-|
|--------------------------|--------------------------|
|--------------------------|--------------------------|
|--------------------------|--------------------------|
|--------------------------|--------------------------|


  +E   E  H          +E   E   +E   E  Q     Q     Q
|---------------------------|---------------------------|
|---------------------------|---------------------------|
|---------------------------|---------------------------|
|-(4)--4--4----------(4)--4-|-(4)--4--4-----6-----4-----|
|
|  E   E  E  E  E  E  E   E    E   E  E  E  E  E  E  E
|-20-----20----18----18-----|-20-----20----18----18-----|
|-----18----18----18-----18-|-----18----18----18----18--|
|---------------------------|---------------------------|
|---------------------------|---------------------------|
|---------------------------|---------------------------|
|---------------------------|---------------------------|


   H           Q.        E   +E   E  H.
|--------------------------|---------------------------|
|--------------------------|---------------------------|
|--------------------------|---------------------------|
|--2-----------4---------4-|-(4)--6--6-----------------|
|
|  E  E  E  E  E   E  E  E    E   E  E   E  E  E  E  E
|-20----20----18-----18----|-20-----20-----18----18----|
|----18----18-----18----18-|-----18-----18----18----18-|
|--------------------------|---------------------------|
|--------------------------|---------------------------|
|--------------------------|---------------------------|
|--------------------------|---------------------------|


   H           E  Q     E   +E   E  H.
|-------------------------|----------------------------|
|-------------------------|----------------------------|
|-------------------------|----------------------------|
|--2-----------4--4-----4-|-(4)--6--6------------------|
|
|  E  E  E  E  E  E  E  E    E   E  E   E  E  E  E  E
|-20----20----18----18----|-20-----20-----18----18-----|
|----18----18----18----18-|-----18-----18----18----18--|
|-------------------------|----------------------------|
|-------------------------|----------------------------|
|-------------------------|----------------------------|
|-------------------------|----------------------------|


   H           Q.        E   +E   Q     Q     Q     E
|--------------------------|--------------------------|
|--------------------------|--------------------------|
|--------------------------|--------------------------|
|--2-----------4---------1-|-(1)--1-----2-----2-----4-|
|
|  E  E  E  E  E   E  E  E    E   E  E  E  E  E  E  E
|-20----20----18-----18----|-20-----20----18----18----|
|----18----18-----18----18-|-----18----18----18----18-|
|--------------------------|--------------------------|
|--------------------------|--------------------------|
|--------------------------|--------------------------|
|--------------------------|--------------------------|


  +E   E  Q     E  E  E  E   +E   E  Q     E  E  Q
|--------------------------|---------------------------|
|--------------------------|---------------------------|
|--------------------------|---------------------------|
|-(4)--4--4-----4--4--4--4-|-(4)--4--4-----4--4--4-----|
|
|  E   E  E  E  E  E  E  E    E   E  E  E  E  E  E  E
|-20-----20----18----18----|-20-----20----18----18-----|
|-----18----18----18----18-|-----18----18----18----18--|
|--------------------------|---------------------------|
|--------------------------|---------------------------|
|--------------------------|---------------------------|
|--------------------------|---------------------------|


   W                        +W
|-------------------------|--------------------------|
|-------------------------|--------------------------|
|-------------------------|--------------------------|
|--6----------------------|-(6)----------------------|
|
|  E  E  E  E  E  E  E  E    E   E  E  E  E  E  E  E
|-20----20----18----18----|-20-----20----18----18----|
|----18----18----18----18-|-----18----18----18----18-|
|-------------------------|--------------------------|
|-------------------------|--------------------------|
|-------------------------|--------------------------|
|-------------------------|--------------------------|


  +W                         +W
|--------------------------|---------------------------|
|--------------------------|---------------------------|
|--------------------------|---------------------------|
|-(6)----------------------|-(6)-----------------------|
|
|  E   E  E  E  E  E  E  E    E   E  E  E  E  E  E  E
|-20-----20----18----18----|-20-----20----18----18-----|
|-----18----18----18----18-|-----18----18----18----18--|
|--------------------------|---------------------------|
|--------------------------|---------------------------|
|--------------------------|---------------------------|
|--------------------------|---------------------------|


  Gtr II
   E  E  E  E  E  E  E  E    E  E  E  E  E  E  E  E
|-20----20----18----18----|-20----20----18----18----|
|----18----18----18----18-|----18----18----18----18-|
|-------------------------|-------------------------|
|-------------------------|-------------------------|
|-------------------------|-------------------------|
|-------------------------|-------------------------|


   E  E  E  E  E  E  E  E    E  E  E  E  E  E  E  E
|-20----20----18----18----|-20----20----18----18-----*|
|----18----18----18----18-|----18----18----18----18--*|
|-------------------------|--------------------------*|
|-------------------------|--------------------------*|
|-------------------------|--------------------------*|
|-------------------------|--------------------------*|


Duration Legend
---------------
W - whole; H - half; Q - quarter; E - 8th; S - 16th; T - 32nd; X - 64th; a - acciaccatura
+ - note tied to previous; . - note dotted; .. - note double dotted
Uncapitalized letters represent notes that are staccato (1/2 duration)
Irregular groupings are notated above the duration line
Duration letters will always appear directly above the note/fret number it represents the
duration for.  Duration letters with no fret number below them represent rests.  Multi-
bar rests are notated in the form Wxn, where n is the number of bars to rest for.  Low
melody durations appear below the staff

Tablature Legend
----------------
 h   - hammer-on
 p   - pull-off
 b   - bend
 pb  - pre-bend
 r   - bend release (if no number after the r, then release immediately)
 /\  - slide into or out of (from/to "nowhere")
 s   - legato slide
 S   - shift slide
  - natural harmonic
[n]  - artificial harmonic
n(n) - tapped harmonic
 ~   - vibrato
 tr  - trill
 T   - tap
 TP  - trem. picking
 PM  - palm muting
\n/  - tremolo bar dip; n = amount to dip
 \n  - tremolo bar down
 n/  - tremolo bar up
/n\  - tremolo bar inverted dip
 =   - hold bend; also acts as connecting device for hammers/pulls
 <>  - volume swell (louder/softer)
 x   - on rhythm slash represents muted slash
 o   - on rhythm slash represents single note slash

Misc Legend
-----------
 |  - bar
||  - double bar
||o - repeat start
o|| - repeat end
*|  - double bar (ending)
 :  - bar (freetime)
 $  - Segno
 &  - Coda
Tempo markers -  = BPM(8/16=s8/s16), where s8 = swing 8ths, s16 = swing 16ths
comments
We did not receive enough feedback on this tab! Please rate:
print report bad tab
1 2 3 4 5
I want to post or [tab]
guest
You may want to rate the tab now too:
select rating
Please do not post tabs as comments. Select "correction" instead!