Oops, an error
Loading. Please wait.

Love Metal Tab

by Him
8,326 views 3 this week
2 commentsread comments
1 2 3 4 5
accurate
x 5
Autoscroll
+/-
esc
set tempo
stop
Contributor
Hey! There's an official Ultimate Guitar app which is ideal
for learning songs when you're away from computer. Get the app
WARNING: You are trying to view
                                    content from Ultimate-Guitar.com
                                    in an unauthorized application,
                                    which is prohibited.

                                    Please use an official Ultimate
                                    Guitar Tabs application for iPhone,
                                    iPad or Android to access legitimate
                                    chords, guitar, bass, and drum tabs
                                    from Ultimate-Guitar.com database.

                                    Type "ultimate guitar tabs" in Apple
                                    App Store's or Android Market's
                                    search to find the application.
Submitted by: TheMutts (halo2k@forerunners.org)

Note: I would like to thanks to authors for these tabs. NOTE: I (TheMutts)
do not take credit at all for these tabs. I simply compiled the most accurate
tabs and put this album together so you can find all the songs in here.

HIM - Love Metal album

1. Buried Alive By Love
2. Funeral Of Hearts
3. Beyond Redemption
4. Sweet Pandmonium
5. Soul On Fire
6. Sacrament
7. Fortress Of Tears
8. Circle Of Fear (chords)
9. Endless Dark (chords)
10. Path

1. Buried Alive By Love

Main Riff
E|----------------------------------------------------------|
B|----------------------------------------------------------|
G|----------------------------------------------------------|
D|----------------------------------------------------------|
A|-2-2-2-2-2-2----------------------------------------------|
E|-3-0-0-0-0-0----------------------------------------------|

riff
|---------------------------------------------------------|
|---------------------------------------------------------|
|------------5-5-5-5-5------------------------------------|
|-2-2-2-2-2--5-5-5-5-5------------------------------------|
|-2-2-2-2-2—-3-3-3-3-3------------------------------------|
|-0-0-0-0-0-----------------------------------------------|

Riff 2
|---------------------------------------------------------|
|---------------------------------------------------------|
|---------------------------------------------------------|
|-7-7-7—7-7-7-7-7-----------------------------------------|
|-7-7-7-7-7-7-7-7--2-2-2-2-2-2--2-2-2-2-2-2---------------|
|-5-5-5-5-5-5-5-5--3-0-0-0-0-0--3-0-0-0-0-0---------------|

Riff 3
|---------------------------------------------------------|
|---------------------------------------------------------|
|-7~~~~~~~~------7--7-------------------------------------|
|-7~~~~~~~~------7--7-------------------------------------|
|-5~~~~~~~~------5--5-------------------------------------|
|---------------------------------------------------------|

Riff 4
|---------------------------------------------------------|
|---------------------------------------------------------|
|-9-9-9-9-9-9--111111111111-121212121212--141414141414----|
|-x-x-x-x-x-x--x-x-x-x-x-x--x-x-x-x-x-x---x-x-x-x-x-x-----|
|-7-7-7-7-7-7--9-9-9-9-9-9--101010101010--121212121212----|
|-0-0-0-0-0-0--0-0-0-0-0-0--0-0-0-0-0-0---0-0-0-0-0-0-----|

|---------------------------------------------------------|
|---------------------------------------------------------|
|---------------------------------------------------------|
|-2-2-2-2-2-2---5-5-5-5-5-5-------------------------------|
|-2-2-2-2-2-2---5-5-5-5-5-5-------------------------------|
|-0-0-0-0-0-0---3-3-3-3-3-3-------------------------------|

Riff 5
|---------------------------------------------------------|
|---------------------------------------------------------|
|-9-9-9-9-9-9--111111111111—9-9-9-9-9-9---7-7-7-7-7-7-----|
|-x-x-x-x-x-x--x-x-x-x-x-x--x-x-x-x-x-x---x-x-x-x-x-x-----|
|-7-7-7-7-7-7--9-9-9-9-9-9—-7-7-7-7-7-7---5-5-5-5-5-5-----|
|-0-0-0-0-0-0--0-0-0-0-0-0--0-0-0-0-0-0---0-0-0-0-0-0-----|

Riff 6
|---------------------------------------------------------|
|---------------------------------------------------------|
|---------------------------------------------------------|
|-2-2-2---2-2-2---2-2-2---2-2-2---------------------------|
|-2-2-2---2-2-2---2-2-2---2-2-2---------------------------|
|-0-0-0---0-0-0---0-0-0---0-0-0---------------------------|

Riff 7
|---------------------------------------------------------|
|---------------------------------------------------------|
|-9-9-9-9-9-9--111111111111—9-9-9-9-9-9---7-7-7-7-7-7-----|
|-x-x-x-x-x-x--x-x-x-x-x-x--x-x-x-x-x-x---x-x-x-x-x-x-----|
|-7-7-7-7-7-7--9-9-9-9-9-9—-7-7-7-7-7-7---5-5-5-5-5-5-----|
|-0-0-0-0-0-0--0-0-0-0-0-0--0-0-0-0-0-0---0-0-0-0-0-0-----|

|---------------------------------------------------------|
|---------------------------------------------------------|
|---------------------------------------------------------|
|-2-2-2-2-2-2---5-5-5-5-5-5-------------------------------|
|-2-2-2-2-2-2---5-5-5-5-5-5-------------------------------|
|-0-0-0-0-0-0---3-3-3-3-3-3-------------------------------|




2. Funeral Of Hearts

INTRO

Guitar 1 (Acoustic)

F#m 244222
C#m X46654
D X57775
A 577655
E X79997

F#m C#m D A E
Love\'s the funeral of hearts and an ode for cruelty
F#m C#m D A E
When angels cry blood on flowers of evil in bloom

Guitar 2
Drop D Tuning (DADGBe)

Note: the D5? chord (open Low D, A, and D strings) in some spots can be substituted with 
the D powerchord:
---
---
-7-
-7-
-5-
---

The funeral of hearts and a plea for mer_________cy
-----------------------------------------------------------------|
-----------------------------------------------------------------|
-----------------6-6-6-6-6-6-6-6---------------------------------|
-4-4-4-4-4-4-4-4-6-6-6-6-6-6-6-6-0-0-0-0-0-0-0-0-7-7-7-7-2-2-2-2-|
-4-4-4-4-4-4-4-4-4-4-4-4-4-4-4-4-0-0-0-0-0-0-0-0-7-7-7-7-2-2-2-2-|
-4-4-4-4-4-4-4-4-----------------0-0-0-0-0-0-0-0-7-7-7-7-2-2-2-2-|

When love is a gun sepa___rating me from you
-----------------------------------------------------------------|
-----------------------------------------------------------------|
-----------------6-6-6-6-6-6-6-6---------------------------------|
-4-4-4-4-4-4-4-4-6-6-6-6-6-6-6-6-0-0-0-0-0-0-0-0-7-7-7-7-2-2-2-2-|
-4-4-4-4-4-4-4-4-4-4-4-4-4-4-4-4-0-0-0-0-0-0-0-0-7-7-7-7-2-2-2-2-|
-4-4-4-4-4-4-4-4-----------------0-0-0-0-0-0-0-0-7-7-7-7-2-2-2-2-|

---------|
---------|
---------|
-4-------|
-4-------|
-4-4/-12-|

VERSOS

Guitar 1 (Acoustic)
Use the following chords

F#m 244222
E 022100
A 002220
D X00323

F#m E A
She was the sun shining upon
D F#m E F#m D
the tomb of your hopes and dreams so frail
F#m E A D
He was the moon painting you with it\'s glow
F#m E D E
so vulnerable and frail

Guitar 2

She was the sun shining upon tomb of your
-----------------------------------------------------------------|
-----------------------------------------------------------------|
-------------------------------------------------7-7-7-7-7-7-7-7-|
-4-4-4-4-4-4-4-4-2-2-2-2-2-2-2-2-7-7-7-7-7-7-7-7-7-7-7-7-7-7-7-7-|
-4-4-4-4-4-4-4-4-2-2-2-2-2-2-2-2-7-7-7-7-7-7-7-7-5-5-5-5-5-5-5-5-|
-4-4-4-4-4-4-4-4-2-2-2-2-2-2-2-2-7-7-7-7-7-7-7-7-----------------|

hopes and dreams so fra_____il
-----------------------------------------------------------------|
-----------------------------------------------------------------|
-----------------------------------------------------------------|
-4-4-4-4-4-4-4-4-2-2-2-2-2-2-2-2-4-4-4-4-4-4-4-4-4-4-4-4-----2-4-|
-4-4-4-4-4-4-4-4-2-2-2-2-2-2-2-2-4-4-4-4-4-4-4-4-4-4-4-4---4-----|
-4-4-4-4-4-4-4-4-2-2-2-2-2-2-2-2-4-4-4-4-4-4-4-4-4-4-4-4-4-------|

He was the moon painting you with it\'s glo_______w so
-----------------------------------------------------------------|
-----------------------------------------------------------------|
-------------------------------------------------7-7-7-7-7-7-7-7-|
-4-4-4-4-4-4-4-4-2-2-2-2-2-2-2-2-7-7-7-7-7-7-7-7-7-7-7-7-7-7-7-7-|
-4-4-4-4-4-4-4-4-2-2-2-2-2-2-2-2-7-7-7-7-7-7-7-7-5-5-5-5-5-5-5-5-|
-4-4-4-4-4-4-4-4-2-2-2-2-2-2-2-2-7-7-7-7-7-7-7-7-----------------|

vul__________nerable and pale
------------------------------------------------|
------------------------------------------------|
--------------------------------------4-4---6-6-|
-4-4-4-4-4-4-4-4-2-2-2-2-2-2-2-2-0----4-4---6-6-|
-4-4-4-4-4-4-4-4-2-2-2-2-2-2-2-2-0----2-2---4-4-|
-4-4-4-4-4-4-4-4-2-2-2-2-2-2-2-2-0--------------|


CHORUS

The fu__neral of hearts and an ode for cruel_________ty
-----------------------------------------------------------------|
-----------------------------------------------------------------|
-----------------6-6-6-6-6-6-6-6---------------------------------|
-4-4-4-4-4-4-4-4-6-6-6-6-6-6-6-6-0-0-0-0-0-0-0-0-7-7-7-7-7-2-2-2-|
-4-4-4-4-4-4-4-4-4-4-4-4-4-4-4-4-0-0-0-0-0-0-0-0-7-7-7-7-2-2-2-2-|
-4-4-4-4-4-4-4-4-----------------0-0-0-0-0-0-0-0-7-7-7-7-2-2-2-2-|

When angels cry blood evil i___n blo______om
-----------------------------------------------------------------|
-----------------------------------------------------------------|
-----------------6-6-6-6-6-6-6-6---------------------------------|
-4-4-4-4-4-4-4-4-6-6-6-6-6-6-6-6-0-0-0-0-0-0-0-0-7-7-7-7-7-2-2-2-|
-4-4-4-4-4-4-4-4-4-4-4-4-4-4-4-4-0-0-0-0-0-0-0-0-7-7-7-7-2-2-2-2-|
-4-4-4-4-4-4-4-4-----------------0-0-0-0-0-0-0-0-7-7-7-7-2-2-2-2-|

The funeral of hearts and a plea for mer_________cy
------------------------------------------------------------------|
------------------------------------------------------------------|
-----------------6-6-6-6-6-6-6-6----------------------------------|
-4-4-4-4-4-4-4-4-6-6-6-6-6-6-6-6-0-0-0-0-0-0-0-0-7-7-7-7-7-2-2-2--|
-4-4-4-4-4-4-4-4-4-4-4-4-4-4-4-4-0-0-0-0-0-0-0-0-7-7-7-7-2-2-2-2--|
-4-4-4-4-4-4-4-4-----------------0-0-0-0-0-0-0-0-7-7-7-7-2-2-2-2--|

When love is a gun sepa___rating me from you
------------------------------------------------------------------|
------------------------------------------------------------------|
-----------------6-6-6-6-6-6-6-6----------------------------------|
-4-4-4-4-4-4-4-4-6-6-6-6-6-6-6-6-0-0-0-0-0-0-0-0-7-7-7-7-7-2-2-2--|
-4-4-4-4-4-4-4-4-4-4-4-4-4-4-4-4-0-0-0-0-0-0-0-0-7-7-7-7-2-2-2-2--|
-4-4-4-4-4-4-4-4-----------------0-0-0-0-0-0-0-0-7-7-7-7-2-2-2-2--|

---------|
---------|
---------|
-4-------|
-4-------|
-4-4/-12-|

Guitar 1 (Acoustic)

F#m E A
She was the wind carrying in
D F#m E F#m D
All the troubles and fears you\'ve for years tried to forget
F#m E A
He was the fire restless and wild
D F#m E D E
And you were like a moth to that flame

Guitar 2

She was the wind carry__ing in all the troubles and
-----------------------------------------------------------------|
-----------------------------------------------------------------|
-------------------------------------------------7-7-7-7-7-7-7-7-|
-4-4-4-4-4-4-4-4-2-2-2-2-2-2-2-2-7-7-7-7-7-7-7-7-7-7-7-7-7-7-7-7-|
-4-4-4-4-4-4-4-4-2-2-2-2-2-2-2-2-7-7-7-7-7-7-7-7-5-5-5-5-5-5-5-5-|
-4-4-4-4-4-4-4-4-2-2-2-2-2-2-2-2-7-7-7-7-7-7-7-7-----------------|

fears you\'ve for years tried to forget
-----------------------------------------------------------------|
-----------------------------------------------------------------|
-----------------------------------------------------------------|
-4-4-4-4-4-4-4-4-2-2-2-2-2-2-2-2-4-4-4-4-4-4-4-4-4-4-4-4-----2-4-|
-4-4-4-4-4-4-4-4-2-2-2-2-2-2-2-2-4-4-4-4-4-4-4-4-4-4-4-4---4-----|
-4-4-4-4-4-4-4-4-2-2-2-2-2-2-2-2-4-4-4-4-4-4-4-4-4-4-4-4-4-------|

He was the fire restless and wild and yo____________u
-----------------------------------------------------------------|
-----------------------------------------------------------------|
-------------------------------------------------7-7-7-7-7-7-7-7-|
-4-4-4-4-4-4-4-4-2-2-2-2-2-2-2-2-7-7-7-7-7-7-7-7-7-7-7-7-7-7-7-7-|
-4-4-4-4-4-4-4-4-2-2-2-2-2-2-2-2-7-7-7-7-7-7-7-7-5-5-5-5-5-5-5-5-|
-4-4-4-4-4-4-4-4-2-2-2-2-2-2-2-2-7-7-7-7-7-7-7-7-----------------|

were like a moth to that flame
------------------------------------------------|
------------------------------------------------|
--------------------------------------4-4---6-6-|
-4-4-4-4-4-4-4-4-2-2-2-2-2-2-2-2-0----4-4---6-6-|
-4-4-4-4-4-4-4-4-2-2-2-2-2-2-2-2-0----2-2---4-4-|
-4-4-4-4-4-4-4-4-2-2-2-2-2-2-2-2-0--------------|

SOLO

Guitar 1

---------------------------|------------------------|
---------------------------|------------------------|
---------------------4-4/6-|------------------------|
-7-6-4-2-4-6-6-6/7---------|-7-6-4-2-4-6-6-6/7------|
-------------------7-------|-------------------74---|
---------------------------|------------------------|

---------------------------|------------------------|
---------------------------|------------------------|
---------------------4-4/6-|------------------------|
-7-6-4-2-4-6-6-6/7---------|-7-6-7---7-6-6-6/7------|
-------------------7-------|-------7-----------74---|
---------------------------|------------------------|

Guitar 2

-----------------------7-7/9-|---------------------------|
-10-9-7-5-7-9-9-9/10---------|-10-9-10---7-9-9-9/10------|
---------------------9-------|---------9------------96---|
-----------------------------|---------------------------|
-----------------------------|---------------------------|
-----------------------------|---------------------------|

-----------------------7-7/9-|----------------------------|
-10-9-7-5-7-9-9-9/10---------|-10-9-10---10-9-9-9/10------|
---------------------9-------|---------9-------------96---|
-----------------------------|----------------------------|
-----------------------------|----------------------------|
-----------------------------|----------------------------|

Guitar 1 (Acoustic)

D E C#m
The heretic seal, beyond divine
A E D
A prayer to a god who\'s deaf and blind
E C#m
The last rites for souls on fire
A E D
Three little words and a question why?

Guitar 2

-------------------------|---------------------------|
-------------------------|---------------------------|
-------------------------|---------------------------|
-------------------------|-------------------------0-|
-------------------------|-------------------------0-|
-0---2---3---4-6-4---2---|-0---2---3---4-6-7---6---0-|

--------------------------------------|
--------------------------------------|
-4-4---6-6----------------------------|
-4-4---6-6---4-4-4-4-4-4-4-4-4-4-4-4--|
-2-2---4-4---4-4-4-4-4-4-4-4-4-4-4-4--|
-------------4-4-4-4-4-4-4-4-4-4-4-4--|
----P.M-------------------------------|
CHORUS

Love\'s the funeral of hearts and an ode for cruel_________ty
---------------------------------|
---------------------------------|
-----------------4-4-4-4---------|
-2-2-2-2-2-2-2-2-4-4-4-4-4-4-4-4-|
-2-2-2-2-2-2-2-2-2-2-2-2-4-4-4-4-|
-2-2-2-2-2-2-2-2---------4-4-4-4-|

When angels cry blood evil i___n blo______om
-----------------------------------------------------------------|
-----------------------------------------------------------------|
-------------------------------------------------4-4-4-4---------|
-6-6-6-6-6-6-6-6-1-1-1-1-1-1-1-1-2-2-2-2-2-2-2-2-4-4-4-4-4-4-4-4-|
-6-6-6-6-6-6-6-6-1-1-1-1-1-1-1-1-2-2-2-2-2-2-2-2-2-2-2-2-4-4-4-4-|
-6-6-6-6-6-6-6-6-1-1-1-1-1-1-1-1-2-2-2-2-2-2-2-2---------4-4-4-4-|

The funeral of hearts and a plea for mer_________cy
-----------------------------------------------------------------|
-----------------------------------------------------------------|
-------------------------------------------------4-4-4-4---------|
-6-6-6-6-6-6-6-6-1-1-1-1-1-1-1-1-2-2-2-2-2-2-2-2-4-4-4-4-4-4-4-4-|
-6-6-6-6-6-6-6-6-1-1-1-1-1-1-1-1-2-2-2-2-2-2-2-2-2-2-2-2-4-4-4-4-|
-6-6-6-6-6-6-6-6-1-1-1-1-1-1-1-1-2-2-2-2-2-2-2-2---------4-4-4-4-|

When love is a gun sepa___rating me from you
-----------------------------------------------------------------|
-----------------------------------------------------------------|
-------------------------------------------------4-4-4-4---------|
-6-6-6-6-6-6-6-6-1-1-1-1-1-1-1-1-2-2-2-2-2-2-2-2-4-4-4-4-4-4-4-4-|
-6-6-6-6-6-6-6-6-1-1-1-1-1-1-1-1-2-2-2-2-2-2-2-2-2-2-2-2-4-4-4-4-|
-6-6-6-6-6-6-6-6-1-1-1-1-1-1-1-1-2-2-2-2-2-2-2-2---------4-4-4-4-|

Guitar 1 (Acoustic)

G#m 466444
D#m x68876
E x79997
B 799877
F# x91111119

G#m D#m E B F#
The funeral of hearts and an ode for cruelty
G#m D#m E B F#
When angels cry blood on flowers of evil in bloom

--------------|
------------9-|
-------4----9-|
-----6---6--9-|
---6--------7-|
-4------------|



3. Beyond Redemption

Tune down 1/2 step
INTRO on piano

-------2-|-------5-3-2-|
---3-----|---3---------|
-4---4---|-4---4-------|
---------|-------------|
---------|-------------|
---------|-------------|

Guitar 1

---------|-------------|---------|----------------4-|
---------|-------------|---------|----------------5-|
-------1-|-------4-2-1-|-------1-|---------1------6-|
---2-----|---2---------|---2-----|---2---4---2-1--6-|
-4---4---|-4---4-------|-4---4---|-4---4----------4-|
---------|-------------|---------|------------------|

Guitar 2

------------------------------------------------------------------|
------------------------------------------------------------------|
-6-6-6-6-6-6-6-6--------------------------------------------------|
-6-6-6-6-6-6-6-6-2-2-2-2-2-2-2-2-4-4-4-4-4-4-4-4-7-7-7-7-9-9-9-9--|
-4-4-4-4-4-4-4-4-2-2-2-2-2-2-2-2-4-4-4-4-4-4-4-4-7-7-7-7-9-9-9-9--|
-----------------0-0-0-0-0-0-0-0-2-2-2-2-2-2-2-2-5-5-5-5-7-7-7-7--|
 ------------------------------P.M--------------------------------|

------------------------------------------------------------------4--|
------------------------------------------------------------------5--|
-6-6-6-6-6-6-6-6--------------------------------------------------6--|
-6-6-6-6-6-6-6-6-2-2-2-2-2-2-2-2-4-4-4-4-4-4-4-4-7-7-7-7-9-9-9-9--6--|
-4-4-4-4-4-4-4-4-2-2-2-2-2-2-2-2-4-4-4-4-4-4-4-4-7-7-7-7-9-9-9-9--4--|
-----------------0-0-0-0-0-0-0-0-2-2-2-2-2-2-2-2-5-5-5-5-7-7-7-7-----|
 ------------------------------P.M-----------------------------------|

Oh I see your scars       I know where they from         So sensually carved
------------              ------------                   ------------|
------------              ------------                   ------------|
------------              ------------                   ------------|
------------              ------------                   ------------|
--------2-4-              --------7-4-                   --------2-4-|
-5--7\4-----              -5--7\4-----                   -5--7\4-----|

and bleeding until you're dead and gone
       ----------------------------|
       ----------------------------|
       ----------------------------|
       ----------------------------|
       ----------------------------|
       -2--------------4----5----7-|

I've seen it all before      beauty and splendour torn       It's when heaven
------------                   ------------                     ------------|
------------                   ------------                     ------------|
------------                   ------------                     ------------|
------------                   ------------                     ------------|
--------2-4-                   --------7-4-                     --------2-4-|
-5--7\4-----                   -5--7\4-----                     -5--7\4-----|

turns to black and hell to white
---------------------|
---------------------|
---------------------|
---------------------|
---------------------|
-2--------------4--5-|

Right's so wrong and wrong's so right           Now
-----------------------                         ---|
-----------------------                         ---|
-----------------------                         ---|
-----------------------                         ---|
-----------------------                         ---|
-2----------------4--5-                         -7-|

CHORUS

-4-4--------------------|-4-4--------------------|
-5-5--------------------|-5-5--------------------|
-6-6--------------------|-6-6--------------------|
-6-6--6-7-7-x-7/9-9-9-2-|-6-6--6-7-7-x-7/9-9-9-2-|
-4-4--6-7-7-x-7/9-9-9-2-|-4-4--6-7-7-x-7/9-9-9-2-|
------4-5-5-x-5/7-7-7-0-|------4-5-5-x-5/7-7-7-0-|

--------------------------------|
--------------------------------|
-6------------------------------|
-6----6----7--x-x-x-9-9-9-2-2-2-|
-4----6----7--x-x-x-9-9-9-2-2-2-|
------4----5--x-x-x-7-7-7-0-0-0-|

Guitar 1

---------|-------------|---------|----------------4-|
---------|-------------|---------|----------------5-|
-------1-|-------4-2-1-|-------1-|---------1------6-|
---2-----|---2---------|---2-----|---2---4---2-1--6-|
-4---4---|-4---4-------|-4---4---|-4---4----------4-|
---------|-------------|---------|------------------|

Guitar 2

------------------------------------------------------------------|
------------------------------------------------------------------|
-6-6-6-6-6-6-6-6--------------------------------------------------|
-6-6-6-6-6-6-6-6-2-2-2-2-2-2-2-2-4-4-4-4-4-4-4-4-7-7-7-7-9-9-9-9--|
-4-4-4-4-4-4-4-4-2-2-2-2-2-2-2-2-4-4-4-4-4-4-4-4-7-7-7-7-9-9-9-9--|
-----------------0-0-0-0-0-0-0-0-2-2-2-2-2-2-2-2-5-5-5-5-7-7-7-7--|
 ------------------------------P.M--------------------------------|

------------------------------------------------------------------4--|
------------------------------------------------------------------5--|
-6-6-6-6-6-6-6-6--------------------------------------------------6--|
-6-6-6-6-6-6-6-6-2-2-2-2-2-2-2-2-4-4-4-4-4-4-4-4-7-7-7-7-9-9-9-9--6--|
-4-4-4-4-4-4-4-4-2-2-2-2-2-2-2-2-4-4-4-4-4-4-4-4-7-7-7-7-9-9-9-9--4--|
-----------------0-0-0-0-0-0-0-0-2-2-2-2-2-2-2-2-5-5-5-5-7-7-7-7-----|
 ------------------------------P.M-----------------------------------|

Oh I see you crawl        you can barely walk         And arms wide open
------------              ------------               ------------|
------------              ------------               ------------|
------------              ------------               ------------|
------------              ------------               ------------|
--------2-4-              --------7-4-               --------2-4-|
-5--7\4-----              -5--7\4-----               -5--7\4-----|

you keep on  begging for more
--------------------|
--------------------|
--------------------|
--------------------|
--------------------|
-2----------4-5---7-|

I've been there before       knocking on the same door       It's when hate
------------                 ------------                    ------------|
------------                 ------------                    ------------|
------------                 ------------                    ------------|
------------                 ------------                    ------------|
--------2-4-                 --------7-4-                    --------2-4-|
-5--7\4-----                 -5--7\4-----                    -5--7\4-----|

turns to love and love to hate
---------------------|
---------------------|
---------------------|
---------------------|
---------------------|
-2--------------4--5-|

Faith to doubt and doubt to faith           Now
----------------------                      ---|
----------------------                      ---|
----------------------                      ---|
----------------------                      ---|
----------------------                      ---|
-2---------------4--5-                      -7-|

CHORUS

-4-4--------------------|-4-4--------------------|
-5-5--------------------|-5-5--------------------|
-6-6--------------------|-6-6--------------------|
-6-6--6-7-7-x-7/9-9-9-2-|-6-6--6-7-7-x-7/9-9-9-2-|
-4-4--6-7-7-x-7/9-9-9-2-|-4-4--6-7-7-x-7/9-9-9-2-|
------4-5-5-x-5/7-7-7-0-|------4-5-5-x-5/7-7-7-0-|

--------------------------------|
--------------------------------|
-6------------------------------|
-6----6----7--x-x-x-9-9-9-2-2-2-|
-4----6----7--x-x-x-9-9-9-2-2-2-|
------4----5--x-x-x-7-7-7-0-0-0-|

-----------------------------------------------------------------------------|
-----------------------------------------------------------------------------|
9-9-9-9-9-9-9-11-11-11-11-11-11-11-13-13-13-13-13-13-13-14-14-14-14-14-14-14-|
x-x-x-x-x-x-x--x--x--x--x--x--x--x--x--x--x--x--x--x--x--x--x--x--x--x--x--x-|
7-7-7-7-7-7-7--9--9--9--9--9--9--9-11-11-11-11-11-11-11-12-12-12-12-12-12-12-|
-----------------------------------------------------------------------------|

-----------------------------------------------------------------------------|
-----------------------------------------------------------------------------|
9-9-9-9-9-9-9-11-11-11-11-11-11-11-13-13-13-13-13-13-13-14-14-14-14-14-14-14-|
x-x-x-x-x-x-x--x--x--x--x--x--x--x--x--x--x--x--x--x--x--x--x--x--x--x--x--x-|
7-7-7-7-7-7-7--9--9--9--9--9--9--9-11-11-11-11-11-11-11-12-12-12-12-12-12-12-|
-----------------------------------------------------------------------------|

-----------------------------------------------------------------------------|
-----------------------------------------------------------------------------|
9-9-9-9-9-9-9-11-11-11-11-11-11-11-13-13-13-13-13-13-13-14-14-14-14-14-14-14-|
x-x-x-x-x-x-x--x--x--x--x--x--x--x--x--x--x--x--x--x--x--x--x--x--x--x--x--x-|
7-7-7-7-7-7-7--9--9--9--9--9--9--9-11-11-11-11-11-11-11-12-12-12-12-12-12-12-|
-----------------------------------------------------------------------------|

Guitar 1

---------------------------------------------------------------------------|
---------------------------------------------------------------------------|
-13-13-13-13--13-13-13-11-11-11-11--11-11-11-9-9-9-9--9-9-9-8-8-8-8--8-8-8-|
--x--x--x--x---x--x--x--x--x--x--x---x--x--x-x-x-x-x--x-x-x-x-x-x-x--x-x-x-|
-11-11-11-11--11-11-11--9--9--9--9---9--9--9-7-7-7-7--7-7-7-6-6-6-6--6-6-6-|
---------------------------------------------------------------------------|

Guitar 2

------------------------------------------|
------------------------------------------|
13-13-13-13-13-13-13-14-14-14-14-14-14-14-|
-x--x--x--x--x--x--x--x--x--x--x--x--x--x-|
11-11-11-11-11-11-11-12-12-12-12-12-12-12-|
------------------------------------------|

------------------------------------------|
------------------------------------------|
15-15-15-15-15-15-15-16-16-16-16-16-16-16-|
-x--x--x--x--x--x--x--x--x--x--x--x--x--x-|
13-13-13-13-13-13-13-14-14-14-14-14-14-14-|
------------------------------------------|

SOLO

-------------------------7---------------------------------------------------|
9-9-9-9-9-9-9-9-9-7--7/9--9p7---7-7--------------------------7/9----9-9-12---|
-------------------9----------9-----6-6h9-8-6-9-8b-6-8b----9---------------9-|
--------------------------------------------------------11-------11----------|
-----------------------------------------------------------------------------|
-----------------------------------------------------------------------------|

--------------9------------------------12-12-12-12-12-12\9---7---7-7/9-|
-----------12----12----14----14-14/17----------------------9---9-------|
------9-11----------13----13-------------------------------------------|
-9-11------------------------------------------------------------------|
-----------------------------------------------------------------------|
-----------------------------------------------------------------------|

-9-12-12/16-14-12-14-12-11-12-11-9----9-9/12-9----9----------------------|
-----------------------------------12----------12---9-7---7h9-7-9b-7-----|
--------------------------------------------------------9------------9-6-|
-------------------------------------------------------------------------|
-------------------------------------------------------------------------|
-------------------------------------------------------------------------|

Feel it...
-4---5---4---5---4---4---5-|
-5---5---5---5---5---4---5-|
-6---6---6---6---6---4---6-|
-6---7---6---7---6---6---7-|
-4---7---4---7---4---6---7-|
-----5-------5-------4---5-|

CHORUS

-4-4--------------------|-4-4--------------------|
-5-5--------------------|-5-5--------------------|
-6-6--------------------|-6-6--------------------|
-6-6--6-7-7-x-7/9-9-9-2-|-6-6--6-7-7-x-7/9-9-9-2-|
-4-4--6-7-7-x-7/9-9-9-2-|-4-4--6-7-7-x-7/9-9-9-2-|
------4-5-5-x-5/7-7-7-0-|------4-5-5-x-5/7-7-7-0-|

--------------------------------|
--------------------------------|
-6------------------------------|
-6----6----7--x-x-x-9-9-9-2-2-2-|
-4----6----7--x-x-x-9-9-9-2-2-2-|
------4----5--x-x-x-7-7-7-0-0-0-|

Guitar 1

---------|-------------|---------|----------------4-|
---------|-------------|---------|----------------5-|
-------1-|-------4-2-1-|-------1-|---------1------6-|
---2-----|---2---------|---2-----|---2---4---2-1--6-|
-4---4---|-4---4-------|-4---4---|-4---4----------4-|
---------|-------------|---------|------------------|

Guitar 2

-----------------------------------------------------------------|
-----------------------------------------------------------------|
-6-6-6-6-6-6-6-6-------------------------------------------------|
-6-6-6-6-6-6-6-6-2-2-2-2-2-2-2-2-4-4-4-4-4-4-4-4-7-7-7-7-9-9-9-9-|
-4-4-4-4-4-4-4-4-2-2-2-2-2-2-2-2-4-4-4-4-4-4-4-4-7-7-7-7-9-9-9-9-|
-----------------0-0-0-0-0-0-0-0-2-2-2-2-2-2-2-2-5-5-5-5-7-7-7-7-|
 ------------------------------P.M-------------------------------|

------------------------------------------------------------------4-|
------------------------------------------------------------------5-|
-6-6-6-6-6-6-6-6--------------------------------------------------6-|
-6-6-6-6-6-6-6-6-2-2-2-2-2-2-2-2-4-4-4-4-4-4-4-4-7-7-7-7-9-9-9-9--6-|
-4-4-4-4-4-4-4-4-2-2-2-2-2-2-2-2-4-4-4-4-4-4-4-4-7-7-7-7-9-9-9-9--4-|
-----------------0-0-0-0-0-0-0-0-2-2-2-2-2-2-2-2-5-5-5-5-7-7-7-7----|
 ------------------------------P.M----------------------------------|



4. Sweet Pandmonium

Intro version one: can also be used as the parts in the verse


e-------------------------------------------|
B-------------------------------------------|
G-------------------------------------------|
D-------------------------------------------|
A-------------------------------------------|
E-8-10-10-10-10-8-8-8-8-6-8-8-8-6-3-3-3-3---|


e-----------------------------------------------|
B-----------------------------------------------|
G-----------------------------------------------|
D-----------------------------------------------|
A-----------------------------------------------|
E--8-10-10-10-10-11-10-8-8-8-6-8-8-8-6-3-3-3-3--|

Intro version two: Can also be used as parts in verse

|--------------------------------------------------|
|--------------------------------------------------|
|--------------------------------------------------|
|--------------------------------------------------|
|-3--5--5--5--5--3--3--3--1--3--3--3--1------------|
|------------------------------------------3-3-----|

|----------------------------------------------------------|
|----------------------------------------------------------|
|----------------------------------------------------------|
|----------------------------------------------------------|
|-3--5--5--6--5--3--3--3--1--3--3--3-1---------------------|
|----------------------------------------3-3-3-3-3-3-------|

Pre-Chorus

|-----------------------------------|
|-----------------------------------|
|-----------------------------------|
|-2-2-2-2---------------------------|
|-2-2-2-2---------------------------|
|-0-0-0-0---------------------------|
 Palm Mute me!

Chorus: Play this twice (Keyboard plays some phr34ky effects underneath)

|------------------------------------|
|------------------------------------|
|-------5----------------------------|
|-2--3--5--5--2--3--5----------------|
|-2--3--3--5--2--3--5----------------|
|-0--1-----3--0--1--3----------------|


And before the final chorus play;

|---------------------------------------------|
|---------------------------------------------|
|---------------------------------------------|
|---------------------------------------------|
|---------------------------------------------|
|-5-7-7-8-7-5-5-5-3-5-5-5-3-0-0-0-0-0-~-------|



5. Soul On Fire

Intro (ok when bending the string, do it quick and not that big of a bend,
       just to get that sound like in the song. its easy as pie)
*distortion*                     8x
|---------------------------------|
|o-------------------------------o|
|---------------------------------|
|---------------------------------|
|o-----10b-10b---9b-9b---5-0-5-7-o|
|--0-0---------0-------0----------|


Verse (you can hear a guitar playing softly in the background, heres what
       I could transcribe)

*clean*
|---------------------|
|o-----------------2-o|
|----2-4------2-4-----|repeat as needed
|--0-----2--0---------|
|o-------------------o|
|---------------------|

Prechorus


*distortion*
|---------------------------------------|
|-------------------------------15b16r--|
|---------------------------------------|
|--0-0--10-10--0-0--12-12---------------|
|--0-0--10-10--0-0--12-12---------------|
|--0-0--8--8---0-0--10-10-10/12---------|
   PM-|        PM-|


Chorus

*distortion*
--------------------------------------------------|
--------------------------------------------------|
--------------------------------------------------|
--14-14-14-14-14-14-14-14-14-14-14-14-14-14-14-14-|
--14-14-14-14-14-14-14-14-14-14-14-14-14-14-14-14-|
--12-12-12-12-12-12-12-12-12-12-12-12-12-12-12-12-|

--------------------------------------------------|
--------------------------------------------------|
--------------------------------------------------|
--14-14-14-14-14-14-14-14-14-14-14-14-14-14-14-14-|
--14-14-14-14-14-14-14-14-14-14-14-14-14-14-14-14-|
--12-12-12-12-12-12-12-12-12-12-12-12-12-12-12-12-|

--------------------------------------------------|
--------------------------------------------------|
--------------------------------------------------|
--10-10-10-10-10-10-10-10-10-10-10-10-10-10-10-10-|
--10-10-10-10-10-10-10-10-10-10-10-10-10-10-10-10-|
--8--8--8--8--8--8--8--8--8--8--8--8--8--8--8--8--|

--------------------------------------------------|
--------------------------------------------------|
--------------------------------------------------|
--12-12-12-12-12-12-12-12-12-12-12-12-12-12-12-12-|
--12-12-12-12-12-12-12-12-12-12-12-12-12-12-12-12-|
--10-10-10-10-10-10-10-10-10-10-10-10-10-10-10-10-|

----------------------------------|----------------------------------|
----------------------------------|----------------------------------|
----------------------------------|----------------------------------|
--2-2-2-2-2-2-2-2-2-2-2-2-2-2-2-2-|--4-4-4-4-4-4-4-4-4-4-4-4-4-4-4-4-|
--2-2-2-2-2-2-2-2-2-2-2-2-2-2-2-2-|--4-4-4-4-4-4-4-4-4-4-4-4-4-4-4-4-|
--0-0-0-0-0-0-0-0-0-0-0-0-0-0-0-0-|--2-2-2-2-2-2-2-2-2-2-2-2-2-2-2-2-|

----------------------------------|
----------------------------------|
----------------------------------|
--7-7-7-7-7-7-7-7-7-7-7-7-7-7-7-7-|
--7-7-7-7-7-7-7-7-7-7-7-7-7-7-7-7-|
--5-5-5-5-5-5-5-5-5-5-5-5-5-5-5-5-|

--------------------------------------------------|
--------------------------------------------------|
--------------------------------------------------|
--10-10-10-10-10-10-10-10-12-12-12-12-12-12-12-12-|
--10-10-10-10-10-10-10-10-12-12-12-12-12-12-12-12-|
--8--8--8--8--8--8--8--8--10-10-10-10-10-10-10-10-|

Chorus 2

*distortion*
----------------------------------|----------------------------------|
----------------------------------|----------------------------------|
----------------------------------|----------------------------------|
--2-2-2-2-2-2-2-2-2-2-2-2-2-2-2-2-|--2-2-2-2-2-2-2-2-2-2-2-2-2-2-2-2-|
--2-2-2-2-2-2-2-2-2-2-2-2-2-2-2-2-|--2-2-2-2-2-2-2-2-2-2-2-2-2-2-2-2-|
--0-0-0-0-0-0-0-0-0-0-0-0-0-0-0-0-|--0-0-0-0-0-0-0-0-0-0-0-0-0-0-0-0-|

--------------------------------------------------|
--------------------------------------------------|
--------------------------------------------------|
--10-10-10-10-10-10-10-10-10-10-10-10-10-10-10-10-|
--10-10-10-10-10-10-10-10-10-10-10-10-10-10-10-10-|
--8--8--8--8--8--8--8--8--8--8--8--8--8--8--8--8--|

--------------------------------------------------|
--------------------------------------------------|
--------------------------------------------------|
--12-12-12-12-12-12-12-12-12-12-12-12-12-12-12-12-|
--12-12-12-12-12-12-12-12-12-12-12-12-12-12-12-12-|
--10-10-10-10-10-10-10-10-10-10-10-10-10-10-10-10-|

----------------------------------|----------------------------------|
----------------------------------|----------------------------------|
----------------------------------|----------------------------------|
--2-2-2-2-2-2-2-2-2-2-2-2-2-2-2-2-|--4-4-4-4-4-4-4-4-4-4-4-4-4-4-4-4-|
--2-2-2-2-2-2-2-2-2-2-2-2-2-2-2-2-|--4-4-4-4-4-4-4-4-4-4-4-4-4-4-4-4-|
--0-0-0-0-0-0-0-0-0-0-0-0-0-0-0-0-|--2-2-2-2-2-2-2-2-2-2-2-2-2-2-2-2-|

----------------------------------|
----------------------------------|
----------------------------------|
--7-7-7-7-7-7-7-7-7-7-7-7-7-7-7-7-|
--7-7-7-7-7-7-7-7-7-7-7-7-7-7-7-7-|
--5-5-5-5-5-5-5-5-5-5-5-5-5-5-5-5-|

--------------------------------------------------|
--------------------------------------------------|
--------------------------------------------------|
--10-10-10-10-10-10-10-10-12-12-12-12-12-12-12-12-|
--10-10-10-10-10-10-10-10-12-12-12-12-12-12-12-12-|
--8--8--8--8--8--8--8--8--10-10-10-10-10-10-10-10-|

Solo
*distortion*
--------------------------------------|
--------------------------12-10-8---8-|
----------------------------------9---|
--10--10--10--10--10--10--------------|
--10--10--10--10--10--10--------------|
--8---8---8---8---8---8---------------|

--12--12--12--12--15-12-10-12-10-12-10----10-12-|------------------|
---------------------------------------12-------|------------------|
------------------------------------------------|------------------|
------------------------------------------------|------------------|
------------------------------------------------|------------------|
------------------------------------------------|------------------|

--17r-17--15--12-15-12-7-10-7-5-3h5p3-5-3-5b|---5-3-0-------------|
--------------------------------------------|---------------------|
--------------------------------------------|---------------------|
--------------------------------------------|---------------------|
--------------------------------------------|---------------------|
--------------------------------------------|---------------------|

----8~--8~----8~--------|----12~-12~---14~-14~--------|
----10--10----10--------|----13--13----15--15---------|
------------------------|-----------------------------|
------------------------|-----------------------------|
------------------------|--------------------------5~-|
------------------------|----------------------2-3----|


Repeat chorus 2


and repeat the intro part

6. Sacrament

I just wanna say that I've tabbed the piano parts. It's a nice song. Piano parts
and chords are played on acoustic guitar with normal tuning (E-A-D-G-B-E).


¤Chords used in this song¤

   Am      x02210
   C       332010
   C(add9) 332030
   D       200232
   Em      022000
   Em7     020030
   G       320033


¤Piano intro/chorus transcribed for acoustic guitar¤
 (play this also on chorus)

E¤-0-------0-------0-------5---------------------------------------|
B¤-----0-------0-------0-------0---8-------------------------------|
G¤---5---5---5---5---5---5---5---5---0---0---0---0---0---0---0---0-|
D¤-------------------------------------4-------4-------4-------4---|
A¤-3---------------0-----------------------7---------------7-------|
E¤---------------------------------0---------------0---------------|
   |       |       |       |       |       |       |       |

E¤-0-------0-------0-------5---------------------------------------|
B¤-----0-------0-------0-------0---8-------------------------------|
G¤---5---5---5---5---5---5---5---5---0---0---0---0---0---0---0---0-|
D¤-------------------------------------4-------4-------4-------4---|
A¤-3---------------0-----------------------7---------------7-------|
E¤---------------------------------0---------------0---------------|
   |       |       |       |       |       |       |       |

E¤-0-------0-------0-------5---------------------------------------|
B¤-----0-------0-------0-------0---8---------------7---------------|
G¤---5---5---5---5---5---5---5---5---0---0---0---0---0---0---0---0-|
D¤-------------------------------------4-------4-------4-------4---|
A¤-3---------------0-----------------------7-------5-------5-------|
E¤---------------------------------0-------------------------------|
   |       |       |       |       |       |       |       |

E¤-0-------0-------0-------5-------3~~~~~~~~~~~~~~~~~~~~~~~~~~~~~~-|
B¤-----0-------0-------0-------0-----------------------------------|
G¤---5---5---5---5---5---5---5---5-0~~~~~~~~~~~~~~~~~~~~~~~~~~~~~~-|
D¤---------------------------------2~~~~~~~~~~~~~~~~~~~~~~~~~~~~~~-|
A¤-3---------------0-----------------------------------------------|
E¤---------------------------------0~~~~~~~~~~~~~~~~~~~~~~~~~~~~~~-|
   |       |       |       |       |       |       |       |


¤Piano interlude transcribed for acoustic guitar¤

E¤-------------------------0---------------------------------------|
B¤-0-------0-------0---------------3-------3-------3-------1-------|
G¤---0---0---0---0---0---0---0---0---0---0---0---0---0---0---0---0-|
D¤-----4-------4-------4-------4-------4-------4-------4-------4---|
A¤-----------------------------------------------------------------|
E¤-0-------------------------------0-------------------------------|
   |       |       |       |       |       |       |       |

[intro]

[C] [Am] [Em] [Em]
[C] [Am] [Em] [Em]
[C] [Am] [Em] [D]
[C] [Am] [Em] [Em]


[verse]

I [Am]hear you breathe so [C(add9)]far from me
I [Am]feel your touch so [C(add9)]close and real
And I kno[D]w
My chu[Em]rch is not of [C]silver and go[G]ld,
[D]It's glory li[Em]es beyond [C]judgement of so[G]uls
[D]The commandments a[Em]re of consola[C]tion o[G][D]h


[chorus]

[C]You know our sa[Am]cred dream won't [Em7]fail
[C]The sanctuary ten[Am]der and so [Em7]frail
[C]The sacrame[Am]nt of love
[Em]The sacrame[D]nt of warmth is tru[C]e
The [Am]sacrament is y[Em]ou


[verse]

I [Am]hear you weep so [C(add9)]far from me
I [Am]taste your tears like you're [C(add9)]next to me
And I kno[D]w
That our pra[Em]yers are not e[C]nough to gi[G]ve
[D]Oh the an[Em]cient runes so [C]deep and so de[G]ar
[D]The revela[Em]tion is our pa[C]tron fe[G][D]ar


[chorus]

[C]You know our sa[Am]cred dream won't [Em7]fail
[C]The sanctuary ten[Am]der and so [Em7]frail
[C]The sacrame[Am]nt of love
[Em]The sacrame[D]nt of warmth is tru[C]e
The [Am]sacrament is y[Em]ou


[interlude]

[Em]The sacrament is y[Em]ou
[Em]The sacrament is y[Em]ou
[Em]The sacrament is y[Em]ou
[Em]The sacrament is y[Em]ou


[chorus]

[C]You know our sa[Am]cred dream won't [Em7]fail
[C]The sanctuary ten[Am]der and so [Em7]frail
[C]The sacrame[Am]nt of love
[Em]The sacrame[D]nt of warmth is tru[C]e
The [Am]sacrament is y[Em]ou


[chorus]

[C]You know our sa[Am]cred dream won't [Em7]fail
[C]The sanctuary ten[Am]der and so [Em7]frail
[C]The sacrame[Am]nt of love
[Em]The sacrame[D]nt of warmth is tru[C]e
The [Am]sacrament is y[Em]ou

7. Fortress Of Tears

intro (clean guitar)
e-----------------------------------------------------|
b-----------------------------------------------------|
g-----------------------------------------------------|
d--6/7----6--6--6\4-----------------------------------|
a--7/9----7--7--7\5---4-b-2---------------------------|
e-----------------------------------------------------| X2

part 1 (distortion)
e-----------------------------------------------------|
b-----------------------------------------------------|
g-----------------------------------------------------|
d--7/9--9-9-9/10\9-9-9---7-x-7-x-7\5------------------|
a--7/9--9-9-9/10\9-9-9---7-x-7-x-7\5------------------|
e--5/7--7-7-7/-9\7-7-7---5-x-5-x-5\3---3-2-0----------| x4

(second play though ending - distortion)
e-----------------------------------------------------|
b-----------------------------------------------------|
g-----------------------------------------------------|
d-----------------------------------------------------|
a-----------------------------------------------------|
e--/12-v----------------------------------------------|

Pre-chorus
e-----------------------------------------------------|
b-----------------------------------------------------|
g-----------------------------------------------------|
d--7--7---9-------------------------------------------|
a--7--7---9-------------------------------------------|
e--5--5---7-------------------------------------------|

chorus
e-----------------------------------------------------|
b-----------------------------------------------------|
g---7-7-7-7-7-7-7-7--4-4-4-4-4-4-4-4------------------|
d---7-7-7-7-7-7-7-7--4-4-4-4-4-4-4-4--5-5-5-5-5-5-5-5-|
a---5-5-5-5-5-5-5-5--2-2-2-2-2-2-2-2--5-5-5-5-5-5-5-5-|
e-------------------------------------3-3-3-3-3-3-3-3-|

e-----------------------------------------------------|
b-----------------------------------------------------|
g---7--7--7-------------------------------------------|
d---7--7--7---7---------------------------------------|
a---5--5--5---7---------------------------------------|
e-------------5---------------------------------------|

part 1 x2

pre-chorus

chorus

part 1

Solo
e------------------------------------------------------|
b------------------------------------------------------|
g----------------------------------------9b--9b-9b--9--|b
d--------------9*-7------------7-9v--------------------|
a---------7-9--------9v---7-9--------------------------|
e--7-/-9-----------------------------------------------|

e-----------------------------------------------------|
b-----------------------------------------------------|
g-----7b--7b--7b--7b----------------------------------|
d--11-----------------9-------------------------------|
a-----------------------------------------------------|
e-----------------------------------------------------|


8. Circle Of Fear (chords)

Am           C               Em
Heartache's knocking on her door
Am       C                 G
Shadows dance outside her window
Am          C               Em
Tears keep falling on the floor
Am      C                 G
As the world around her crambles

F                 G
If you wanna save her
Am
Then first you'll have to save yourself
F              G                 Am
If you wanna free her from the hurt
Am
Don't do it with your pain
F               G               Am
If you wanna see her smile again
Am
Don't show her you're afraid
F             G                   Am
'Cause your circle of fear is the same

Am        C               Em
Love can be as cold as grave
Am           C                 G
A one way ticket to endless sorrow
Am    C               Em
An empire of gentle hate
Am     C            G
Today without tomorrow

F                 G
If you wanna save her
Am
Then first you'll have to save yourself
F              G                 Am
If you wanna free her from the hurt
Am
Don't do it with your pain
F               G               Am
If you wanna see her smile again
Am
Don't show her you're afraid
F             G                   Am
'Cause your circle of fear is the same

It's the circle of regret
The circle of hate
The circle of death
Your circle of fear is the same
Your circle of fear is the same

F                 G
If you wanna save her
Am
Then first you'll have to save yourself
(if you wanna save her)
F              G                 Am
If you wanna free her from the hurt
Am
Don't do it with your pain
(if you wanna free her)
F               G               Am
If you wanna see her smile again
Am
Don't show her you're afraid
(if you wanna see her)
F             G                   Am
'Cause your circle of fear is the same

Your circle of fear is the same (Repeat till end)


9. Endless Dark (chords)

Em		C

Em	   D		   Em
Softly the light shines in through
	 D               G
Gates of grace on me and you
  C	      D	       Em	       C
Deceiving our restless hearts
Em	     D	       Em
A flickering flame so serene
	    D		      G
Devours the night so we could see
    C            D         Em
The fear we hold on to so strong


G     D            Em
And I know where I belong
G    D    Em
Away from your gods
     D
That heal all wounds and light this endless dark


Em	   D		   Em
Lonely the light shines on you
	    D               G
Through the gates of fire entombed
C       D       Em	       C
Feeding on your love
Em	    D		       Em
Weak is the blaze that kept me away
	         D             G
From cruelty and tenderness embraced
C         D       Em        C
Saving my soul no more


G     D            Em
And I know where I belong
G    D    Em
Away from your gods
     D
That heal all wounds and light this endless dark


     C		      Dsus2     Am	Em     C    Dsus2
That shine on you and tame your burning heart
     C 		   Dsus2   Am      Em    C    Dsus2
That bury my truth right into your arms
     C 		         Dsus2  Am   Em    C    Dsus2
That worship the tomb of our forlorn love
     Am		         C          D       Em
That heal all wounds and light this endless dark

10. Path

Intro: F C G
You can play this part picking every note at a time, for example:
  F           F         C        G              Dm                      G
e-----------------------------------------¦-----------------------------3-3-|
B-----------------------------------------¦-----------6-----------6-----3-3-|
G-------2-----------2---------------------¦---------7---7-------7---7---4-4-|
D-----3---3-------3---3-------------------¦-x3----7-------7---7-------7-5-5-|
A---3-------3---3-------3-3-3-2-0---------¦-----5-----------5-----------5-5-|
E-1-----------1-------------------3-3-2-0-¦-----------------------------3-3-|

(You can also just play a chord before picking each note, like play the F(133211) and
with each note, then play a C(032010) and so on)

VERSE 1
Am                                    Dm               Am
  There is no turning back, from this unending path of mine
                           Dm               Am
  Serpentine and black, it stands before my eyes
                            Dm           Am
  To hell and back, it will lead me once more
                        Dm                    F
  It's all i have, as i stumble in and out of grace


CHORUS - continue F
                   C           G     F
I walk through the gardens, of dying light,
                  C       G                    F
And cross all the rivers, deep and dark as the night
                C           G                       Dm
Searching for a reason, why time would've passed us by


vERSE 2: Am Dm

With every step i take, the less i know myself
Every vow i break, on my way towards your heart
Countless times i've prayed, for forgiveness But gods just laugh at my face,
And this path remains Leading me into solitude's arms.


CHORUS 2: continue F
                  C            G        F
I see through the darkness, my way back home
                  C            G          F
The journey seems endless, but i'll carry on
                 C         G         Dm    G
The shadows will rise and, they will fall
                        Dm      G
And our night drowns in dawn


Am Dm:
Ohhhhh,,  woooaaa
Ohhhhh,,, woooaaaa
(something like that, listen to the song, you'll get it)

VERSE 3:
Am                                           Dm
   Amidst all tears there's a smile,That all angels greet with an envious
 Am
 song
                                        Dm             F
   One look into stranger's eyes, and i know where i belong


CHORUS 3: continue F

F C G, F C G, F C G Dm G Dm

I walk through the gardens, of dying light,
And cross all the rivers, deep and dark as the night
Searching for a reason, why time would've passed us by

I see through the darkness, my way back home
The journey seems endless, but i'll carry on
The shadows will rise and, they will fall
And our night drowns in dawn
the shadows they rise and they, fallllll, yeah
and our night drowns in dawn... ohhh
comments
print report bad tab
2 comments total.
0 reply
nofx_2525 wrote on August 15 2005, 12:00 am

dude ur like the best tabber ***ing hell man u listen to metal too?? great music;)

0 reply
guitar_doom wrote on July 1 2006, 01:51 pm

dude you gotta be like really hardcore to sit down and
tab a whole damn cd, but I think a few of the the songs were wrong in places, I know for sure that the intro to fortress of tears was wrong, but still your damn good for tabbing the whole damn cd

I want to post or [tab]
guest
You may want to rate the tab now too:
select rating
Please do not post tabs as comments. Select "correction" instead!