Oops, an error
Loading. Please wait.

Ode To Solitude Bass Tab

by Him
ver1
ver1

Whole song

Interactive

More versions @911Tabs.com
392 views 1 this week
no commentswrite comment
1 2 3 4 5
please rate
Autoscroll
+/-
esc
set tempo
stop
Contributor
Difficulty
intermediate
WARNING: You are trying to view
                                    content from Ultimate-Guitar.com
                                    in an unauthorized application,
                                    which is prohibited.

                                    Please use an official Ultimate
                                    Guitar Tabs application for iPhone,
                                    iPad or Android to access legitimate
                                    chords, guitar, bass, and drum tabs
                                    from Ultimate-Guitar.com database.

                                    Type "ultimate guitar tabs" in Apple
                                    App Store's or Android Market's
                                    search to find the application.
Tuning:
F# C# G# D#

Intro:
Bass comes in at :16
-------------------|-----------------------|------------------|
-------------------|-----------------------|------------------|
-------------------|-------------7-9-9-9-9-|------------------|
--2----------------|-----------------------|--------0-2-2-2-2-|

----------------------------------|----------------------------------|
--------------------------9---7---|----------------------------------|
--------4------5--------7---7-----|--------4------5--------7-9-9-9-9-|x2
--2-2-2-----2-2-----2-2-----------|--2-2-2-----2-2-----2-2-----------|

                    Verse:
-------------------|----------------------------------|
-------------------|----------------------------------|
-------------------|--9-9-9-9-9-9-9-9-9-9-9-9-9-9-9-9-|
--2----------------|----------------------------------|
 
----------------------------------|----------------------------------|
----------------------------------|----------------------------------|
--9-9-9-9-9-9-9-9-9-9-9-9-9-9-9-9-|--5-5-5-5-5-5-5-5-----------------|
----------------------------------|------------------5-5-5-5-5-5-5-5-|
 
------------------|----------------------------------|
------------------|---------------------------9---7--|
--7-7-7-7-7-7-7-7-|--------4-------5-------7---7-----|
------------------|--2-2-2-----2-2-----2-2-----------|
  
----------------------------------|----------------------------------|
----------------------------------|--7-7-7-7-7-7-7-7-----------------|
--------4-------5-------7-9-9-9-9-|------------------7-7-7-7-7-7-7-7-|
--2-2-2-----2-2-----2-2-----------|----------------------------------|
 
------------------------------|----------------------------------|
------------------------------|--7-7-7-7-7-7-7-7-----------------|
--9-9-9-9-9-9-9-9-9--------7--|------------------7-7-7-7-7-7-7-7-|
------------------------------|----------------------------------|
 
----------------------------|----------------|
--7----7----7----7----------|----------------|
-----------------------7-7--|--------7-7-----|
----------------------------|----------------|
 
---------------------------|-------------------------|
---------------------------|-------------------------|
--5--5-----------5-5-2-4---|--5--5-------------------|
-----------5---------------|---------5---3-5-7-5-3-2-|
 
----------------------------------|----------------------------------|
----------------------------------|----------------------------------|
--5-5---------------------5-7-----|--7-7-7-7-7-7-7-7-5-5-5-5-4-4-4---|
--------------5-5-----------------|----------------------------------|
 
----------------------------------|----------------------------------|
----------------------------------|----------------------------------|
--5-5-5-5-5-5-5-5-----------------|--2-2-2-2-2-2-2-2-4-4-4-5-7-5-4-2-|
------------------5-5-5-5-5-5-5-5-|----------------------------------|
 
----------------------------------|---------------------|
----------------------------------|---------------------|
--5-5---------------------5-7-----|--5------------7-9---|
--------------5-5-----------------|---------------------|
 
---------------------------------|----------------------------------|
--------------------------9---7--|----------------------------------|
--------4-------5-------7---7----|--------4------5--------7-9-9-9-9-|
--2-2-2-----2-2-----2-2----------|--2-2-2-----2-2-----2-2-----------|
 

-------------------|-------------------|----------------------------------|
-------------------|-------------------|--7-7-7-7-7-7-7-7-----------------|
-------------------|-------------------|------------------7-7-7-7-7-7-7-7-|
--2----------------|-------------------|----------------------------------|
 
------------------------------|----------------------------------|
------------------------------|--7-7-7-7-7-7-7-7-----------------|
--9-9-9-9-9-9-9-9-9--------7--|------------------7-7-7-7-7-7-7-7-|
------------------------------|----------------------------------|
 
----------------------------------|-----------------------------|
--7----7----7----7----------------|-----------------------------|
--------------------------7-7-----|--5--5-------------5-5-2-4---|
----------------------------------|-----------5-----------------|
 
-----------------------------|----------------------------------|
-----------------------------|----------------------------------|
--5--5-----------------------|--5-5---------------------5-7-----|
-----------5----3-5-7-5-3-2--|--------------5-5-----------------|
 
----------------------------------|----------------------------------|
----------------------------------|----------------------------------|
--7-7-7-7-7-7-7-7-5-5-5-5-4-4-4---|--5-5-5-5-5-5-5-5-----------------|
----------------------------------|------------------5-5-5-5-5-5-5-5-|
 
----------------------------------|----------------------------------|
----------------------------------|----------------------------------|
--2-2-2-2-2-2-2-2-4-4-4-5-7-5-4-2-|--5-5---------------------5-7-----|
----------------------------------|--------------5-5-----------------|
 
---------------------------------|-------------------|-------------------|
---------------------------------|-------------------|-------------------|
--7-------7-9-----5--------------|-------------------|-------------------|
---------------------------------|-------------------|-------------------|
 
-------------------|-----------|--------------------------------|
-------------------|-----------|--------------------------------|
-------------------|-----------|--------------------------------|
-------------------|-----------|--2-2-2-2-2-2-2-2-2-2-2-2-5--7--|
 

----------------------------------|--------6------7------4-7-4-6---|
----------------------------------|--------------------------------|
----------------------------------|--2-2-2----2-2----2-2-----------|
--2-2-2-2-2-2-2-2-2-2-2-2-5--7----|--------------------------------|


--------6------7----------------|--------------------------------|
--------------------------------|--------------------------------|
----------------------7-9-9-9-9-|--------------------------------|
--0-0-0----0-0----0-0-----------|--2-2-2-2-2-2-2-2-2-2-2-2-5--7--|
 
 
----------------------------------|--------6------7------4-7-4-6---|
----------------------------------|--------------------------------|
----------------------------------|--2-2-2----2-2----2-2-----------|
--2-2-2-2-2-2-2-2-2-2-2-2-5---7---|--------------------------------|
 

--------6------7----------------|------------------------------|----|
--------------------------------|------------------------------|----|
----------------------7-9-9-9-9-|--4----4----4----4----4-4-----|----|
--0-0-0----0-0----0-0-----------|------------------------------|----|
 
 
-----------------------------|-----------------------------|
-----------------------------|-----------------------------|
--5--5-----------5-5-2-4-----|--5--5-----------------------|
-----------5-----------------|-----------5-----3-5-7-5-3-0-|
 
 
----------------------------------|----------------------------------|
----------------------------------|----------------------------------|
--5-5---------------------5-7-----|--7-7-7-7-7-7-7-7-5-5-5-5-4-4-4---|
--------------5-5-----------------|----------------------------------|
 
 
----------------------------------|----------------------------------|
----------------------------------|----------------------------------|
--5-5-5-5-5-5-5-5-----------------|--2-2-2-2-2-2-2-2-4-4-4-5-7-5-4-2-|
------------------5-5-5-5-5-5-5-5-|----------------------------------|
 
 
----------------------------------|-------------------|-------------------|
----------------------------------|-------------------|-------------------|
--5-5---------------------5-7-----|--5----------------|-------------------|
--------------5-5-----------------|-------------------|-------------------|


-------------------|-------------------|----------------------------------|
-------------------|-------------------|----------------------------------|
-------------------|-------------------|--5-5-5-5-5-5-5-5-5-5-5-5-7-9-----|
-------------------|-------------------|----------------------------------|
 

----------------------------------|----------------------------------|
----------------------------------|----------------------------------|
--5-5-5-5-5-5-5-5-----------------|--2-2-2-2-2-2-2-2-4-4-4-5-7-5-4-2-|
------------------5-5-5-5-5-5-5-5-|----------------------------------|
 
 
----------------------------------|--------------|
----------------------------------|--------------|
--5-5-5-5-5-5-5-5-----------------|--2-2-2-2-2-2-|
------------------5-5-5-5-5-5-5-5-|--------------|
 
 
----------------------------------|----------------------------------|
--------------------------9---7---|----------------------------------|
--------4-------5-------7---7-----|--------4-------5-------7-9-9-9-9-|
--2-2-2-----2-2-----2-2-----------|--2-2-2-----2-2-----2-2-----------|
 
 
----------------------------------|----------------------------------|
--------------------------9---7---|----------------------------------|
--------4-------5-------7---7-----|--------4-------5-------7-9-9-9-9-|
--2-2-2-----2-2-----2-2-----------|--2-2-2-----2-2-----2-2-----------|
 
 
----------------------------------|----------------------------------|
----------------------------------|----------------------------------|
----------------------------------|------------------------7-9-9-9-9-|
--2-2-2-----2-2-2-----------------|--2-2-2-----2-2-2-----------------|
 
 
----------------------------------|----------------------------------|
----------------------------------|----------------------------------|
----------------------------------|------------------------7-9-9-9-9-|
--2-2-2-----2-2-2-----------------|--2-2-2-----2-2-2-----------------|
 
 
----------------------------------||
----------------------------------||
----------------------------------||
------0-2-2-2-2-2-----------------||

comments
We did not receive enough feedback on this tab! Please rate:
print report bad tab
1 2 3 4 5
I want to post or [tab]
guest
You may want to rate the tab now too:
select rating
Please do not post tabs as comments. Select "correction" instead!