Oops, an error
Loading. Please wait.

Razorblade Kiss Bass Tab

by Him
ver2
ver2

Whole song

More versions @911Tabs.com
1,144 views 1 this week
no commentswrite comment
1 2 3 4 5
excellent!
x 1
Autoscroll
+/-
esc
set tempo
stop
Contributor
WARNING: You are trying to view
                                    content from Ultimate-Guitar.com
                                    in an unauthorized application,
                                    which is prohibited.

                                    Please use an official Ultimate
                                    Guitar Tabs application for iPhone,
                                    iPad or Android to access legitimate
                                    chords, guitar, bass, and drum tabs
                                    from Ultimate-Guitar.com database.

                                    Type "ultimate guitar tabs" in Apple
                                    App Store's or Android Market's
                                    search to find the application.
#----------------------------------PLEASE NOTE---------------------------------#
#This file is the author's own work and represents their interpretation of the #
#song. You may only use this file for private study, scholarship, or research. #
#------------------------------------------------------------------------------##

                           RAZORBLADE KISS (Bassline)
                              As recorded by H.I.M.
                    (From the 2000 Album RAZORBLADE ROMANCE)

Words by Ville Valo 

Music by H.I.M.
Arranged by H.I.M.
Transcribed by vitaha_z

Gtr I (B E A D) - 'Mige'
Gtr II (B E A D F# B) - 'Gas'
Gtr III (B E A D F# B) - 'back vocal'

 Intro
  Q=126
 4/4
  Gtr I
  Wx4
|--------||
|--------||
|--------||
|--------||


 Chorus
   Q  E E   E   E  E E     Q    E E E E  E E
|----------------------|---------------------|
|----------------------|---------------------|
|----------------------|---------------------|
|--0--2-2---2---0--2-2-|---0----2-2-2-0--2-2-|
|
| Gtr II
|  Q  E Q       E  E E     Q    E Q   E  E E
|----------------------|---------------------|
|----------------------|---------------------|
|-----x--------------x-|--------x----------x-|
|--x--x-x-------x--x-x-|---x----x-x---x--x-x-|
|--x----x-------x--x---|---x------x---x--x---|
|----------------------|---------------------|
|
| Gtr III
|  H       +E   Q.        +E  H       Q.
|----------------------|---------------------|
|----------------------|---------------------|
|----------------------|---------------------|
|----------------------|---------------------|
|-12------(12)-11------|-(11)-9-------7------|
|----------------------|---------------------|


  Q  E E E E E E    Q   E E E E E E
|----------------|-------------------|
|----------------|-------------------|
|-2--4-4-2-4-4-4-|--2---4-4-2-4-4-4--|
|----------------|-------------------|
|
| Q  E Q   E E E    Q   E Q   E E E
|----------------|-------------------|
|----------------|-------------------|
|----x---------x-|------x---------x--|
|-x--x-x---x-x-x-|--x---x-x---x-x-x--|
|-x----x---x-x---|--x-----x---x-x----|
|----------------|-------------------|
|
| W                +W
|----------------|-------------------|
|----------------|-------------------|
|----------------|-------------------|
|----------------|-------------------|
|----------------|-------------------|
|-9--------------|-(9)---------------|


   Q  E E   E   E  E E     Q    E E E E  E E
|----------------------|---------------------|
|----------------------|---------------------|
|----------------------|---------------------|
|--0--2-2---2---0--2-2-|---0----2-2-2-0--2-2-|
|
|  Q  E Q       E  E E     Q    E Q   E  E E
|----------------------|---------------------|
|----------------------|---------------------|
|-----x--------------x-|--------x----------x-|
|--x--x-x-------x--x-x-|---x----x-x---x--x-x-|
|--x----x-------x--x---|---x------x---x--x---|
|----------------------|---------------------|
|
|  H       +E   Q.        +E  H       Q.
|----------------------|---------------------|
|----------------------|---------------------|
|----------------------|---------------------|
|----------------------|---------------------|
|-12------(12)-11------|-(11)-9-------7------|
|----------------------|---------------------|


                  9/8
  Q  E E E E E E    Q    E E E E E Q
|----------------|---------------------||
|----------------|---------------------||
|-2--4-4-4-2-4-4-|--2----4-4-2-4-4-----||
|----------------|---------------------||
|
| Q  E Q   E E E    Q    E Q   E E Q
|----------------|---------------------||
|----------------|---------------------||
|----x---------x-|-------x-------------||
|-x--x-x---x-x-x-|--x----x-x---x-x-----||
|-x----x---x-x---|--x------x---x-x-----||
|----------------|-------------x-x-----||
|
| W                +H..            Q
|----------------|---------------------||
|----------------|---------------------||
|----------------|---------------------||
|----------------|---------------------||
|----------------|---------------------||
|-9--------------|-(9)-----------------||


 Verse
 4/4
   E  E  E  E  E  E  E  E    E  E  E  E  E  E  E  E
|-------------------------|-------------------------|
|-------------------------|-------------------------|
|-------------------------|-------------------------|
|--2--2--2--2--2--2--2--2-|--2--2--2--2--2--2--2--2-|
|
|  Q     Q     Q     Q       Q     Q     Q     Q
|-------------------------|-------------------------|
|-------------------------|-------------------------|
|-------(x)---------(x)---|-------(x)---------(x)---|
|--------x-----------x----|--------x-----------x----|
|-(x)---------(x)---------|-(x)---------(x)---------|
|-------------------------|-------------------------|


   E  E  E  E  E  E  E  E    E  E  E  E  E  E  E  E
|-------------------------|-------------------------|
|-------------------------|-------------------------|
|-------------------------|-------------------------|
|--5--5--5--5--5--5--5--5-|--0--0--0--0--0--0--0--0-|
|
|  Q     Q     Q     Q       Q     Q     Q     Q
|-------------------------|-------------------------|
|-------------------------|-------------------------|
|-------(x)---------(x)---|-------(x)---------(x)---|
|--------x-----------x----|--------x-----------x----|
|-(x)---------(x)---------|-(x)---------(x)---------|
|-------------------------|-------------------------|


   E  E  E  E  E  E  E  E    E  E  E  E  E  E  E  E
|-------------------------|-------------------------|
|-------------------------|-------------------------|
|-------------------------|-------------------------|
|--2--2--2--2--2--2--2--2-|--2--2--2--2--2--2--2--2-|
|
|  Q     Q     Q     Q       Q     Q     Q     Q
|-------------------------|-------------------------|
|-------------------------|-------------------------|
|-------(x)---------(x)---|-------(x)---------(x)---|
|--------x-----------x----|--------x-----------x----|
|-(x)---------(x)---------|-(x)---------(x)---------|
|-------------------------|-------------------------|


                           7/8
   E  E  E  E  E  E  E  E    E  E  E  E  E  E  E
|-------------------------|------------------------||
|-------------------------|------------------------||
|-------------------------|------------------------||
|--5--5--5--5--5--5--5--5-|--0--0--0--0--0--0--0---||
|
|  Q     Q     Q     Q       Q     Q     Q     E
|-------------------------|------------------------||
|-------------------------|------------------------||
|-------(x)---------(x)---|-------(x)---------(x)--||
|--------x-----------x----|--------x-----------x---||
|-(x)---------(x)---------|-(x)---------(x)--------||
|-------------------------|------------------------||


 Pre-Chorus
 4/4
  Q  E E E E E E   Q  E E E E E E   Q  E E E E E E   Q  E E E E E E
|----------------|----------------|----------------|----------------|
|----------------|----------------|----------------|----------------|
|----------------|----------------|----------------|----------------|
|-0--2-2-2-2-2-2-|-0--2-2-2-2-2-2-|-5--5-5-5-5-5-5-|-0--0-0-0-0-0-0-|
|
| Q  E Q   E E E   Q  E Q   E E E   Q  E Q   E E E   Q  E Q   E E E
|----------------|----------------|----------------|----------------|
|----------------|----------------|----------------|----------------|
|-x----x-----x---|-x----x-----x---|-x----x-----x---|-x----x-----x---|
|-x--x-x---x-x-x-|-x--x-x---x-x-x-|-x--x-x---x-x-x-|-x--x-x---x-x-x-|
|----x-----x---x-|----x-----x---x-|----x-----x---x-|----x-----x---x-|
|----------------|----------------|----------------|----------------|


  Q  E E E E E E   Q  E E E E E E    W                 H        H
|----------------|----------------|-----------------|---------------------||
|----------------|----------------|-----------------|---------------------||
|----------------|----------------|-----------------|---------------------||
|-0--2-2-2-2-2-2-|-0--2-2-2-2-2-2-|-10--------------|-12------\12\--------||
|
| Q  E Q   E E E   Q  E Q   E E E    Q  E E E E E E    Q  E E   E  E E E
|----------------|----------------|-----------------|---------------------||
|----------------|----------------|-----------------|---------------------||
|-x----x-----x---|-x----x-----x---|--x--------------|--x------------------||
|-x--x-x---x-x-x-|-x--x-x---x-x-x-|--x--x-x-x-x-x-x-|--x--x-x---x--x-x-x--||
|----x-----x---x-|----x-----x---x-|-----x-x-x-x-x-x-|-----x-x---x--x-x-x--||
|----------------|----------------|-----x-x-x-x-x-x-|-----x-x---x--x-x-x--||


 Chorus
   Q  E E   E   E  E E     Q    E E E E  E E
|----------------------|---------------------|
|----------------------|---------------------|
|----------------------|---------------------|
|--0--2-2---2---0--2-2-|---0----2-2-2-0--2-2-|
|
|  Q  E Q       E  E E     Q    E Q   E  E E
|----------------------|---------------------|
|----------------------|---------------------|
|-----x--------------x-|--------x----------x-|
|--x--x-x-------x--x-x-|---x----x-x---x--x-x-|
|--x----x-------x--x---|---x------x---x--x---|
|----------------------|---------------------|
|
| Gtr III
|  H       +E   Q.        +E  H       Q.
|----------------------|---------------------|
|----------------------|---------------------|
|----------------------|---------------------|
|----------------------|---------------------|
|-12------(12)-11------|-(11)-9-------7------|
|----------------------|---------------------|


  Q  E E E E E E    Q   E E E E E E
|----------------|-------------------|
|----------------|-------------------|
|-2--4-4-2-4-4-4-|--2---4-4-2-4-4-4--|
|----------------|-------------------|
|
| Q  E Q   E E E    Q   E Q   E E E
|----------------|-------------------|
|----------------|-------------------|
|----x---------x-|------x---------x--|
|-x--x-x---x-x-x-|--x---x-x---x-x-x--|
|-x----x---x-x---|--x-----x---x-x----|
|----------------|-------------------|
|
| W                +W
|----------------|-------------------|
|----------------|-------------------|
|----------------|-------------------|
|----------------|-------------------|
|----------------|-------------------|
|-9--------------|-(9)---------------|


   Q  E E   E   E  E E     Q    E E E E  E E
|----------------------|---------------------|
|----------------------|---------------------|
|----------------------|---------------------|
|--0--2-2---2---0--2-2-|---0----2-2-2-0--2-2-|
|
|  Q  E Q       E  E E     Q    E Q   E  E E
|----------------------|---------------------|
|----------------------|---------------------|
|-----x--------------x-|--------x----------x-|
|--x--x-x-------x--x-x-|---x----x-x---x--x-x-|
|--x----x-------x--x---|---x------x---x--x---|
|----------------------|---------------------|
|
|  H       +E   Q.        +E  H       Q.
|----------------------|---------------------|
|----------------------|---------------------|
|----------------------|---------------------|
|----------------------|---------------------|
|-12------(12)-11------|-(11)-9-------7------|
|----------------------|---------------------|


                  9/8
  Q  E E E E E E    Q    E E E E E Q
|----------------|---------------------||
|----------------|---------------------||
|-2--4-4-2-4-4-4-|--2----4-4-2-4-4-----||
|----------------|---------------------||
|
| Q  E Q   E E E    Q    E Q   E E Q
|----------------|---------------------||
|----------------|---------------------||
|----x---------x-|-------x-------------||
|-x--x-x---x-x-x-|--x----x-x---x-x-----||
|-x----x---x-x---|--x------x---x-x-----||
|----------------|-------------x-x-----||
|
| W                +H..            Q
|----------------|---------------------||
|----------------|---------------------||
|----------------|---------------------||
|----------------|---------------------||
|----------------|---------------------||
|-9--------------|-(9)-----------------||


 Verse
 4/4
   E  E  E  E  E  E  E  E    E  E  E  E  E  E  E  E
|-------------------------|-------------------------|
|-------------------------|-------------------------|
|-------------------------|-------------------------|
|--2--2--2--2--2--2--2--2-|--2--2--2--2--2--2--2--2-|
|
|  Q     Q     Q     Q       Q     Q     Q     Q
|-------------------------|-------------------------|
|-------------------------|-------------------------|
|-------(x)---------(x)---|-------(x)---------(x)---|
|--------x-----------x----|--------x-----------x----|
|-(x)---------(x)---------|-(x)---------(x)---------|
|-------------------------|-------------------------|


   E  E  E  E  E  E  E  E    E  E  E  E  E  E  E  E
|-------------------------|-------------------------|
|-------------------------|-------------------------|
|-------------------------|-------------------------|
|--5--5--5--5--5--5--5--5-|--0--0--0--0--0--0--0--0-|
|
|  Q     Q     Q     Q       Q     Q     Q     Q
|-------------------------|-------------------------|
|-------------------------|-------------------------|
|-------(x)---------(x)---|-------(x)---------(x)---|
|--------x-----------x----|--------x-----------x----|
|-(x)---------(x)---------|-(x)---------(x)---------|
|-------------------------|-------------------------|


   E  E  E  E  E  E  E  E    E  E  E  E  E  E  E  E
|-------------------------|-------------------------|
|-------------------------|-------------------------|
|-------------------------|-------------------------|
|--2--2--2--2--2--2--2--2-|--2--2--2--2--2--2--2--2-|
|
|  Q     Q     Q     Q       Q     Q     Q     Q
|-------------------------|-------------------------|
|-------------------------|-------------------------|
|-------(x)---------(x)---|-------(x)---------(x)---|
|--------x-----------x----|--------x-----------x----|
|-(x)---------(x)---------|-(x)---------(x)---------|
|-------------------------|-------------------------|


                           7/8
   E  E  E  E  E  E  E  E    E  E  E  E  E  E  E
|-------------------------|------------------------||
|-------------------------|------------------------||
|-------------------------|------------------------||
|--5--5--5--5--5--5--5--5-|--0--0--0--0--0--0--0---||
|
|  Q     Q     Q     Q       Q     Q     Q     E
|-------------------------|------------------------||
|-------------------------|------------------------||
|-------(x)---------(x)---|-------(x)---------(x)--||
|--------x-----------x----|--------x-----------x---||
|-(x)---------(x)---------|-(x)---------(x)--------||
|-------------------------|------------------------||


 Pre-Chorus
 4/4
  Q  E E E E E E   Q  E E E E E E   Q  E E E E E E   Q  E E E E E E
|----------------|----------------|----------------|----------------|
|----------------|----------------|----------------|----------------|
|----------------|----------------|----------------|----------------|
|-0--2-2-2-2-2-2-|-0--2-2-2-2-2-2-|-5--5-5-5-5-5-5-|-0--0-0-0-0-0-0-|
|
| Q  E Q   E E E   Q  E Q   E E E   Q  E Q   E E E   Q  E Q   E E E
|----------------|----------------|----------------|----------------|
|----------------|----------------|----------------|----------------|
|-x----x-----x---|-x----x-----x---|-x----x-----x---|-x----x-----x---|
|-x--x-x---x-x-x-|-x--x-x---x-x-x-|-x--x-x---x-x-x-|-x--x-x---x-x-x-|
|----x-----x---x-|----x-----x---x-|----x-----x---x-|----x-----x---x-|
|----------------|----------------|----------------|----------------|


  Q  E E E E E E   Q  E E E E E E    Q   H.              Q   H.
|----------------|----------------|-------------------|--------------------|
|----------------|----------------|-------------------|--------------------|
|----------------|----------------|-------------------|--------------------|
|-0--2-2-2-2-2-2-|-0--2-2-2-2-2-2-|-10\---------------|-12\----------------|
|
| Q  E Q   E E E   Q  E Q   E E E    Q   E  E E E E E    Q   E  E E E E E
|----------------|----------------|-------------------|--------------------|
|----------------|----------------|-------------------|--------------------|
|-x----x-----x---|-x----x-----x---|--x----------------|--x-----------------|
|-x--x-x---x-x-x-|-x--x-x---x-x-x-|--x---x--x-x-x-x-x-|--x---x--x-x-x-x-x--|
|----x-----x---x-|----x-----x---x-|------x--x-x-x-x-x-|------x--x-x-x-x-x--|
|----------------|----------------|-------------------|--------------------|


   W                 H       +E   E    E    +E
|-----------------|--------------------------------||
|-----------------|--------------------------------||
|-----------------|--------------------------------||
|-10--------------|-12------(12)-h7S==12---(12)\---||
|
|  Q  e e E e E E    Q  e e   E   s s  s s   s   s
|-----------------|--------------------------------||
|-----------------|--------------------------------||
|-----x-x---x---x-|-----x-x-------x-x--x-----------||
|-----x-x-x-x-x-x-|--x--x-x---------x--x-x---x---x-||
|---------x---x---|--x-----------------------x---x-||
|-----------------|--------------------------------||


   Chorus
     Q  E E   E   E  E E     Q    E E E E  E E
||-----------------------|---------------------|
||o----------------------|---------------------|
||o----------------------|---------------------|
||---0--2-2---2---0--2-2-|---0----2-2-2-0--2-2-|
|
|    Q  E Q       E  E E     Q    E Q   E  E E
||-----------------------|---------------------|
||o----------------------|---------------------|
||------x--------------x-|--------x----------x-|
||---x--x-x-------x--x-x-|---x----x-x---x--x-x-|
||o--x----x-------x--x---|---x------x---x--x---|
||-----------------------|---------------------|
|
|   Gtr III
|    H       +E   Q.        +E  H       Q.
||-----------------------|---------------------|
||o----------------------|---------------------|
||-----------------------|---------------------|
||-----------------------|---------------------|
||o-12------(12)-11------|-(11)-9-------7------|
||-----------------------|---------------------|


  Q  E E E E E E    Q   E E E E E E  3x
|----------------|-------------------||
|----------------|------------------o||
|-2--4-4-2-4-4-4-|--2---4-4-2-4-4-4-o||
|----------------|-------------------||
|
| Q  E Q   E E E    Q   E Q   E E E  3x
|----------------|-------------------||
|----------------|------------------o||
|----x---------x-|------x---------x--||
|-x--x-x---x-x-x-|--x---x-x---x-x-x--||
|-x----x---x-x---|--x-----x---x-x---o||
|----------------|-------------------||
|
| W                +W                3x
|----------------|-------------------||
|----------------|------------------o||
|----------------|-------------------||
|----------------|-------------------||
|----------------|------------------o||
|-9--------------|-(9)---------------||


   Q  E E   E   E  E E     Q    E E E E  E E
|----------------------|---------------------|
|----------------------|---------------------|
|----------------------|---------------------|
|--0--2-2---2---0--2-2-|---0----2-2-2-0--2-2-|
|
|  Q  E Q       E  E E     Q    E Q   E  E E
|----------------------|---------------------|
|----------------------|---------------------|
|-----x--------------x-|--------x----------x-|
|--x--x-x-------x--x-x-|---x----x-x---x--x-x-|
|--x----x-------x--x---|---x------x---x--x---|
|----------------------|---------------------|
|
|  H       +E   Q.        +E  H       Q.
|----------------------|---------------------|
|----------------------|---------------------|
|----------------------|---------------------|
|----------------------|---------------------|
|-12------(12)-11------|-(11)-9-------7------|
|----------------------|---------------------|


  Q  E E E E E E    Q   E E E E E E
|----------------|-------------------||
|----------------|------------2------||
|-2--4-4-2-4-4-4-|--2---4-4-2---4-2--||
|----------------|-------------------||
|
| Q  E Q   E E E    Q   E Q   E E E
|----------------|-------------------||
|----------------|-------------------||
|----x---------x-|------x------------||
|-x--x-x---x-x-x-|--x---x-x---x-x-x--||
|-x----x---x-x---|--x-----x---x-x-x--||
|----------------|------------x-x-x--||
|
| W                +W
|----------------|-------------------||
|----------------|-------------------||
|----------------|-------------------||
|----------------|-------------------||
|----------------|-------------------||
|-9--------------|-(9)---------------||


 Bridge
 4/4
  Q  E E E E E E   Q   E E E E E E   Q   E E E E E E   Q   E E E E E E
|----------------|-----------------|-----------------|-----------------|
|----------------|-----------------|-----------------|-----------------|
|----------------|-----------------|-----------------|-----------4-----|
|-5--5-5-5-5-5-5-|-5---5-5-5-5-5-5-|-5---5-5-5-5-5-5-|-5---5-5-5---5-4-|
|
| Q  E E E E E E   E E E E E E E E   E E E E E E E E   E E E E E E E E
|----------------|-----------------|-----------------|-----------------|
|----------------|-----------------|-----------------|-----------------|
|----x-----x-x---|-----x-----x-x---|-----x-----x-x---|-----x-----x-x---|
|----x-x-x-x-x-x-|-x---x-x-x-x-x-x-|-x---x-x-x-x-x-x-|-x---x-x-x-x-x-x-|
|------x-x-----x-|-x-----x-x-----x-|-x-----x-x-----x-|-x-----x-x-----x-|
|----------------|-----------------|-----------------|-----------------|


  Q   E E E E E E   Q   E E E E E E   Q   E E E E E E   Q   E E E E E E
|-----------------|-----------------|-----------------|------------------||
|-----------------|-----------------|-----------------|------------------||
|-2---2-2-2-2-2-2-|-2---2-2-2-2-2-2-|-2---2-2-2-2-2-2-|-2---2-2-2-2-2-2--||
|-----------------|-----------------|-----------------|------------------||
|
| E E E E E E E E   E E E E E E E E   E E E E E E E E   E E E E E E E E
|-----------------|-----------------|-----------------|------------------||
|-----------------|-----------------|-----------------|------------------||
|-----x-----x-x---|-----x-----x-x---|-----x-----x-x---|-----x-----x-x-x--||
|-x---x-x-x-x-x-x-|-x---x-x-x-x-x-x-|-x---x-x-x-x-x-x-|-x---x-x-x-x-x-x--||
|-x-----x-x-----x-|-x-----x-x-----x-|-x-----x-x-----x-|-x-----x-x--------||
|-----------------|-----------------|-----------------|------------------||


   Guitar Solo
    Q  E E E E E E   Q  E E E E E E
||-----------------|----------------|
||o----------------|----------------|
||o----------------|----------------|
||--0--2-2-2-0-2-2-|-0--2-2-2-0-2-2-|
|
|   Q  E Q   E E E   Q  E Q   E E E
||-----------------|----------------|
||o----------------|----------------|
||-------x-------x-|------x-------x-|
||--x--x-x---x-x-x-|-x--x-x---x-x-x-|
||o-x--x-----x-x---|-x--x-----x-x---|
||-----------------|----------------|


                  1.                 2.
  Q  E E E E E E   Q  E E E E E E     Q  E E E E E E
|----------------|-----------------||-----------------|
|----------------|----------------o||-----------------|
|----------------|----------------o||-----------------|
|-5--5-5-5-5-5-5-|-0--0-0-0-0-0-0--||-0--0-0-0-0-0-0--|
|
| Q  E Q   E E E   Q  E Q   E E E     Q  E Q   E E E
|----------------|-----------------||-----------------|
|----------------|----------------o||-----------------|
|------x-------x-|------x-------x--||------x----------|
|-x--x-x---x-x-x-|-x--x-x---x-x-x--||-x--x-x---x-x-x--|
|-x--x-----x-x---|-x--x-----x-x---o||-x--x-----x-x-x--|
|----------------|-----------------||----------x-x-x--|


  Q  E E E E E E   Q  E E E E E E   Q  E E E E E E   Q  E E E E E E
|----------------|----------------|----------------|-----------------|
|----------------|----------------|----------------|-----------------|
|----------------|----------------|----------------|-----------------|
|-0--2-2-2-0-2-2-|-0--2-2-2-0-2-2-|-5--5-5-5-5-5-5-|-0--0-0-0-0-0-0--|
|
| Q  E Q   E E E   Q  E Q   E E E   Q  E Q   E E E   Q  E Q   E E E
|----------------|----------------|----------------|-----------------|
|----------------|----------------|----------------|-----------------|
|------x-------x-|------x-------x-|------x-------x-|------x-------x--|
|-x--x-x---x-x-x-|-x--x-x---x-x-x-|-x--x-x---x-x-x-|-x--x-x---x-x-x--|
|-x--x-----x-x---|-x--x-----x-x---|-x--x-----x-x---|-x--x-----x-x----|
|----------------|----------------|----------------|-----------------|


                                                    9/8
  Q  E E E E E E   Q  E E E E E E   Q  E E E E E E   Q  E E E E E E E
|----------------|----------------|----------------|-------------------||
|----------------|----------------|----------------|-------------------||
|----------------|----------------|----------------|-------------------||
|-0--2-2-2-0-2-2-|-0--2-2-2-0-2-2-|-5--5-5-5-5-5-5-|-0--0-0-0-0S5-4-0--||
|
| Q  E Q   E E E   Q  E Q   E E E   Q  E Q   E E E   Q  E Q   E E E E
|----------------|----------------|----------------|-------------------||
|----------------|----------------|----------------|-------------------||
|------x-------x-|------x-------x-|------x-------x-|------x-------x----||
|-x--x-x---x-x-x-|-x--x-x---x-x-x-|-x--x-x---x-x-x-|-x--x-x---x-x-x----||
|-x--x-----x-x---|-x--x-----x-x---|-x--x-----x-x---|-x--x-----x-x------||
|----------------|----------------|----------------|-------------------||


 Interlude
  Q=122
 4/4
  Wx12
|---------|
|---------|
|---------|
|---------|
|
| Wx12
|---------|
|---------|
|---------|
|---------|
|---------|
|---------|


  Q=123
  W                 W                 W                 W
|-----------------|-----------------|-----------------|------------------|
|-----------------|-----------------|-----------------|------------------|
|-----------------|-----------------|-----------------|------------------|
|-----------------|-----------------|-----------------|------------------|
|
| <                 <                 <                 <
| E E E E E E E E   E E E E E E E E   E E E E E E E E   E E E E E E E E
|-----------------|-----------------|-----------------|------------------|
|-----------------|-----------------|-----------------|------------------|
|-----------------|-----------------|-----------------|------------------|
|-x-x-x-x-x-x-x-x-|-x-x-x-x-x-x-x-x-|-x-x-x-x-x-x-x-x-|-x-x-x-x-x-x-x-x--|
|-x-x-x-x-x-x-x-x-|-x-x-x-x-x-x-x-x-|-x-x-x-x-x-x-x-x-|-x-x-x-x-x-x-x-x--|
|-----------------|-----------------|-----------------|------------------|


  W                 W
|-----------------|-----------------|
|-----------------|-----------------|
|-----------------|-----------------|
|-----------------|-----------------|
|
| E E E E E E E E   E E E E E E E E
|-----------------|-----------------|
|-----------------|-----------------|
|-----------------|-----------------|
|-x-x-x-x-x-x-x-x-|-x-x-x-x-x-x-x-x-|
|-x-x-x-x-x-x-x-x-|-x-x-x-x-x-x-x-x-|
|-----------------|-----------------|


                   7/8
  W                 H..
|-----------------|--------------------------------||
|-----------------|--------------------------------||
|-----------------|--------------------------------||
|-----------------|--------------------------------||
|
| E E E E E E E E   S   S S S S S S S S S S S S S
|-----------------|--------------------------------||
|-----------------|--------------------------------||
|-----x-------x---|-x---x-x-x-x-x-x-x-x-x-x-x-x-x--||
|-x-x-x---x-x-x---|-x---x-x-x-x-x-x-x-x-x-x-x-x-x--||
|-x-x---x-x-x---x-|--------------------------------||
|-------x-------x-|--------------------------------||


   Chorus
    Q=126
   4/4
     Q  E E   E   E  E E     Q    E E E E  E E
||-----------------------|---------------------|
||o----------------------|---------------------|
||o----------------------|---------------------|
||---0--2-2---2---0--2-2-|---0----2-2-2-0--2-2-|
|
|    Q  E Q       E  E E     Q    E Q   E  E E
||-----------------------|---------------------|
||o----------------------|---------------------|
||------x--------------x-|--------x----------x-|
||---x--x-x-------x--x-x-|---x----x-x---x--x-x-|
||o--x----x-------x--x---|---x------x---x--x---|
||-----------------------|---------------------|
|
|   Gtr III
|    H       +E   Q.        +E  H       Q.
||-----------------------|---------------------|
||o----------------------|---------------------|
||-----------------------|---------------------|
||-----------------------|---------------------|
||o-12------(12)-11------|-(11)-9-------7------|
||-----------------------|---------------------|


                  1.                   2.
  Q  E E E E E E    Q   E E E E E E      Q   E E E E E E
|----------------|-------------------||---------------------|
|----------------|------------------o||---------------------|
|-2--4-4-2-4-4-4-|--2---4-4-2-4-4-4-o||--2---4-4-2-4-4-4----|
|----------------|-------------------||---------------------|
|
| Q  E Q   E E E    Q   E Q   E E E      Q   E Q   E E E
|----------------|-------------------||---------------------|
|----------------|------------------o||---------------------|
|----x---------x-|------x---------x--||------x-----x--------|
|-x--x-x---x-x-x-|--x---x-x---x-x-x--||--x---x-x---x-x-x----|
|-x----x---x-x---|--x-----x---x-x---o||--x-----x-----x-x----|
|----------------|-------------------||--------------x-x----|
|
| W                +W                   +W
|----------------|-------------------||---------------------|
|----------------|------------------o||---------------------|
|----------------|-------------------||---------------------|
|----------------|-------------------||---------------------|
|----------------|------------------o||---------------------|
|-9--------------|-(9)---------------||-(9)-----------------|


     Q  E E   E   E  E E     Q    E E E E  E E
||-----------------------|---------------------|
||o----------------------|---------------------|
||o----------------------|---------------------|
||---0--2-2---2---0--2-2-|---0----2-2-2-0--2-2-|
|
|    Q  E Q       E  E E     Q    E Q   E  E E
||-----------------------|---------------------|
||o----------------------|---------------------|
||------x--------------x-|--------x----------x-|
||---x--x-x-------x--x-x-|---x----x-x---x--x-x-|
||o--x----x-------x--x---|---x------x---x--x---|
||-----------------------|---------------------|
|
|    H       +E   Q.        +E  H       Q.
||-----------------------|---------------------|
||o----------------------|---------------------|
||-----------------------|---------------------|
||-----------------------|---------------------|
||o-12------(12)-11------|-(11)-9-------7------|
||-----------------------|---------------------|


  Q  E E E E E E    Q   E E E E E E
|----------------|-------------------||
|----------------|------------------o||
|-2--4-4-2-4-4-4-|--2---4-4-2-4-4-4-o||
|----------------|-------------------||
|
| Q  E Q   E E E    Q   E Q   E E E
|----------------|-------------------||
|----------------|------------------o||
|----x---------x-|------x---------x--||
|-x--x-x---x-x-x-|--x---x-x---x-x-x--||
|-x----x---x-x---|--x-----x---x-x---o||
|----------------|-------------------||
|
| W                +W
|----------------|-------------------||
|----------------|------------------o||
|----------------|-------------------||
|----------------|-------------------||
|----------------|------------------o||
|-9--------------|-(9)---------------||


 Outro
  Q  E E E E E E   Q  E E E E E E   Q  E E E E E E   Q  E E E E E E
|----------------|----------------|----------------|-----------------*|
|----------------|----------------|----------------|-----------------*|
|----------------|----------------|----------------|-----------------*|
|-0--2-2-2-0-2-2-|-0--2-2-2-0-2-2-|-0--2-2-2-0-2-2-|-0--2-2-2-0-2-2--*|
|
| Q  E E E E E E   Q  E E E E E E   Q  E E E E E E   Q  E E E E E E
|----------------|----------------|----------------|-----------------*|
|----------------|----------------|----------------|-----------------*|
|----x-x---x-x-x-|----x-x---x-x-x-|----x-x---x-x-x-|----x-x---x-x----*|
|-x--x-x-x-x-x-x-|-x--x-x-x-x-x-x-|-x--x-x-x-x-x-x-|-x--x-x-x-x-x----*|
|-x------x-------|-x------x-------|-x------x-------|-x------x--------*|
|----------------|----------------|----------------|-----------------*|


Duration Legend
---------------
W - whole; H - half; Q - quarter; E - 8th; S - 16th; T - 32nd; X - 64th; a - acciaccatura
+ - note tied to previous; . - note dotted; .. - note double dotted
Uncapitalized letters represent notes that are staccato (1/2 duration)
Irregular groupings are notated above the duration line
Duration letters will always appear directly above the note/fret number it represents the
duration for.  Duration letters with no fret number below them represent rests.  Multi-
bar rests are notated in the form Wxn, where n is the number of bars to rest for.  Low
melody durations appear below the staff

Tablature Legend
----------------
 h   - hammer-on
 p   - pull-off
 b   - bend
 pb  - pre-bend
 r   - bend release (if no number after the r, then release immediately)
 /\  - slide into or out of (from/to "nowhere")
 s   - legato slide
 S   - shift slide
  - natural harmonic
[n]  - artificial harmonic
n(n) - tapped harmonic
 ~   - vibrato
 tr  - trill
 T   - tap
 TP  - trem. picking
 PM  - palm muting
\n/  - tremolo bar dip; n = amount to dip
 \n  - tremolo bar down
 n/  - tremolo bar up
/n\  - tremolo bar inverted dip
 =   - hold bend; also acts as connecting device for hammers/pulls
 <>  - volume swell (louder/softer)
 x   - on rhythm slash represents muted slash
 o   - on rhythm slash represents single note slash

Misc Legend
-----------
 |  - bar
||  - double bar
||o - repeat start
o|| - repeat end
*|  - double bar (ending)
 :  - bar (freetime)
 $  - Segno
 &  - Coda
Tempo markers -  = BPM(8/16=s8/s16), where s8 = swing 8ths, s16 = swing 16ths
comments
We did not receive enough feedback on this tab! Please rate:
1 2 3 4 5
I want to post or [tab]
guest
You may want to rate the tab now too:
select rating
Please do not post tabs as comments. Select "correction" instead!