Oops, an error
Loading. Please wait.

Razorblade Romance Tab

by Him
9,766 views 9 this week
1 commentread comment
1 2 3 4 5
accurate
x 11
Autoscroll
+/-
esc
set tempo
stop
Contributor
Hey! There's an official Ultimate Guitar app which is ideal
for learning songs when you're away from computer. Get the app
WARNING: You are trying to view
                                    content from Ultimate-Guitar.com
                                    in an unauthorized application,
                                    which is prohibited.

                                    Please use an official Ultimate
                                    Guitar Tabs application for iPhone,
                                    iPad or Android to access legitimate
                                    chords, guitar, bass, and drum tabs
                                    from Ultimate-Guitar.com database.

                                    Type "ultimate guitar tabs" in Apple
                                    App Store's or Android Market's
                                    search to find the application.
HIM
His Infernal Majesty

All Songs By: Ville Valo--Except Wicked Game
Guitars: Linde 
Vocals: Ville 
Bass: Mige 
Keyboards: Burton
Drums: Gas
Tabbed by Donald Lawson  AIM-Misfits3388

All Songs tuned in Standard. Use a heavy fuzz distortion or heavy metal.

=====Your Sweet 666============
Main Riff
E|----------------------------|
B|----------------------------|
G|----------------------------|
D|---------4~-----------------|
A|-5-4-0---2~---5~--4~--------|
E|--------------3~--2~--------|

Verse:
E|-------------------------------------------------------------------------|
B|-------------------------------------------------------------------------|
G|-------------------------------------------------------------------------|
D|----------77777777---------------------------44444444--------------------|
A|-55555555-55555555-4444444444444444-55555555-22222222-44444444-4-5-4-----|
E|-33333333----------2222222222222222-33333333----------22222222-------5-3-|
    ^8                     ^16

Chorus
E|-----------------------------------------------------------------------|
B|-----------------------------------------------------------------------|
G|-----------------------------------------------------------------------|
D|-44444444-77777777-22222222--------------------------------------------|
A|-22222222-55555555-00000000-55555555--55-5555-55555555-77777777--5-4-0-|
E|----------------------------33333333--33-3333-33333333-55555555--------|

Chorus2
E|---------------------------------------------------------------------|
B|---------------------------------------------------------------------|
G|---------------------------------------------------------------------|
D|-66666666-99999999---------------------------------------------------|
A|-44444444-77777777-99999999-77777777-77-7777-7777777-99999999--7-6-2-|
E|-------------------77777777-55555555-55-5555-5555555-77777777--------|

========Poison Girl============
Main Riff/Chorus
E|-----------------------------------------------------|
B|-----------------------------------------------------|
G|-4-4---4---4-4---4---4------4---4---4---4---4---4----|
D|-4-4-2-4-2-4-4-2-4-2-4-2----4-2-4-2-4-2-4-2-4-2-4-2--|
A|-4-4-2-4-2-4-4-2-4-2-4-2----4-2-4-2-4-2-4-2-4-2-4-2--|
E|-2-2-2-2-2-2-2-2-2-2-2-2----2-2-2-2-2-2-2-2-2-2-2-2--|

E|---------------------------------|
B|-7-7--7--------------------------|
G|-7-7--7-6--6-6-------------------|
D|-7-7--7-7--7-7-------------------|
A|-5-5--5-5--5-7----7-7-7-7-7-7-7--|
E|-------------5----5-5-5-5-5-5-5--|

Verse little Riff
E|--------------------------------|
B|--------------------------------|
G|------4-2--1--------------------|
D|-4--4---------4-2---------------|
A|------------------4-2-------4~--|
E|------------------------5-4-2~--|

Solo
E|--------------------------------------------------------------|
B|--------------------------------------------------------------|
G|*-------------------------------------------------------------|
D|*-------------------------------------------------------------|
A|-------4----2------------------------------2--5----4--2-------|
E|---2-----------5--4----2--0----0--2--0---------------------5--|

E|-------------------------------------------------------------|
B|-------------------------------------------------------------|
G|-------------------------------------------------------------|
D|-------------------------------------------------------------|
A|-------------------------------------------------------------|
E|--2---0---0--2--5---0---0---2--5--2--0----0---0--0--0--0--0--|

========Join Me In Death==============
Main Riff
E|-------------------------------------------|
B|---------55-55-----------------------------|
G|---------44-44--6-6-6----------------------|
D|-44--222--------6-6-6--6-6--6-6---4-4---2--|
A|-44--222--------4-4-4--6-6--6-6---4-4---2--|
E|-22--000---------------4-4--4-4---2-2---0--|

Verse
E|-----------------------------------|
B|-----------------------------------|
G|-----------------------------------|
D|2-4------------88888888-66666666---|
A|2-4--66666666--66666666-44444444---|
E|0-2--44444444----------------------|

===============Right Here In My Arms===============
Main Riff/Chorus
Note: if you have seen the video to this it shows linde playing the piano like part on
guitar. Its not played on guitar. Its just a scam i guess. So dont worry about that part.

Main Riff
E|---------------------------------------|
B|---------------------------------------|
G|---------------------------------------|
D|----------55555555---------------------|
A|-77777777-33333333-55555555--22222222--|
E|-55555555----------33333333--00000000--|

Verse
E|------------------------------------|----------------------------------|
B|------------------------------------|----------------------------------|
G|------------------------------------|----------------------------------|
D|------------------55555555----------|----------22222222-------------19-|
A|-7777777777777777-33333333-55555555-|-77777777-22222222-3333333333-/19-|
E|-5555555555555555----------33333333-|-55555555----------1111111111-/19-|
      ^16                                                    11^

Chorus
E|-------------------------------------------------|
B|-------------------------------------------------|
G|-------------------------------------------------|
D|----------55555555-------------------------------|
A|-77777777-33333333-55555555--22222222--3333-2222-|
E|-55555555----------33333333--00000000--1111-0000-|

Solo
E|-------------------------------------------------------------|
B|-------------------------------------------------------------|
G|-7-6-------------------------444444444444-666666666-7777777--|
D|-----9-7-----------------------------------------------------|
A|---------7-9-9-9-9-9-7-9-9-9---------------------------------|
E|-------------------------------------------------------------|

E|-------------------------------------------------------------|
B|-------------------------------------------------------------|
G|-11-11-11-11-11-9-11-11-11--22^-22^-22^-22^-11-21-21-21-21-21|
D|-------------------------------------------------------------|
A|-------------------------------------------------------------|
E|-------------------------------------------------------------|

E|-------------------------------------------------------------|
B|-------------------------------------------------------------|
G|-11-19-19-19-19-19--11-18-18-18-18-18--11-16-16-16-16-16-----|
D|-------------------------------------------------------------|
A|-------------------------------------------------------------|
E|-------------------------------------------------------------|

E|-------------------------------------------------------------|
B|-------------------------------------------------------------|
G|-11-14-14-14-14-14-14-14--9-11-11-11-11-11---9-11--11-11-11--|
D|-------------------------------------------------------------|
A|-------------------------------------------------------------|
E|-------------------------------------------------------------|


==========Bury Me Deep inside You Heart==============
Main Riff
E|----------------|
B|----------------|
G|-7-7--7-7--2----|
D|-7-7--7-7--2----|
A|-4-4--5-5--0----|
E|----------------|

Verse
E|--------------------|
B|--------------------|
G|--------------------|
D|-2---4--5-7---9--7--|
A|-2---4--5-7---9--7--|
E|-0---2--3-5---7--5--|

Bridge
E|----------------|
B|----------------|
G|----------------|
D|-11-13--14--13--|
A|----------------|
E|-9--11--12--11--|

Chorus
E|-----------------------------------|
B|-----------------------------------|
G|-----------------------------------|
D|---2--4--5--7--9--11---------------|
A|---2--4--5--7--9—-11---------------|
E|---0--2--3--5--7--9----------------|


===========Wicked Game=========  Cover
main riff
E|--------------------------------------------------------------------|
B|--------------------------------------------------------------------|
G|-4-4-4-4-4-4-4-4-2-2-2-2-2-2-2-2---------------2---1----------------|
D|-4-4-4-4-4-4-4-4-2-2-2-2-2-2-2-2-2-2-2-2-2-2/4---4-2-2-2-2-2-2-2-2--|
A|-2-2-2-2-2-2-2-2-0-0-0-0-0-0-0-0-2-2-2-2-2-----------2-2-2-2-2-2-2--|
E|---------------------------------0-0-0-0-0-----------0-0-0-0-0-0-0--|

Chorus
E|---2-----0-----2---0------0-----0---0----------------0-----0-----0--|
B|-----3-----3---------2------3---------0----------------0-----0------|
G|-------4-----4---------2------2---------1------2---------1-----1----|
D|-4---------------2----------------2--------2/4---4-2----------------|
A|-2---------------0----------------2----------------2----------------|
E|----------------------------------0----------------0----------------|

Bridge
E|-2-----0--------------------0------------------------------|
B|---3-----3---3-2h3p2---2------0-------------5-----5--------|
G|-----4-----4-------------1------1-1-1/2-2/4---4-----4------|
D|-----------------------------------------------------------|
A|2----------------------------------------------------------|
E|-----------------------------------------------------------|

Solo
E|--------------------------------------------|
B|--------------------------------------------|
G|-9bu11--11r9----9---------------------------|
D|9-------------9----9-6-7---6h7p6--6h7h9-----|
A|--------------------------------------------|
E|--------------------------------------------|


========I Love You (Perlude to Tragedy)==========
Main Riff
E|---------------------------------------------------------|
B|---------------------------------------------------------|
G|---------------------------------------------------------|
D|---------------------------------------------------------|
A|---------------------------------3------2----0-----------|
E|--3--5~------0--0--5--0--3--5~--------------------3--5~--|

Verse
E|-0---------0--3--2--0----------0---|
B|-0--0------0--3--3--0--0-------0---|
G|-0---0-----0--0--2--0----0-2---0---|
D|-2----4-2--2--0--0--2-------2--2---|
A|-2---------2--2-----2----------2---|
E|-0---------0--3-----0----------0---|

Chorus
E|---------------------------------------------------------|
B|---------------------------------------------------------|
G|-5--5--5--5--5--5--5--5----5--5--5--5--5--5--5--5--------|
D|-5--5--5--5--5--5--5--5----5--5--5--5--5--5--5--5----5---|
A|-3--3--3--3--3--3--3--3----3--3--3--3--3--3--3--3----5---|
E|-----------------------------------------------------3---|

E|-------------------------------------------------------|
B|-------------------------------------------------------|
G|------5--5--5--5--5--5--5--5---5--5--5--5--5--5--5--5--|
D|12----5--5--5--5--5--5--5--5---5--5--5--5--5--5--5--5--|
A|12----3--3--3--3--3--3--3--3---3--3--3--3--3--3--3--3--|
E|10-----------------------------------------------------|

E|-------------------------------------------------|
B|-------------------------------------------------|
G|-------------------------------------------------|
D|-5-------12------12--12--12--12--12--12--12--12--|
A|-5-------12------12--12--12--12--12--12--12--12--|
E|-3-------10------10--10--10--10--10--10--10--10--|

==========Gone With The Sin============
Note: Play these chords in order as they are for the song, but pick each note with
your pick, finger exct what ever. like this
   C5
E|---|-------------|
B|-4-|----4-3-4----|
G|-5-|---5-----5---|
D|-5-|--5-------5--|
A|-3-|-3---------3-|
E|---|-------------|

Chorus:
Am     Em               F             C   G
Ohohohohoh my Baby, how beautiful you are
Am     Em                 F             C   G
Ohohohohoh my Darling, completely torn apart
       Am            Em              F             C   G
You're gone with the sin my Baby and beautiful you are
       Am            Em      F
You're gone with the sin my Darling


Vers:
Am           Em         F     C  G
I adore the dispair in your eyes
Am              Em           F   C  G
I worship your lips once red as wine
Am               Em                       F      C   G
I crave for your scent sending shivers down my spine
Am               Em           F            C   G
I just love the way you're running out of life

Chorus:
Am     Em               F             C   G
Ohohohohoh my Baby, how beautiful you are
Am     Em                 F             C   G
Ohohohohoh my Darling, completely torn apart
       Am            Em              F             C   G
You're gone with the sin my Baby and beautiful you are
       Am            Em      F
You're gone with the sin my Darling

Solo
E|---------------------------------------------------------------------|
B|---------------------------------------------------------------------|
G|---9-7-5-4-4-5-7-5-4------------9-7-5-7-4-5-7-9-7-5-4----------------|
D|-7--------5----------7-5-7-----7----------------------7-5-3-2-0------|
A|---------------------------7-----------------------------------3-2-0-|
E|---------------------------------------------------------------------|

E|---------------------------------|
B|---------------------------------|
G|---------------------------------|
D|---------------------------------|
A|-2-3-2-3-5-7-5-3-2-0-2-3-2-3-5-7-|
E|---------------------------------|
I Hope you know how to play chords.

==========Razorblade Kiss=============
intro
E|--------------------------|
B|--------------------------|
G|--------------------------|
D|--------------------------|
A|---0~---2--2b-0~-2--2b----|
E|--------------------------|

Intro Cont..
E|---------------------------|---------------------------|
B|---------------------------|---------------------------|
G|---------------------------|---------------------------|
D|---------------------------|---------------------------|
A|--9----11--11------11--11--|--9----11--11------11--11--|
E|--7----9---9-------9---9---|--7----9---9-------9---9---|

E|----------------------------|-----------------------|
B|----------------------------|-----------------------|
G|----------------------------|-----------------------|
D|----------------------------|-----------------------|
A|--14----14--14------14--14--|--9----9--9------9--9--|
E|--12----12--12------12--12--|--7----7--7------7--7--|

Verse:
E|---------------------------|--------------------------|
B|---------------------------|--------------------------|
G|---------------------------|--------------------------|
D|---6--6--6--6--6--6--6--6--|--6--6--6--6--6--6--6--6--|
A|---4--4--4--4--4--4--4--4--|--4--4--4--4--4--4--4--4--|
E|---------------------------|--------------------------|

E|--------------------------|---------------------------|
B|--------------------------|---------------------------|
G|--------------------------|---------------------------|
D|--9--9--9--9--9--9--9--9--|---------------------------|
A|--7--7--7--7--7--7--7--7--|--9--9--9--9--9--9--9--9---|
E|--------------------------|--7--7--7--7--7--7--7--7---|

E|---------------------------|---------------------------|
B|---------------------------|---------------------------|
G|---------------------------|---------------------------|
D|---------------------------|---------------------------|
A|--9----11--11------11--11--|--9----11--11------11--11--|
E|--7----9---9-------9---9---|--7----9---9-------9---9---|

E|----------------------------|-----------------------|
B|----------------------------|-----------------------|
G|----------------------------|-----------------------|
D|----------------------------|-----------------------|
A|--14----14--14------14--14--|--9----9--9------9--9--|
E|--12----12--12------12--12--|--7----7--7------7--7--|

E|------------------------------|------------------------|
B|------------------------------|------------------------|
G|------------------------------|------------------------|
D|------------------------------|------------------------|
A|--14------14--14--14--14--14--|--9------9--9--9--9--9--|
E|--12------12--12--12--12--12--|--7------7--7--7--7--7--|

Chorus
E|---------------------------|---------------------------|
B|---------------------------|---------------------------|
G|---------------------------|---------------------------|
D|---------------------------|---------------------------|
A|--9----11--11------11--11--|--9----11--11------11--11--|
E|--7----9---9-------9---9---|--7----9---9-------9---9---|

E|----------------------------|-----------------------|
B|----------------------------|-----------------------|
G|----------------------------|-----------------------|
D|----------------------------|-----------------------|
A|--14----14--14------14--14--|--9----9--9------9--9--|
E|--12----12--12------12--12--|--7----7--7------7--7--|

Solo
E|--------------------------|---------------------------|
B|--------------------------|---------------------------|
G|--------------------------|---------------------------|
D|--------------------------|-----6----9--9--6-6\9/-6---|
A|-------------7--7-7~7-----|--7----------------------7\|
E|--19\-----9------------9--|---------------------------|

E|--------------------------|--------------------------|
B|--------------------------|--------------------------|
G|--------------------------|--------------------------|
D|-----6----9--9--6-6\9/-6--|-------------------9~-----|
A|--9-----------------------|--7\-9~-------9/11----11--|
E|--------------------------|--------------------------|

E|-------------------------|---------|----------------------------|
B|-------------------------|---------|--9-9--9-9--9-9--9-9--9-9---|
G|-----9----6~-------------|--9--6~--|----------------------------|
D|--9---------------9------|---------|----------------------------|
A|-------------9/11----11--|---------|----------------------------|
E|-------------------------|---------|----------------------------|

E|-------------|------------------------|--7r---------------------|
B|--7h9p7------|--9r------7-------------|----------9-----7--------|
G|--------9-8~-|-------6-----6--9--6----|-------6-----6-----9--8--|
D|-------------|------------------------|-------------------------|
A|-------------|------------------------|-------------------------|
E|-------------|------------------------|-------------------------|

E|--------------------------------------------------|
B|--------------------------------------------------|
G|--9--11h9p11h9p11h9p11h9p11h9p11h9p11h9p11h9p11h9-|
D|--------------------------------------------------|
A|--------------------------------------------------|
E|--------------------------------------------------|

E|------------------------------------------------------------|
B|------------------------------------------------------------|
G|--11--13h11p13h11p13h11p13h11p13h11p13h11p13h11p13h11p13h11-|
D|------------------------------------------------------------|
A|------------------------------------------------------------|
E|------------------------------------------------------------|

E|----------------------------------------|
B|--14--14-14-14--14-14-14--14-14-14--16--|
G|----------------------------------------|
D|----------------------------------------|
A|----------------------------------------|
E|----------------------------------------|

E|----------------------------------------|
B|--16--16-16-16--16-16-16--16-16-16--17--|
G|----------------------------------------|
D|----------------------------------------|
A|----------------------------------------|
E|----------------------------------------|

E|----------------------------------------|
B|--17--17-17-17--17-17-17--17-17-17--19~-|
G|----------------------------------------|
D|----------------------------------------|
A|----------------------------------------|
E|----------------------------------------|

Bridge
E|-----------0----2----4-------------2----0------------0---2---|
B|-2----4-----4----4----5---4-5-4-----4----4---2---4----4---4--|
G|--2----2-----4----4----6-------6-----4----4---2---2----4---4-|
D|---2----2-----------------------6--------------2---2---------|
A|-------------------------------------------------------------|
E|-------------------------------------------------------------|

==========Resurrection==========
Pretty simple. One riff
E|-------------------------------------------------------------|
B|-------------------------------------------------------------|
G|-------------------------------------------------------------|
D|----------------------2--10-10-10-10--5-5-5-5-5--7-7-7-7-7---|
A|12-12-12-12-12-12-12--2--10-10-10-10--5-5-5-5-5--7-7-7-7-7---|
E|10-10-10-10-10-10-10--0--8--8--8--8---3-3-3-3-3--5-5-5-5-5---|

======Death is in Love With Us===========
Intro
E|--------------------------------------------------------------|
B|--------------------------------------------------------------|
G|--------------------------------------------------------------|
D|-4-4-4--6-6--7-7-7-7-7--9-9--1111111111--9-11-9-9-9-9-9-9-9-9-|
A|-2-2-2--4-4--5-5-5-5-5--7-7--9-9-9-9-9---7-9--7-7-7-7-7-7-7-7-|
E|--------------------------------------------------------------|

Intro Cont..
E|-------------------------------------|
B|-------------------------------------|
G|-------------------------------------|
D|-7-7-7-7-7-7-7-7--9-9-9-9-9----------|
A|-5-5-5-5-5-5-5-5--7-7-7-7-7--7-7--4--|
E|-----------------------------5-5--2--|

Verse
E|-----------------------------------------------------------------------|
B|-----------------------------------------------------------------------|
G|-----------------------------------------------------------------------|
D|--------------2-2-2-2-2-2---------------2-2-2-2-2-2---7-7-7-7-7-7-7-7--|
A|-4-4-4-4-4-4--2-2-2-2-2-2--4-4-4-4-4-4--2-2-2-2-2-2---5-5-5-5-5-5-5-5--|
E|-2-2-2-2-2-2--0-0-0-0-0-0--2-2-2-2-2-2--0-0-0-0-0-0--------------------|

Verse Cont.
E|-----------------------------------------------|
B|-----------------------------------------------|
G|-----------------------------------------------|
D|------------------------------------2-2-2-2-2--|
A|-9-9-9-9-9-9-9-9--7-7-7-7-7-7-7-7---2-2-2-2-2--|
E|-7-7-7-7-7-7-7-7--5-5-5-5-5-5-5-5---0-0-0-0-0--|

===============Heaven Tonight================
Intro/Verse Piece's
E|---------|----------|----------|----------------|
B|---------|----------|----------|----------------|
G|---------|----------|----------|----------------|
D|---------|----------|----------|----------------|
A|-0-0-3-0-|-----0----|-----2----|-0-0-3-0-0-0-0--|
E|---------|-1-1---1--|-3-3---3--|----------------|

Chorus
E|-------------------------------------------------------------------------|
B|-------------------------------------------------------------------------|
G|-------------------------------------------------------------------------|
D|-------------------------------------------------------------------------|
A|---------------------------33333333--------------------------------------|
E|-33333333-1111111111111111----------33333333-111111111111111111-33333333-|

Distort
E|-------------|
B|-------------|
G|----5--------|
D|-3--5--5--3--|
A|-3--3--5--3--|
E|-1-----3--1--|

=============Sigillum Diaboli=============
Intro
E|---------------------------------------------------|
B|---------------------------------------------------|
G|------------------4-4-4-4-4-4-4-4------------------|
D|-6-6-6-6-6-6-6-6--4-4-4-4-4-4-4-4--4-4-4-4-4-4-4-4-|
A|-6-6-6-6-6-6-6-6--2-2-2-2-2-2-2-2--4-4-4-4-4-4-4-4-|
E|-4-4-4-4-4-4-4-4-------------------2-2-2-2-2-2-2-2-|

verse/Chorus
E|--------------------------|-------------------------|
B|--------------------------|-------------------------|
G|--------------------------|-------------------------|
D|---4--6--6--6----6--6--6--|--4--6--6--6----6--6--6--|
A|---4--6--6--6----6--6--6--|--4--6--6--6----6--6--6--|
E|---2--4--4--4----4--4--4--|--2--4--4--4----4--4--4--|

E|--------------------------------|------------------------|
B|--------------------------------|------------------------|
G|--------------------------------|------------------------|
D|--11--13--13--13----13--13--13--|--9----9--9--8----8-----|
A|--11--13--13--13----13--13--13--|--9----9--9--8----8-----|
E|--9---11--11--11----11--11--11--|--7----7--7--6----6-----|

E|-------------------|-------------------|------------------------|
B|--7--5--7--5----7--|-5---7--5--7--5----|--------7--5--7--5----7-|
G|--6--6--6--6----6--|-6---6--6--6--6----|--------6--6--6--6----6-|
D|--4--4--4--4----4--|-4---4--4--4--4--4-|--4--4--4--4--4--4----4-|
A|-------------------|-----------------4-|--4--4------------------|
E|-------------------|-------------------|------------------------|

E|------------------------|
B|--5----7--5----7--5-----|
G|--6----6--6----6--6-----|
D|--4----4--4----4--4--4--|
A|---------------------4--|
E|------------------------|

Bridge
E|-----------------|-------------------|----------------------|
B|-7--5--7--5---7--|--5--7--5--7--5----|-------7--5--7--5--7--|
G|-6--6--6--6---6--|--6--6--6--6--6----|-------6--6--6--6--6--|
D|-4--4--4--4---4--|--4--4--4--4--4--4-|-4--4--4--4--4--4--4--|
A|-----------------|-----------------4-|-4--4-----------------|
E|-----------------|-------------------|----------------------|

E|--------------------|----------------------|------------------|
B|-5--7--5---7--5-----|-------9--7--9--7--9--|-7-9--7--9--7-----|
G|-6--6--6---6--6-----|-------8--8--8--8--8--|-8-8--8--8--8-----|
D|-4--4--4---4--4--4--|-4--4--6--6--6--6--6--|-6-6--6--6--6--6--|
A|-----------------4--|-4--4-----------------|---------------6--|
E|--------------------|----------------------|------------------|

E|----------------------|------------------|----------------------|
B|-------9--7--9--7--9--|-7--9--7--9--7----|-----10--8-10--8--10--|
G|-------8--8--8--8--8--|-8--8--8--8--8----|-----9---9-9---9--9---|
D|-6--6--6--6--6--6--6--|-6--6--6--6--6--6-|-6-6-7---7-7---7--7---|
A|-6--6-----------------|----------------6-|-6-6------------------|
E|----------------------|------------------|----------------------|

E|--------------------------|----------------------------------|
B|--8----10--8----10--8--8--|--10--10--10--10--10--10--10--10--|
G|--9----9---9----9---9--9--|--9---9---9---9---9---9---9---9---|
D|--7----7---7----7---7--7--|--7---7---7---7---7---7---7---7---|
A|--------------------------|----------------------------------|
E|--------------------------|----------------------------------|

E|----------------------------------|
B|--10--10--10--10--10--10--10--10--|
G|--9---9---9---9---9---9---9---9---|
D|--7---7---7---7---7---7---7---7---|
A|----------------------------------|
E|----------------------------------|

solo
E||--------------------------|
B||--------------------------|
G||--------------11\13-13-13-|
D||--------------------------|
A||--------------------------|
E||--------------------------|
                                                  
E|--------------------------------------------------|
B|--------------------------------------------------|
G|--13-13-13-13-13-13-13-13-13-13-13-13-13-13-13-13-|
D|--------------------------------------------------|
A|--------------------------------------------------|
E|--------------------------------------------------|

                                                                    
E|------------------------------------|----------------------|
B|------------------------------------|----------------------|
G|-11--13-13-13--11--13-13-13--11--13-|-11--13-13-13--13~----|
D|------------------------------------|----------------------|
A|------------------------------------|----------------------|
E|------------------------------------|----------------------|

                                                                           
E|-------------------|--------------------|----------------------|
B|-------------------|--------------------|--------------7h9p7---|
G|-6b--6b-6br-6b-6~--|--6br-4--6--4--6--4-|------6b---8--------8-|
D|-------------------|--------------------|--6~------------------|
A|-------------------|--------------------|----------------------|
E|-------------------|--------------------|----------------------|
                                                              
E|-------------------------------|-------------------------------|
B|--7--------9--9h12p9----9------|-------------------------------|
G|-----11b-------------11----12b-|---11--11h13p11----11--6b---4--|
D|-------------------------------|----------------13-------------|
A|-------------------------------|-------------------------------|
E|-------------------------------|-------------------------------|
                                                                           
E|---------------------|--------------------|--------------------|
B|---------------------|--------------------|--------------------|
G|-4h6p4---4--6--4-----|--6b--6b-6br-6b-6~--|-4h-6-4h-6-4h-6--8--|
D|-------6----------6~-|--------------------|--------------------|
A|---------------------|--------------------|--------------------|
E|---------------------|--------------------|--------------------|
                                                              
E|---------------------------|------------------7h9p7---7h9p7---|
B|-----------7h9p7---7h9-7---|--7h9p7---7h9p7-9-------9-------9-|
G|------8----------8-------8-|--------8-------------------------|
D|---------------------------|----------------------------------|
A|---------------------------|----------------------------------|
E|---------------------------|----------------------------------|
                                                                  
E|--------------------|-----------9b----------11~-|-----------|
B|--8b-----9~---------|----11b-9-------11b-9------|-----------|
G|--------------------|---------------------------|-----------|
D|--------------------|---------------------------|-----------|
A|--------------------|---------------------------|-----------|
E|--------------------|---------------------------|-----------|
                                                            
E|--------------------|-------------------|------------------|
B|--------------------|--7~---------------|------------------|
G|----------19\-------|-------------------|------------------|
D|--------------------|-------------------|------------------|
A|--------------------|-------------------|------------------|
E|--------------------|-------------------|------------------|

E|------------------|-------------------|------------------------|
B|------------------|-------------------|-----9--9-9-9-9-9-9-9-9-|
G|-7--6~---6--7--6--|--6--7--6--4--7-6--|------------------------|
D|------------------|-------------------|--6~--------------------|
A|------------------|-------------------|------------------------|
E|------------------|-------------------|------------------------|
                                              
E|--------------------------------------------|
B|--9-9-9-9-11--11-11-11-11-11-11-11-11-11-11-|
G|--------------------------------------------|
D|--------------------------------------------|
A|--------------------------------------------|
E|--------------------------------------------|
                                                    
E|------------------------------------------------|
B|--11-11-12--12-12-12-12-12-12-12-12-12-12-12-12-|
G|------------------------------------------------|
D|------------------------------------------------|
A|------------------------------------------------|
E|------------------------------------------------|
                                                                  
E|----------------------------------------------|
B|--14--14-14-14-14-14-14-14-14-14-14-14-14-14~-|
G|----------------------------------------------|
D|----------------------------------------------|
A|----------------------------------------------|
E|----------------------------------------------|


==============One Last Time=================
Intro
E||-------------------------|--------------|----------------------|
B||-------------------------|--------------|----------------------|
G||*------------------------|--------------|----------------------|
D||*------------------------|--------------|----------------------|
A||---------------------13~-|--------------|--11~-----------------|
E||---7~---------9/-11------|---11\-9/-11--|------------9/-11\-9~-|

E|------------------------||------------------|-------------------|
B|------------------------||------------------|-------------------|
G|-----------------------*||------------------|-------------------|
D|-----------------------*||------------------|-------------------|
A|------------------------||--------------13~-|-------------------|
E|------------11\-9/-11---||--7~---9/-11------|--------11\-9/-11--|

E|------------------------|------------------|
B|------------------------|------------------|
G|------------------------|------------------|
D|------------------------|------------------|
A|--11~-------------------|------------------|
E|--------------9/-11\-9~-|------------------|

verse
E|-----------------------|
B|-----------------------|
G|*----------------------|
D|*--------8--9----------|
A|------6----------------|
E|---4-------------------|

chorus
E|----------------------|
B|----------------------|
G|-----------3----------|
D|--------4-------------|
A|-----4----------------|
E|--2-------------------|

AC. GTR
E||-------------------|-------------------|-----------------------|
B||---4-4----4--4-----|--2--2----2--2-----|--0------0----0--0-----|
G||*--4-4----4--4--3--|--3--3----3--3--0--|--1------1----1--1--0--|
D||*--4-4----4--4--0--|--4--4----4--4--0--|--2------2----2--2--0--|
A||---2-2----2--2-----|--4--4----4--4-----|--2------2----2--2-----|
E||-------------------|-------------------|-----------------------|

|------------------------||
|--2------2----2--2--0---||
|--3------3----3--3--0--*||
|--4------4----4--4-----*||
|--4------4----4--4------||
|------------------------||

E||--------------------|-------------------|-----------------------|
B||---4--4----4--4-----|--2--2----2--2-----|--0------0----0--0-----|
G||*--4--4----4--4--3--|--3--3----3--3--0--|--1------1----1--1--0--|
D||*--4--4----4--4--0--|--4--4----4--4--0--|--2------2----2--2--0--|
A||---2--2----2--2-----|--4--4----4--4-----|--2------2----2--2-----|
E||--------------------|-------------------|-----------------------|

|------------------------||-------------------|------------------|
|--2------2----2--2--0---||--0----------------|------------------|
|--3------3----3--3--0--*||--1----------------|------------------|
|--4------4----4--4-----*||--2----------------|------------------|
|--4------4----4--4------||--2----------------|------------------|
|------------------------||--0----------------|------------------|

|------------------|-------------------|-----------------------|
|---4--4--4--4-----|--2--2----2--2-----|--0------0----0--0-----|
|*--4--4--4--4--3--|--3--3----3--3--0--|--1------1----1--1--0--|
|*--4--4--4--4--0--|--4--4----4--4--0--|--2------2----2--2--0--|
|---2--2--2--2-----|--4--4----4--4-----|--2------2----2--2-----|
|------------------|-------------------|-----------------------|

|------------------------||-------------------||
|--2------2----2--2--0---||--4----------------||
|--3------3----3--3--0--*||--4----------------||
|--4------4----4--4-----*||--4----------------||
|--4------4----4--4------||--2----------------||
|------------------------||-------------------||


Thats it. The US HIM version of RR.
Thanks to:

Linde at HIM666
Donald
Mark

Questions or comments
AIM-Misfits3388
comments
print report bad tab
1 comment total.
-1 reply
Mjölnar wrote on August 17 2007, 05:38 am

Thats great! the complete razorblade romance album! thank you very very very very much! you're awesome!

I want to post or [tab]
guest
You may want to rate the tab now too:
select rating
Please do not post tabs as comments. Select "correction" instead!