Oops, an error
Loading. Please wait.

Rip Out The Wings Of A Butterfly Bass Tab

by Him
ver3
ver3

Whole song

Interactive

More versions @911Tabs.com
4,154 views 6 this week
no commentswrite comment
1 2 3 4 5
accurate
x 3
Autoscroll
+/-
esc
set tempo
stop
Difficulty
Tuning
novice
D A D G B E
WARNING: You are trying to view
                                    content from Ultimate-Guitar.com
                                    in an unauthorized application,
                                    which is prohibited.

                                    Please use an official Ultimate
                                    Guitar Tabs application for iPhone,
                                    iPad or Android to access legitimate
                                    chords, guitar, bass, and drum tabs
                                    from Ultimate-Guitar.com database.

                                    Type "ultimate guitar tabs" in Apple
                                    App Store's or Android Market's
                                    search to find the application.
Drop D

Intro
G|--------------------| 
D|--------------------|
A|--------------------|
D|-6-6-8--------6-6-8-|

G|------------------------------------|
D|------------------------------------|
A|------------------------------------|
D|-88888-2h4-6666666666666--5-3-1---66|

G|---------------------------------------------|
D|---------------------------------------------|
A|---------------------------------------------|
D|-88888-2h4-6666666666666--5-3-1---66---6-6-8-|

Verse
G|----------------------------------------------------------------------------|
D|----------------------------------------------------------------------------|
A|-------------------------------3-------------------------------3------------|
D|-6h8--8-------8p6--6---6-8-6-8---8-6-6h8--8---8p6--6---6-8-6-8---8-6-6h8--8-|

G|------|
D|------|
A|------|
D|-6-6-8|

Chorus
G|------------------------------------|
D|------------------------------------|
A|------------------------------------|
D|-88888-2h4-6666666666666--5-3-1---66|x2

G|---------------------------------------------|
D|---------------------------------------------|
A|---------------------------------------------|
D|-88888-2h4-6666666666666--5-3-1---66---6-6-8-|

Verse
G|----------------------------------------------------------------------------|
D|----------------------------------------------------------------------------|
A|-------------------------------3-------------------------------3------------|
D|-6h8--8-------8p6--6---6-8-6-8---8-6-6h8--8---8p6--6---6-8-6-8---8-6-6h8--8-|


G|------|
D|------|
A|------|
D|-6-6-8|

Chorus
G|------------------------------------|
D|------------------------------------|
A|------------------------------------|
D|-88888-2h4-6666666666666--5-3-1---66|3x

G|---------------------------------------------|
D|---------------------------------------------|
A|---------------------------------------------|
D|-88888-2h4-6666666666666--5-3-1---66---6-6-8-|

Bridge
G|----------------------------------------|
D|----------------------------------------|
A|----------------------------------------|
D|-8---11-10--8h6-6--4p6-8-8-11-6---------|

G|----------------------------------------------|
D|----------------------------------------------|
A|----------------------------------------------|
D|-8---11-10--8h6-6--4p6-8-8---11----14---------|

Rest
G|------|
D|------|
A|------|
D|-6-6-8|

Chorus
G|------------------------------------|
D|------------------------------------|
A|------------------------------------|
D|-88888-2h4-6666666666666--5-3-1---66|5x

G|---------------------------------------------|
D|---------------------------------------------|
A|---------------------------------------------|
D|-88888-2h4-6666666666666--5-3-1---66---6-6-8-|
comments
We did not receive enough feedback on this tab! Please rate:
print report bad tab
1 2 3 4 5
I want to post or [tab]
guest
You may want to rate the tab now too:
select rating
Please do not post tabs as comments. Select "correction" instead!