Oops, an error
Loading. Please wait.

Sweet Pandemonium Bass Tab

by Him
ver3
ver3

Whole song

More versions @911Tabs.com
153 views 1 this week
no commentswrite comment
1 2 3 4 5
please rate
Autoscroll
+/-
esc
set tempo
stop
Contributor
WARNING: You are trying to view
                                    content from Ultimate-Guitar.com
                                    in an unauthorized application,
                                    which is prohibited.

                                    Please use an official Ultimate
                                    Guitar Tabs application for iPhone,
                                    iPad or Android to access legitimate
                                    chords, guitar, bass, and drum tabs
                                    from Ultimate-Guitar.com database.

                                    Type "ultimate guitar tabs" in Apple
                                    App Store's or Android Market's
                                    search to find the application.
#----------------------------------PLEASE NOTE---------------------------------#
#This file is the author's own work and represents their interpretation of the #
#song. You may only use this file for private study, scholarship, or research. #
#------------------------------------------------------------------------------##

                          SWEET PANDEMONIUM  (Bassline)
                              As recorded by H.I.M.
                        (From the 2003 Album LOVE METAL)

Words by Ville Valo

Music by H.I.M.
Arranged by H.I.M.
Transcribed by vitaha_z

Gtr I (E A D G) - 'bass'
Gtr II (E A D G B E) - 'keyboard'
Gtr III (E A D G B E) - 'strings'

 Intro
  Q=148
 4/4
  Gtr I
  Wx8
|--------||
|--------||
|--------||
|--------||


   Pre-Verse
    $
    H.      E E   E E Q  Q  +Q     H..       E   E E Q  H
||--------------|----------------|-------------|-------------|
||o-------------|----------------|-------------|-------------|
||o-------------|----------------|-------------|-------------|
||--3-------3-3-|---1-1--1--(1)--|-1---------1s|=8-8-8--8----|
|
|   Gtr II
|   <             <                <             <
|   W             W                W             W
||--------------|----------------|-------------|-------------|
||o-3-----------|-1--------------|-1-----------|-------------|
||--------------|----------------|-------------|-0-----------|
||--------------|----------------|-------------|-------------|
||o-------------|----------------|-------------|-------------|
||--------------|----------------|-------------|-------------|


  H.      E E   E E Q  Q  +Q     H..       E   E E Q  H
|-------------|----------------|-------------|-------------||
|-------------|----------------|-------------|-------------||
|-------------|----------------|-------------|-------------||
|-3-------3-3-|---1-1--1--(1)--|-1---------1s|=8-8-8--8----||
|
| <             <                <             <
| W             W                W             W
|-------------|----------------|-------------|-------------||
|-3-----------|-1--------------|-1-----------|-------------||
|-------------|----------------|-------------|-0-----------||
|-------------|----------------|-------------|-------------||
|-------------|----------------|-------------|-------------||
|-------------|----------------|-------------|-------------||


 Verse
   H.      E E    E  E Q  Q  +Q      H..       E   +Q   Q  H      H.      E E
|--------------|------------------|--------------|--------------|-------------|
|--------------|------------------|--------------|--------------|-------------|
|--------------|------------------|------------3-|-(3)--3--3----|-------------|
|--3-------3-3-|-----1-1--1--(1)--|--1-----------|--------------|-3-------3-3-|
|
|  >
| +W             +W                 +W             +W             W
|--------------|------------------|--------------|--------------|-------------|
|--------------|------------------|--------------|--------------|-------------|
|-(0)----------|-(0)--------------|-(0)----------|-(0)----------|-------------|
|--------------|------------------|--------------|--------------|-------------|
|--------------|------------------|--------------|--------------|-------------|
|--------------|------------------|--------------|--------------|-------------|
|
| Gtr III
|  <
|  W             +W                 +W              W             W
|--------------|------------------|--------------|--------------|-------------|
|--3-----------|-(3)--------------|-(3)----------|--4-----------|-3-----------|
|--------------|------------------|--------------|--------------|-------------|
|--------------|------------------|--------------|--------------|-------------|
|--------------|------------------|--------------|--------------|-------------|
|--------------|------------------|--------------|--------------|-------------|


                                1.
  E E Q  Q  +Q     H..       E   +E  E Q  H
|----------------|-------------|----------------||
|----------------|-------------|---------------o||
|----------------|-----------3-|-(3)-3-3--3----o||
|---1-1--1--(1)--|-1-----------|----------------||
|
| Gtr III
| W                W              W
|----------------|-------------|----------------||
|-3--------------|-3-----------|---------------o||
|----------------|-------------|--0-------------||
|----------------|-------------|----------------||
|----------------|-------------|---------------o||
|----------------|-------------|----------------||


 2.
                     To Coda
   Q   Q  E E Q    H    E E Q
|----------------|-------------||
|----------------|-------------||
|-(3)--3--3-3----|------3-3----||
|----------------|-------------||
|
|  H      H        W
|----------------|-------------||
|----------------|-------------||
|--0-------------|-------------||
|----------------|-------------||
|----------------|-------------||
|----------------|-------------||


   Chorus
    H..       E    E  E Q  H      H..       E    Q   Q  H
||--------------|---------------|-------------|--------------|
||o-------------|---------------|-------------|--------------|
||o-------------|---------------|-3---------3-|--------------|
||--5---------5-|--1--1-1--1----|-------------|--3---3--3----|
|
|   Gtr III
|   W             +W              W             +W
||--5-----------|-(5)-----------|-3-----------|-(3)----------|
||o-------------|---------------|-------------|--------------|
||--------------|---------------|-------------|--------------|
||--------------|---------------|-------------|--------------|
||o-------------|---------------|-------------|--------------|
||--------------|---------------|-------------|--------------|


                                                D.S. al Coda
  H..       E    E  E Q  H      Q  Q  Q  Q     Q    Q  E Q  E
|-------------|---------------|-------------|------------------||
|-------------|---------------|-------------|-----------------o||
|-------------|---------------|-------------|-----------------o||
|-5---------5-|--1--1-1--1----|-3--3-----3--|-------3----3-----||
|
| W             +W              W             +H..          E
|-5-----------|-(5)-----------|-3-----------|-(3)--------------||
|-------------|---------------|-------------|-----------------o||
|-------------|---------------|-------------|------------------||
|-------------|---------------|-------------|------------------||
|-------------|---------------|-------------|-----------------o||
|-------------|---------------|-------------|------------------||


 Chorus
  &
  H..       E   E E Q  H      H..       E    Q    Q   H
|-------------|-------------|-------------|-------------------|
|-------------|-------------|-------------|-------------------|
|-------------|-------------|-3---------3-|-------------------|
|-5---------5-|-1-1-1--1----|-------------|--3----3---3-------|
|
| Gtr II
| W             W             W             +H        Q    Q
|-8-----------|-7-----------|-3-----------|-(3)/-----12--/10--|
|-------------|-------------|-------------|-------------------|
|-------------|-------------|-------------|-------------------|
|-------------|-------------|-------------|-------------------|
|-------------|-------------|-------------|-------------------|
|-------------|-------------|-------------|-------------------|


  H..       E   E E Q  H       Q  Q  Q  Q      Q   Q   E Q    E
|-------------|-------------|--------------|--------------------|
|-------------|-------------|--------------|--------------------|
|-------------|-------------|--------------|--------------------|
|-5---------5-|-1-1-1--1----|--3--3-----3--|-------3-----3------|
|
| W             W              W              +Q   Q   Q    Q
|-8-----------|-7-----------|-10-----------|-(10)--3--12---10---|
|-------------|-------------|--------------|--------------------|
|-------------|-------------|--------------|--------------------|
|-------------|-------------|--------------|--------------------|
|-------------|-------------|--------------|--------------------|
|-------------|-------------|--------------|--------------------|


  H..       E   E E Q  H      H..       E    Q   Q   H
|-------------|-------------|-------------|-----------------|
|-------------|-------------|-------------|-----------------|
|-------------|-------------|-3---------3-|-----------------|
|-5---------5-|-1-1-1--1----|-------------|--3---3---3------|
|
| W             W             W             +H       Q   Q
|-8-----------|-7-----------|-3-----------|-(3)-----12--10--|
|-------------|-------------|-------------|-----------------|
|-------------|-------------|-------------|-----------------|
|-------------|-------------|-------------|-----------------|
|-------------|-------------|-------------|-----------------|
|-------------|-------------|-------------|-----------------|


  H..       E   E E Q  H       Q  Q  Q  Q      Q   Q  E Q  E
|-------------|-------------|--------------|-----------------||
|-------------|-------------|--------------|-----------------||
|-------------|-------------|--------------|-----------------||
|-5---------5-|-1-1-1--1----|--3--3-----3--|-------3----3----||
|
| W             W              W              +H      H
|-8-----------|-7-----------|-10-----------|-(10)------------||
|-------------|-------------|--------------|-----------------||
|-------------|-------------|--------------|-----------------||
|-------------|-------------|--------------|-----------------||
|-------------|-------------|--------------|-----------------||
|-------------|-------------|--------------|-----------------||


   Bridge
    W          +W           W          +H..       E
||-----------|------------|----------|----------------|
||o----------|------------|----------|----------------|
||o----------|------------|-5--------|-(5)--------5s==|
||--0--------|-(0)--------|----------|----------------|


   W           +W            +W            +W      4x
|-----------|-------------|-------------|----------||
|-----------|-------------|-------------|---------o||
|-12--------|-(12)--------|-(12)--------|-(12)----o||
|-----------|-------------|-------------|----------||
|
| Gtr II
|  W           +W            +W            +W      4x
|-17--------|-(17)--------|-(17)--------|-(17)-----||
|-----------|-------------|-------------|---------o||
|-----------|-------------|-------------|----------||
|-----------|-------------|-------------|----------||
|-----------|-------------|-------------|---------o||
|-----------|-------------|-------------|----------||


    W             W             W           W
|-------------|-------------|-------------|-----------|
|-------------|-------------|-------------|-----------|
|-------------|-------------|-------------|-----------|
|-------------|-------------|-------------|-----------|
|
|   >
|  +W            +W            +W           H    H
|-(17)--------|-(17)--------|-(17)--------|-----------|
|-------------|-------------|-------------|-----------|
|-------------|-------------|-------------|-----------|
|-------------|-------------|-------------|-----------|
|-------------|-------------|-------------|-----------|
|-------------|-------------|-------------|-----------|


  W          +W           W          +W
|----------|------------|----------|--------|
|----------|------------|----------|--------|
|-0--------|-(0)--------|-0--------|-(0)----|
|----------|------------|----------|--------|


  Q  Q  Q  Q    Q  Q  Q  Q    Q  Q  Q  Q    Q  Q  Q  Q
|-------------|-------------|-------------|-------------|
|-------------|-------------|-------------|-------------|
|-5--5--5--5--|-5--5--5--5--|-5--5--5--5--|-5--5--5--5--|
|-------------|-------------|-------------|-------------|


  Q  Q  Q  Q    Q  Q  Q  Q    Q  Q  Q  Q    Q  Q  H
|-------------|-------------|-------------|------------||
|-------------|-------------|-------------|------------||
|-5--5--5--5--|-5--5--5--5--|-5--5--5--5--|-5--5-------||
|-------------|-------------|-------------|------------||


   Chorus
    H..       E   E E Q  H      H..       E    Q    Q     H
||--------------|-------------|-------------|--------------------------|
||o-------------|-------------|-------------|--------------------------|
||o-------------|-------------|-3---------3-|--------------------------|
||--5---------5-|-1-1-1--1----|-------------|--3----3-----3------------|
|
|   Gtr II
|   W             W             W             +Q   +Q     E.  +S   Q
||--8-----------|-7-----------|-3-----------|-(3)--(3)/--12--(12)S10---|
||o-------------|-------------|-------------|--------------------------|
||--------------|-------------|-------------|--------------------------|
||--------------|-------------|-------------|--------------------------|
||o-------------|-------------|-------------|--------------------------|
||--------------|-------------|-------------|--------------------------|


  H..       E   E E Q  H       Q  Q  Q  Q      Q   Q   E Q    E
|-------------|-------------|--------------|---------------------||
|-------------|-------------|--------------|--------------------o||
|-------------|-------------|--------------|--------------------o||
|-5---------5-|-1-1-1--1----|--3--3-----3--|-------3-----3-------||
|
| W             W              W              +Q   Q   Q    Q
|-8-----------|-7-----------|-10-----------|-(10)-----12---10----||
|-------------|-------------|--------------|-------8------------o||
|-------------|-------------|--------------|---------------------||
|-------------|-------------|--------------|---------------------||
|-------------|-------------|--------------|--------------------o||
|-------------|-------------|--------------|---------------------||


    H..       E   E E Q  H      H..       E    Q   Q   Q       Q
||--------------|-------------|-------------|----------------------|
||o-------------|-------------|-------------|----------------------|
||o-------------|-------------|-3---------3-|----------------------|
||--5---------5-|-1-1-1--1----|-------------|--3---3s==8-------7---|
|
|   W             W             W             +H       E  +E   Q
||--8-----------|-7-----------|-3-----------|-(3)-----12-(12)s10---|
||o-------------|-------------|-------------|----------------------|
||--------------|-------------|-------------|----------------------|
||--------------|-------------|-------------|----------------------|
||o-------------|-------------|-------------|----------------------|
||--------------|-------------|-------------|----------------------|


  H..       E   E E Q  H       Q  q  Q  Q      Q   Q   E Q    E
|-------------|-------------|--------------|---------------------||
|-------------|-------------|--------------|--------------------o||
|-------------|-------------|--------------|--------------------o||
|-5---------5-|-1-1-1--1----|--3--3-----3--|-------3-----3-------||
|
| W             W              W              +Q   Q   Q    Q
|-8-----------|-7-----------|-10-----------|-(10)--3s=12---10----||
|-------------|-------------|--------------|--------------------o||
|-------------|-------------|--------------|---------------------||
|-------------|-------------|--------------|---------------------||
|-------------|-------------|--------------|--------------------o||
|-------------|-------------|--------------|---------------------||


 Outro
  Gtr II
  H.      Q    +H     +E  +E  Q    +W           +H       Q   Q
|-8-------7--|-(7)----(7)-(7)s3--|-(3)--------|-(3)----/12--10--|
|------------|-------------------|------------|-----------------|
|------------|-------------------|------------|-----------------|
|------------|-------------------|------------|-----------------|
|------------|-------------------|------------|-----------------|
|------------|-------------------|------------|-----------------|
|
| Gtr III
| W            +W                   W           +W
|------------|-------------------|------------|-----------------|
|------------|-------------------|------------|-----------------|
|-2----------|-(2)---------------|--0---------|-(0)-------------|
|------------|-------------------|------------|-----------------|
|------------|-------------------|------------|-----------------|
|------------|-------------------|------------|-----------------|


  H.      Q    +H.       Q     +W            +Q   Q   Q   Q
|-8-------7--|-(7)------10--|-(10)--------|-(10)--3s=12--10--|
|------------|--------------|-------------|------------------|
|------------|--------------|-------------|------------------|
|------------|--------------|-------------|------------------|
|------------|--------------|-------------|------------------|
|------------|--------------|-------------|------------------|
|
| W             W               W            +W
|------------|--------------|-------------|------------------|
|------------|--------------|-------------|------------------|
|-2----------|--------------|---0---------|--(0)-------------|
|------------|--3-----------|-------------|------------------|
|------------|--------------|-------------|------------------|
|------------|--------------|-------------|------------------|


  H.      Q    +H.      Q    +W           +H      Q    a   Q
|-8-------7--|-(7)------3--|-(3)--------|-(3)----12--(12)S10---|
|------------|-------------|------------|----------------------|
|------------|-------------|------------|----------------------|
|------------|-------------|------------|----------------------|
|------------|-------------|------------|----------------------|
|------------|-------------|------------|----------------------|
|
| W             W             W           +W
|------------|-------------|------------|----------------------|
|------------|-------------|------------|----------------------|
|-2----------|-------------|--0---------|-(0)------------------|
|------------|--3----------|------------|----------------------|
|------------|-------------|------------|----------------------|
|------------|-------------|------------|----------------------|


  H.      Q    +H     +Q    Q     +W            +W
|-8-------7--|-(7)----(7)--10--|-(10)--------|-(10)----|
|------------|-----------------|-------------|---------|
|------------|-----------------|-------------|---------|
|------------|-----------------|-------------|---------|
|------------|-----------------|-------------|---------|
|------------|-----------------|-------------|---------|
|
| W             W                  W            +W
|------------|-----------------|-------------|---------|
|------------|-----------------|-------------|---------|
|-2----------|-----------------|---0---------|--(0)----|
|------------|--3--------------|-------------|---------|
|------------|-----------------|-------------|---------|
|------------|-----------------|-------------|---------|


    W               +W            +W            +W            +W
|-(10)-----------|-(10)--------|-(10)--------|-(10)--------|-(10)----|
|----------------|-------------|-------------|-------------|---------|
|----------------|-------------|-------------|-------------|---------|
|-(12)-----------|-(12)--------|-(12)--------|-(12)--------|-(12)----|
|----------------|-------------|-------------|-------------|---------|
|----------------|-------------|-------------|-------------|---------|
|
|   <
|   Q   +H.         +W            +W            +W            +W
|----------------|-------------|-------------|-------------|---------|
|----------------|-------------|-------------|-------------|---------|
|---0---(0)------|--(0)--------|--(0)--------|--(0)--------|--(0)----|
|----------------|-------------|-------------|-------------|---------|
|---2---(2)------|--(2)--------|--(2)--------|--(2)--------|--(2)----|
|---3---(3)------|--(3)--------|--(3)--------|--(3)--------|--(3)----|


   +W            +W            +W            +W            +W
|-(10)--------|-(10)--------|-(10)--------|-(10)--------|-(10)----*|
|-------------|-------------|-------------|-------------|---------*|
|-------------|-------------|-------------|-------------|---------*|
|-(12)--------|-(12)--------|-(12)--------|-(12)--------|-(12)----*|
|-------------|-------------|-------------|-------------|---------*|
|-------------|-------------|-------------|-------------|---------*|
|
|  +W            +W            +W            +W            +W
|-------------|-------------|-------------|-------------|---------*|
|-------------|-------------|-------------|-------------|---------*|
|--(0)--------|--(0)--------|--(0)--------|--(0)--------|--(0)----*|
|-------------|-------------|-------------|-------------|---------*|
|--(2)--------|--(2)--------|--(2)--------|--(2)--------|--(2)----*|
|--(3)--------|--(3)--------|--(3)--------|--(3)--------|--(3)----*|


Duration Legend
---------------
W - whole; H - half; Q - quarter; E - 8th; S - 16th; T - 32nd; X - 64th; a - acciaccatura
+ - note tied to previous; . - note dotted; .. - note double dotted
Uncapitalized letters represent notes that are staccato (1/2 duration)
Irregular groupings are notated above the duration line
Duration letters will always appear directly above the note/fret number it represents the
duration for.  Duration letters with no fret number below them represent rests.  Multi-
bar rests are notated in the form Wxn, where n is the number of bars to rest for.  Low
melody durations appear below the staff

Tablature Legend
----------------
 h   - hammer-on
 p   - pull-off
 b   - bend
 pb  - pre-bend
 r   - bend release (if no number after the r, then release immediately)
 /\  - slide into or out of (from/to "nowhere")
 s   - legato slide
 S   - shift slide
  - natural harmonic
[n]  - artificial harmonic
n(n) - tapped harmonic
 ~   - vibrato
 tr  - trill
 T   - tap
 TP  - trem. picking
 PM  - palm muting
\n/  - tremolo bar dip; n = amount to dip
 \n  - tremolo bar down
 n/  - tremolo bar up
/n\  - tremolo bar inverted dip
 =   - hold bend; also acts as connecting device for hammers/pulls
 <>  - volume swell (louder/softer)
 x   - on rhythm slash represents muted slash
 o   - on rhythm slash represents single note slash

Misc Legend
-----------
 |  - bar
||  - double bar
||o - repeat start
o|| - repeat end
*|  - double bar (ending)
 :  - bar (freetime)
 $  - Segno
 &  - Coda
Tempo markers -  = BPM(8/16=s8/s16), where s8 = swing 8ths, s16 = swing 16ths
comments
We did not receive enough feedback on this tab! Please rate:
print report bad tab
1 2 3 4 5
I want to post or [tab]
guest
You may want to rate the tab now too:
select rating
Please do not post tabs as comments. Select "correction" instead!