Oops, an error
Loading. Please wait.

The Sacrament Bass Tab

by Him
ver3
ver3

Whole song

Interactive

More versions @911Tabs.com
230 views 1 this week
no commentswrite comment
1 2 3 4 5
please rate
add to favorites launch autoscroll
font size
0
reset
Autoscroll
+/-
esc
set tempo
stop
Contributor
WARNING: You are trying to view
                                    content from Ultimate-Guitar.com
                                    in an unauthorized application,
                                    which is prohibited.

                                    Please use an official Ultimate
                                    Guitar Tabs application for iPhone,
                                    iPad or Android to access legitimate
                                    chords, guitar, bass, and drum tabs
                                    from Ultimate-Guitar.com database.

                                    Type "ultimate guitar tabs" in Apple
                                    App Store's or Android Market's
                                    search to find the application.
#----------------------------------PLEASE NOTE---------------------------------#
#This file is the author's own work and represents their interpretation of the #
#song. You may only use this file for private study, scholarship, or research. #
#------------------------------------------------------------------------------##

                              VILLE VALO (Bassline)
                               As recorded by HIM
                        (From the 2003 Album LOVE METAL)

Words and Music by Ville Valo
Arranged by HIM
Transcribed by Axlgoose2

Gtr I (E A D G B E) - 'Burton'
Gtr II (E A D G B E) - 'Burton'
Gtr III (E A D G) - 'Mige'

   Intro
    Q=130
   4/4
    Gtr I
     E  E  E  E  E  E  E  E    E  E  E  E  E  E  E  E
||--12----------12----------|-12----------17----------|
||o----13-12-13----13-12-13-|----13-12-13----13-12-13-|
||--------------------------|-------------------------|
||--------------------------|-------------------------|
||o-------------------------|-------------------------|
||--------------------------|-------------------------|
|
|   Gtr II
|    E  E  E  E  E  E  E  E    E  E  E  E  E  E  E  E
||--------------------------|-------------------------|
||o-------------------------|-------------------------|
||--------------------------|-------------------------|
||-----14-12-14----14-12-14-|----14-12-14----14-12-14-|
||o-12----------15----------|-12-----------7----------|
||--------------------------|-------------------------|


   E  E  E  E E  E  E  E    E  E  E  E E  E  E  E
|-15--7--5--7----7--5--7-|-----7--5--7----7--5--7---||
|------------------------|-------------------------o||
|-------------9----------|--9----------9------------||
|------------------------|--------------------------||
|------------------------|-------------------------o||
|------------------------|--------------------------||
|
|  E  E  E  E E  E  E  E    E  E  E  E E  E  E  E
|------------------------|--------------------------||
|-------------0----------|-------------0-----------o||
|----12-11-12---12-11-12-|----12-11-12---12-11-12---||
|------------------------|--------------------------||
|-10---------------------|-10----------------------o||
|------------------------|--------------------------||


   E  E  E  E  E  E  E  E    E  E  E  E  E  E  E  E    E  E  E  E E  E  E  E
|-12----------12----------|-12----------17----------|-15--7--5--7----7--5--7-|
|----13-12-13----13-12-13-|----13-12-13----13-12-13-|------------------------|
|-------------------------|-------------------------|-------------9----------|
|-------------------------|-------------------------|------------------------|
|-------------------------|-------------------------|------------------------|
|-------------------------|-------------------------|------------------------|
|
|  E  E  E  E  E  E  E  E    E  E  E  E  E  E  E  E    E  E  E  E E  E  E  E
|-------------------------|-------------------------|------------------------|
|-------------------------|-------------------------|-------------0----------|
|-------------------------|-------------------------|----12-11-12---12-11-12-|
|----14-12-14----14-12-14-|----14-12-14----14-12-14-|------------------------|
|-12----------15----------|-12-----------7----------|-10---------------------|
|-------------------------|-------------------------|------------------------|


   E  E  E  E E  E  E  E    E  E  E  E  E  E  E  E
|-14--7--5--7-2--7--5--7-|-12----------12----------|
|------------------------|----13-12-13----13-12-13-|
|------------------------|-------------------------|
|------------------------|-------------------------|
|------------------------|-------------------------|
|------------------------|-------------------------|
|
|  E  E  E  E E  E  E  E    E  E  E  E  E  E  E  E
|------------------------|-------------------------|
|------------------------|-------------------------|
|----12-11-12-7-12-11-12-|-------------------------|
|--7---------------------|----14-12-14----14-12-14-|
|------------------------|-12----------15----------|
|------------------------|-------------------------|


   E  E  E  E  E  E  E  E    W
|-12----------17----------|-15----|
|----13-12-13----13-12-13-|-------|
|-------------------------|-------|
|-------------------------|-------|
|-------------------------|-------|
|-------------------------|-------|
|
|  E  E  E  E  E  E  E  E    W
|-------------------------|-------|
|-------------------------|--0----|
|-------------------------|-------|
|----14-12-14----14-12-14-|-14----|
|-12-----------7----------|-------|
|-------------------------|-------|


   4/4
    Gtr I
     E  E  E  E  E  E  E  E    E  E  E  E  E  E  E  E
||--12----------12----------|-12----------17----------|
||o----13-12-13----13-12-13-|----13-12-13----13-12-13-|
||--------------------------|-------------------------|
||--------------------------|-------------------------|
||o-------------------------|-------------------------|
||--------------------------|-------------------------|
|
|   Gtr II
|    E  E  E  E  E  E  E  E    E  E  E  E  E  E  E  E
||--------------------------|-------------------------|
||o-------------------------|-------------------------|
||--------------------------|-------------------------|
||-----14-12-14----14-12-14-|----14-12-14----14-12-14-|
||o-12----------15----------|-12-----------7----------|
||--------------------------|-------------------------|
|
|   Gtr III
|    E  E  E  E  E  E  E  E    E  E  E  E  E  E  E  E
||--------------------------|-------------------------|
||o-------------------------|-------------------------|
||o--3--3--3--3--3--3--3--3-|-------------------------|
||--------------------------|--5--5--5--5--5--5--5--5-|


   E  E  E  E E  E  E  E    E  E  E  E E  E  E  E
|-15--7--5--7----7--5--7-|-----7--5--7----7--5--7---||
|------------------------|-------------------------o||
|-------------9----------|--9----------9------------||
|------------------------|--------------------------||
|------------------------|-------------------------o||
|------------------------|--------------------------||
|
|  E  E  E  E E  E  E  E    E  E  E  E E  E  E  E
|------------------------|--------------------------||
|-------------0----------|-------------0-----------o||
|----12-11-12---12-11-12-|----12-11-12---12-11-12---||
|------------------------|--------------------------||
|-10---------------------|-10----------------------o||
|------------------------|--------------------------||
|
|  E  E  E  E E  E  E  E    E  E  E  E E  E  E  E
|------------------------|--------------------------||
|------------------------|-------------------------o||
|--7--7--7--7-7--7--7--7-|--7--7--7--7-7--7--7--7--o||
|------------------------|--------------------------||


   E  E  E  E  E  E  E  E    E  E  E  E  E  E  E  E
|-12----------12----------|-12----------17----------|
|----13-12-13----13-12-13-|----13-12-13----13-12-13-|
|-------------------------|-------------------------|
|-------------------------|-------------------------|
|-------------------------|-------------------------|
|-------------------------|-------------------------|
|
|  E  E  E  E  E  E  E  E    E  E  E  E  E  E  E  E
|-------------------------|-------------------------|
|-------------------------|-------------------------|
|-------------------------|-------------------------|
|----14-12-14----14-12-14-|----14-12-14----14-12-14-|
|-12----------15----------|-12-----------7----------|
|-------------------------|-------------------------|
|
|  E  E  E  E  E  E  E  E    E  E  E  E  E  E  E  E
|-------------------------|-------------------------|
|-------------------------|-------------------------|
|--3--3--3--3--3--3--3--3-|-------------------------|
|-------------------------|--5--5--5--5--5--5--5--5-|


   E  E  E  E E  E  E  E    E  E  E  E E  E  E  E
|-15--7--5--7----7--5--7-|-14--7--5--7-2--7--5--7-|
|------------------------|------------------------|
|-------------9----------|------------------------|
|------------------------|------------------------|
|------------------------|------------------------|
|------------------------|------------------------|
|
|  E  E  E  E E  E  E  E    E  E  E  E E  E  E  E
|------------------------|------------------------|
|-------------0----------|------------------------|
|----12-11-12---12-11-12-|----12-11-12-7-12-11-12-|
|------------------------|--7---------------------|
|-10---------------------|------------------------|
|------------------------|------------------------|
|
|  E  E  E  E E  E  E  E    E  E  E  E E  E  E  E
|------------------------|------------------------|
|------------------------|------------------------|
|--7--7--7--7-7--7--7--7-|--5--5--5--5-5--5--5--5-|
|------------------------|------------------------|


   E  E  E  E  E  E  E  E    E  E  E  E  E  E  E  E
|-12----------12----------|-12----------17----------|
|----13-12-13----13-12-13-|----13-12-13----13-12-13-|
|-------------------------|-------------------------|
|-------------------------|-------------------------|
|-------------------------|-------------------------|
|-------------------------|-------------------------|
|
|  E  E  E  E  E  E  E  E    E  E  E  E  E  E  E  E
|-------------------------|-------------------------|
|-------------------------|-------------------------|
|-------------------------|-------------------------|
|----14-12-14----14-12-14-|----14-12-14----14-12-14-|
|-12----------15----------|-12-----------7----------|
|-------------------------|-------------------------|
|
|  E  E  E  E  E  E  E  E    E  E  E  E  E  E  E  E
|-------------------------|-------------------------|
|-------------------------|-------------------------|
|--3--3--3--3--3--3--3--3-|-------------------------|
|-------------------------|--5--5--5--5--5--5--3--2-|


   E  E  E  E E  E  E  E    E   E  E  E E  E  E  E
|-15--7--5--7----7--5--7-|------7--5--7----7--5--7-|
|------------------------|-------------------------|
|-------------9----------|--9-----------9----------|
|------------------------|-------------------------|
|------------------------|-------------------------|
|------------------------|-------------------------|
|
|  E  E  E  E E  E  E  E    E   E  E  E E  E  E  E
|------------------------|-------------------------|
|-------------0----------|--------------0----------|
|----12-11-12---12-11-12-|-----12-11-12---12-11-12-|
|------------------------|-------------------------|
|-10---------------------|-10----------------------|
|------------------------|-------------------------|
|
|  W                       +W
|------------------------|-------------------------|
|------------------------|-------------------------|
|------------------------|-------------------------|
|--0---------------------|-(0)---------------------|


 Verse
  $
  Gtr III
  E E E E E E E E   E E E E E E E E   E E E E E E E E   E E E E E E E E
|-----------------|-----------------|-----------------|-----------------|
|-----------------|-----------------|-----------------|-----------------|
|-3-3-3-3-3-3-3-3-|-3-3-3-3-3-3-3-3S|=7-7-7-7-7-7-7-7-|-7-7-7-7-7-7-7-7-|
|-----------------|-----------------|-----------------|-----------------|


                                                               To Coda
  Gtr III
  E E E E E E E E   E E E E E E E E   E E E E E E E E   E E E E E E E E
|-----------------|-----------------|-----------------|-----------------|
|-----------------|-----------------|-----------------|-----------------|
|-3-3-3-3-3-3-3-3-|-3-3-3-3-3-3-3-3S|=7-7-7-7-7-7-7-7-|-7-7-7-7-7-7-7-7-|
|-----------------|-----------------|-----------------|-----------------|


   Pre-Chorus
    &
    E E E E E E E E   E E E E E E E E   E E E E E E E E   E E E E E E E E
||------------------|-----------------|-----------------|-------------------||
||o-----------------|-----------------|-----------------|------------------o||
||o-5-5-5-5-5-5-5-5-|-7-7-7-7-7-7-7-7-|-3-3-3-3-3-3-3-3-|------------------o||
||------------------|-----------------|-----------------|-3-3-3-3-3-3-3-3---||


  E E E E E E E E   E E E E E E E E   E E E E E E E E
|-----------------|-----------------|-----------------|
|-----------------|-----------------|-----------------|
|-5-5-5-5-5-5-5-5-|-7-7-7-7-7-7-7-7-|-3-3-3-3-3-3-3-3-|
|-----------------|-----------------|-----------------|


                                        To Coda
                                    ~~
  E E E E E E E E   H.    +E    E   H.     E E
|-----------------|---------------|-------------|
|-----------------|---------------|-------------|
|-----------------|-5-----(5)---7-|-9------7-5--|
|-3-3-3-3-3-3-3-3-|---------------|-------------|


   Chorus
   4/4
    Gtr I
     E  E  E  E  E  E  E  E    E  E  E  E  E  E  E  E
||--12----------12----------|-12----------17----------|
||o----13-12-13----13-12-13-|----13-12-13----13-12-13-|
||--------------------------|-------------------------|
||--------------------------|-------------------------|
||o-------------------------|-------------------------|
||--------------------------|-------------------------|
|
|   Gtr II
|    E  E  E  E  E  E  E  E    E  E  E  E  E  E  E  E
||--------------------------|-------------------------|
||o-------------------------|-------------------------|
||--------------------------|-------------------------|
||-----14-12-14----14-12-14-|----14-12-14----14-12-14-|
||o-12----------15----------|-12-----------7----------|
||--------------------------|-------------------------|
|
|   Gtr III
|    E  E  E  E  E  E  E  E    E  E  E  E  E  E  E  E
||--------------------------|-------------------------|
||o-------------------------|-------------------------|
||o--3--3--3--3--3--3--3--3-|-------------------------|
||--------------------------|--5--5--5--5--5--5--5--5-|


   E  E  E  E E  E  E  E    E  E  E  E E  E  E  E
|-15--7--5--7----7--5--7-|-----7--5--7----7--5--7---||
|------------------------|-------------------------o||
|-------------9----------|--9----------9------------||
|------------------------|--------------------------||
|------------------------|-------------------------o||
|------------------------|--------------------------||
|
|  E  E  E  E E  E  E  E    E  E  E  E E  E  E  E
|------------------------|--------------------------||
|-------------0----------|-------------0-----------o||
|----12-11-12---12-11-12-|----12-11-12---12-11-12---||
|------------------------|--------------------------||
|-10---------------------|-10----------------------o||
|------------------------|--------------------------||
|
|  E  E  E  E E  E  E  E    E  E  E  E E  E  E  E
|------------------------|--------------------------||
|------------------------|-------------------------o||
|--7--7--7--7-7--7--7--7-|--7--7--7--7-7--7--7--7--o||
|------------------------|--------------------------||


   E  E  E  E  E  E  E  E    E  E  E  E  E  E  E  E
|-12----------12----------|-12----------17----------|
|----13-12-13----13-12-13-|----13-12-13----13-12-13-|
|-------------------------|-------------------------|
|-------------------------|-------------------------|
|-------------------------|-------------------------|
|-------------------------|-------------------------|
|
|  E  E  E  E  E  E  E  E    E  E  E  E  E  E  E  E
|-------------------------|-------------------------|
|-------------------------|-------------------------|
|-------------------------|-------------------------|
|----14-12-14----14-12-14-|----14-12-14----14-12-14-|
|-12----------15----------|-12-----------7----------|
|-------------------------|-------------------------|
|
|  E  E  E  E  E  E  E  E    E  E  E  E  E  E  E  E
|-------------------------|-------------------------|
|-------------------------|-------------------------|
|--3--3--3--3--3--3--3--3-|-------------------------|
|-------------------------|--5--5--5--5--5--5--5--5-|


   E  E  E  E E  E  E  E    E  E  E  E E  E  E  E
|-15--7--5--7----7--5--7-|-14--7--5--7-2--7--5--7-|
|------------------------|------------------------|
|-------------9----------|------------------------|
|------------------------|------------------------|
|------------------------|------------------------|
|------------------------|------------------------|
|
|  E  E  E  E E  E  E  E    E  E  E  E E  E  E  E
|------------------------|------------------------|
|-------------0----------|------------------------|
|----12-11-12---12-11-12-|----12-11-12-7-12-11-12-|
|------------------------|--7---------------------|
|-10---------------------|------------------------|
|------------------------|------------------------|
|
|  E  E  E  E E  E  E  E    E  E  E  E E  E  E  E
|------------------------|------------------------|
|------------------------|------------------------|
|--7--7--7--7-7--7--7--7-|--5--5--5--5-5--5--5--5-|
|------------------------|------------------------|


   E  E  E  E  E  E  E  E    E  E  E  E  E  E  E  E
|-12----------12----------|-12----------17----------|
|----13-12-13----13-12-13-|----13-12-13----13-12-13-|
|-------------------------|-------------------------|
|-------------------------|-------------------------|
|-------------------------|-------------------------|
|-------------------------|-------------------------|
|
|  E  E  E  E  E  E  E  E    E  E  E  E  E  E  E  E
|-------------------------|-------------------------|
|-------------------------|-------------------------|
|-------------------------|-------------------------|
|----14-12-14----14-12-14-|----14-12-14----14-12-14-|
|-12----------15----------|-12-----------7----------|
|-------------------------|-------------------------|
|
|  E  E  E  E  E  E  E  E    E  E  E  E  E  E  E  E
|-------------------------|-------------------------|
|-------------------------|-------------------------|
|--3--3--3--3--3--3--3--3-|-------------------------|
|-------------------------|--5--5--5--5--5--5--3--2-|


                                    D.S. al Coda
   E  E  E  E E  E  E  E    E   E  E  E E  E  E  E
|-15--7--5--7----7--5--7-|------7--5--7----7--5--7-|
|------------------------|-------------------------|
|-------------9----------|--9-----------9----------|
|------------------------|-------------------------|
|------------------------|-------------------------|
|------------------------|-------------------------|
|
|  E  E  E  E E  E  E  E    E   E  E  E E  E  E  E
|------------------------|-------------------------|
|-------------0----------|--------------0----------|
|----12-11-12---12-11-12-|-----12-11-12---12-11-12-|
|------------------------|-------------------------|
|-10---------------------|-10----------------------|
|------------------------|-------------------------|
|
|  W                       +W
|------------------------|-------------------------|
|------------------------|-------------------------|
|------------------------|-------------------------|
|--0---------------------|-(0)---------------------|


   Chorus
    &
    &
   4/4
    Gtr I
     E  E  E  E  E  E  E  E    E  E  E  E  E  E  E  E
||--12----------12----------|-12----------17----------|
||o----13-12-13----13-12-13-|----13-12-13----13-12-13-|
||--------------------------|-------------------------|
||--------------------------|-------------------------|
||o-------------------------|-------------------------|
||--------------------------|-------------------------|
|
|   Gtr II
|    E  E  E  E  E  E  E  E    E  E  E  E  E  E  E  E
||--------------------------|-------------------------|
||o-------------------------|-------------------------|
||--------------------------|-------------------------|
||-----14-12-14----14-12-14-|----14-12-14----14-12-14-|
||o-12----------15----------|-12-----------7----------|
||--------------------------|-------------------------|
|
|   Gtr III
|    E  E  E  E  E  E  E  E    E  E  E  E  E  E  E  E
||--------------------------|-------------------------|
||o-------------------------|-------------------------|
||o--3--3--3--3--3--3--3--3-|-------------------------|
||--------------------------|--5--5--5--5--5--5--5--5-|


   E  E  E  E E  E  E  E    E  E  E  E E  E  E  E
|-15--7--5--7----7--5--7-|-----7--5--7----7--5--7---||
|------------------------|-------------------------o||
|-------------9----------|--9----------9------------||
|------------------------|--------------------------||
|------------------------|-------------------------o||
|------------------------|--------------------------||
|
|  E  E  E  E E  E  E  E    E  E  E  E E  E  E  E
|------------------------|--------------------------||
|-------------0----------|-------------0-----------o||
|----12-11-12---12-11-12-|----12-11-12---12-11-12---||
|------------------------|--------------------------||
|-10---------------------|-10----------------------o||
|------------------------|--------------------------||
|
|  E  E  E  E E  E  E  E    E  E  E  E E  E  E  E
|------------------------|--------------------------||
|------------------------|-------------------------o||
|--7--7--7--7-7--7--7--7-|--7--7--7--7-7--7--7--7--o||
|------------------------|--------------------------||


   E  E  E  E  E  E  E  E    E  E  E  E  E  E  E  E
|-12----------12----------|-12----------17----------|
|----13-12-13----13-12-13-|----13-12-13----13-12-13-|
|-------------------------|-------------------------|
|-------------------------|-------------------------|
|-------------------------|-------------------------|
|-------------------------|-------------------------|
|
|  E  E  E  E  E  E  E  E    E  E  E  E  E  E  E  E
|-------------------------|-------------------------|
|-------------------------|-------------------------|
|-------------------------|-------------------------|
|----14-12-14----14-12-14-|----14-12-14----14-12-14-|
|-12----------15----------|-12-----------7----------|
|-------------------------|-------------------------|
|
|  E  E  E  E  E  E  E  E    E  E  E  E  E  E  E  E
|-------------------------|-------------------------|
|-------------------------|-------------------------|
|--3--3--3--3--3--3--3--3-|-------------------------|
|-------------------------|--5--5--5--5--5--5--5--5-|


   E  E  E  E E  E  E  E    E  E  E  E E  E  E  E
|-15--7--5--7----7--5--7-|-14--7--5--7-2--7--5--7-|
|------------------------|------------------------|
|-------------9----------|------------------------|
|------------------------|------------------------|
|------------------------|------------------------|
|------------------------|------------------------|
|
|  E  E  E  E E  E  E  E    E  E  E  E E  E  E  E
|------------------------|------------------------|
|-------------0----------|------------------------|
|----12-11-12---12-11-12-|----12-11-12-7-12-11-12-|
|------------------------|--7---------------------|
|-10---------------------|------------------------|
|------------------------|------------------------|
|
|  E  E  E  E E  E  E  E    E  E  E  E E  E  E  E
|------------------------|------------------------|
|------------------------|------------------------|
|--7--7--7--7-7--7--7--7-|--5--5--5--5-5--5--5--5-|
|------------------------|------------------------|


   E  E  E  E  E  E  E  E    E  E  E  E  E  E  E  E    W           +W
|-12----------12----------|-12----------17----------|-15--------|-(15)----|
|----13-12-13----13-12-13-|----13-12-13----13-12-13-|-----------|---------|
|-------------------------|-------------------------|-----------|---------|
|-------------------------|-------------------------|-----------|---------|
|-------------------------|-------------------------|-----------|---------|
|-------------------------|-------------------------|-----------|---------|
|
|  E  E  E  E  E  E  E  E    E  E  E  E  E  E  E  E    W           +W
|-------------------------|-------------------------|-----------|---------|
|-------------------------|-------------------------|--0--------|--(0)----|
|-------------------------|-------------------------|-----------|---------|
|----14-12-14----14-12-14-|----14-12-14----14-12-14-|-14--------|-(14)----|
|-12----------15----------|-12-----------7----------|-----------|---------|
|-------------------------|-------------------------|-----------|---------|
|
|  E  E  E  E  E  E  E  E    E  E  E  E  E  E  E  E    W           +W
|-------------------------|-------------------------|-----------|---------|
|-------------------------|-------------------------|-----------|---------|
|--3--3--3--3--3--3--3--3-|-------------------------|-----------|---------|
|-------------------------|--5--5--5--5--5--5--3--2-|--0--------|--(0)----|


   Piano Breakdown
   4/4
    Gtr I
     E  E  E  E  E  E  E  E    E  E  E  E  E  E  E  E
||--12----------12----------|-12----------17----------|
||o----13-12-13----13-12-13-|----13-12-13----13-12-13-|
||--------------------------|-------------------------|
||--------------------------|-------------------------|
||o-------------------------|-------------------------|
||--------------------------|-------------------------|
|
|   Gtr II
|    E  E  E  E  E  E  E  E    E  E  E  E  E  E  E  E
||--------------------------|-------------------------|
||o-------------------------|-------------------------|
||--------------------------|-------------------------|
||-----14-12-14----14-12-14-|----14-12-14----14-12-14-|
||o-12----------15----------|-12-----------7----------|
||--------------------------|-------------------------|


   E  E  E  E E  E  E  E    E  E  E  E E  E  E  E   3x
|-15--7--5--7----7--5--7-|-----7--5--7----7--5--7---||
|------------------------|-------------------------o||
|-------------9----------|--9----------9------------||
|------------------------|--------------------------||
|------------------------|-------------------------o||
|------------------------|--------------------------||
|
|  E  E  E  E E  E  E  E    E  E  E  E E  E  E  E   3x
|------------------------|--------------------------||
|-------------0----------|-------------0-----------o||
|----12-11-12---12-11-12-|----12-11-12---12-11-12---||
|------------------------|--------------------------||
|-10---------------------|-10----------------------o||
|------------------------|--------------------------||


   E  E  E  E  E  E  E  E    E  E  E  E  E  E  E  E
|-12----------12----------|-12----------17----------|
|----13-12-13----13-12-13-|----13-12-13----13-12-13-|
|-------------------------|-------------------------|
|-------------------------|-------------------------|
|-------------------------|-------------------------|
|-------------------------|-------------------------|
|
|  E  E  E  E  E  E  E  E    E  E  E  E  E  E  E  E
|-------------------------|-------------------------|
|-------------------------|-------------------------|
|-------------------------|-------------------------|
|----14-12-14----14-12-14-|----14-12-14----14-12-14-|
|-12----------15----------|-12-----------7----------|
|-------------------------|-------------------------|


   E  E  E  E E  E  E  E    E  E  E  E E  E  E  E
|-15--7--5--7----7--5--7-|-----7--5--7----7--5--7-|
|------------------------|------------------------|
|-------------9----------|--9----------9----------|
|------------------------|------------------------|
|------------------------|------------------------|
|------------------------|------------------------|
|
|                           >
|  E  E  E  E E  E  E  E    E  E  E  E E  E  E  E
|------------------------|------------------------|
|-------------0----------|-------------0----------|
|----12-11-12---12-11-12-|----12-11-12---12-11-12-|
|------------------------|------------------------|
|-10---------------------|-10---------------------|
|------------------------|------------------------|


   Chorus
   4/4
    Gtr I
     E  E  E  E  E  E  E  E    E  E  E  E  E  E  E  E
||--12----------12----------|-12----------17----------|
||o----13-12-13----13-12-13-|----13-12-13----13-12-13-|
||--------------------------|-------------------------|
||--------------------------|-------------------------|
||o-------------------------|-------------------------|
||--------------------------|-------------------------|
|
|   Gtr II
|    E  E  E  E  E  E  E  E    E  E  E  E  E  E  E  E
||--------------------------|-------------------------|
||o-------------------------|-------------------------|
||--------------------------|-------------------------|
||-----14-12-14----14-12-14-|----14-12-14----14-12-14-|
||o-12----------15----------|-12-----------7----------|
||--------------------------|-------------------------|
|
|   Gtr III
|    E  E  E  E  E  E  E  E    E  E  E  E  E  E  E  E
||--------------------------|-------------------------|
||o-------------------------|-------------------------|
||o--3--3--3--3--3--3--3--3-|-------------------------|
||--------------------------|--5--5--5--5--5--5--5--5-|


   E  E  E  E E  E  E  E    E  E  E  E E  E  E  E
|-15--7--5--7----7--5--7-|-----7--5--7----7--5--7---||
|------------------------|-------------------------o||
|-------------9----------|--9----------9------------||
|------------------------|--------------------------||
|------------------------|-------------------------o||
|------------------------|--------------------------||
|
|  E  E  E  E E  E  E  E    E  E  E  E E  E  E  E
|------------------------|--------------------------||
|-------------0----------|-------------0-----------o||
|----12-11-12---12-11-12-|----12-11-12---12-11-12---||
|------------------------|--------------------------||
|-10---------------------|-10----------------------o||
|------------------------|--------------------------||
|
|  E  E  E  E E  E  E  E    E  E  E  E E  E  E  E
|------------------------|--------------------------||
|------------------------|-------------------------o||
|--7--7--7--7-7--7--7--7-|--7--7--7--7-7--7--7--7--o||
|------------------------|--------------------------||


   E  E  E  E  E  E  E  E    E  E  E  E  E  E  E  E
|-12----------12----------|-12----------17----------|
|----13-12-13----13-12-13-|----13-12-13----13-12-13-|
|-------------------------|-------------------------|
|-------------------------|-------------------------|
|-------------------------|-------------------------|
|-------------------------|-------------------------|
|
|  E  E  E  E  E  E  E  E    E  E  E  E  E  E  E  E
|-------------------------|-------------------------|
|-------------------------|-------------------------|
|-------------------------|-------------------------|
|----14-12-14----14-12-14-|----14-12-14----14-12-14-|
|-12----------15----------|-12-----------7----------|
|-------------------------|-------------------------|
|
|  E  E  E  E  E  E  E  E    E  E  E  E  E  E  E  E
|-------------------------|-------------------------|
|-------------------------|-------------------------|
|--3--3--3--3--3--3--3--3-|-------------------------|
|-------------------------|--5--5--5--5--5--5--5--5-|


   E  E  E  E E  E  E  E    E  E  E  E E  E  E  E
|-15--7--5--7----7--5--7-|-14--7--5--7-2--7--5--7-|
|------------------------|------------------------|
|-------------9----------|------------------------|
|------------------------|------------------------|
|------------------------|------------------------|
|------------------------|------------------------|
|
|  E  E  E  E E  E  E  E    E  E  E  E E  E  E  E
|------------------------|------------------------|
|-------------0----------|------------------------|
|----12-11-12---12-11-12-|----12-11-12-7-12-11-12-|
|------------------------|--7---------------------|
|-10---------------------|------------------------|
|------------------------|------------------------|
|
|  E  E  E  E E  E  E  E    E  E  E  E E  E  E  E
|------------------------|------------------------|
|------------------------|------------------------|
|--7--7--7--7-7--7--7--7-|--5--5--5--5-5--5--5--5-|
|------------------------|------------------------|


   E  E  E  E  E  E  E  E    E  E  E  E  E  E  E  E
|-12----------12----------|-12----------17----------|
|----13-12-13----13-12-13-|----13-12-13----13-12-13-|
|-------------------------|-------------------------|
|-------------------------|-------------------------|
|-------------------------|-------------------------|
|-------------------------|-------------------------|
|
|  E  E  E  E  E  E  E  E    E  E  E  E  E  E  E  E
|-------------------------|-------------------------|
|-------------------------|-------------------------|
|-------------------------|-------------------------|
|----14-12-14----14-12-14-|----14-12-14----14-12-14-|
|-12----------15----------|-12-----------7----------|
|-------------------------|-------------------------|
|
|  E  E  E  E  E  E  E  E    E  E  E  E  E  E  E  E
|-------------------------|-------------------------|
|-------------------------|-------------------------|
|--3--3--3--3--3--3--3--3-|-------------------------|
|-------------------------|--5--5--5--5--5--5--5--5-|


   E  E  E  E E  E  E  E    E  E  E  E E  E  E  E
|-15--7--5--7----7--5--7-|-----7--5--7----7--5--7-|
|------------------------|------------------------|
|-------------9----------|--9----------9----------|
|------------------------|------------------------|
|------------------------|------------------------|
|------------------------|------------------------|
|
|  E  E  E  E E  E  E  E    E  E  E  E E  E  E  E
|------------------------|------------------------|
|-------------0----------|-------------0----------|
|----12-11-12---12-11-12-|----12-11-12---12-11-12-|
|------------------------|------------------------|
|-10---------------------|-10---------------------|
|------------------------|------------------------|
|
|  E  E  E  E E  E  E  E    E  E  E  E E  E  E  E
|------------------------|------------------------|
|------------------------|------------------------|
|--7--7--7--7-7--7--7--7-|--7--7--7--7-7--7--7--7-|
|------------------------|------------------------|


 4/4
  Gtr I
   E  E  E  E  E  E  E  E    E  E  E  E  E  E  E  E
|-12----------12----------|-12----------17----------|
|----13-12-13----13-12-13-|----13-12-13----13-12-13-|
|-------------------------|-------------------------|
|-------------------------|-------------------------|
|-------------------------|-------------------------|
|-------------------------|-------------------------|
|
| Gtr II
|  E  E  E  E  E  E  E  E    E  E  E  E  E  E  E  E
|-------------------------|-------------------------|
|-------------------------|-------------------------|
|-------------------------|-------------------------|
|----14-12-14----14-12-14-|----14-12-14----14-12-14-|
|-12----------15----------|-12-----------7----------|
|-------------------------|-------------------------|
|
| Gtr III
|  E  E  E  E  E  E  E  E    E  E  E  E  E  E  E  E
|-------------------------|-------------------------|
|-------------------------|-------------------------|
|--3--3--3--3--3--3--3--3-|-------------------------|
|-------------------------|--5--5--5--5--5--5--5--5-|


   E  E  E  E E  E  E  E    E  E  E  E E  E  E  E
|-15--7--5--7----7--5--7-|-----7--5--7----7--5--7-|
|------------------------|------------------------|
|-------------9----------|--9----------9----------|
|------------------------|------------------------|
|------------------------|------------------------|
|------------------------|------------------------|
|
|  E  E  E  E E  E  E  E    E  E  E  E E  E  E  E
|------------------------|------------------------|
|-------------0----------|-------------0----------|
|----12-11-12---12-11-12-|----12-11-12---12-11-12-|
|------------------------|------------------------|
|-10---------------------|-10---------------------|
|------------------------|------------------------|
|
|  E  E  E  E E  E  E  E    E  E  E  E E  E  E  E
|------------------------|------------------------|
|------------------------|------------------------|
|--7--7--7--7-7--7--7--7-|--7--7--7--7-7--7--7--7-|
|------------------------|------------------------|


   E  E  E  E  E  E  E  E    E  E  E  E  E  E  E  E
|-12----------12----------|-12----------17----------|
|----13-12-13----13-12-13-|----13-12-13----13-12-13-|
|-------------------------|-------------------------|
|-------------------------|-------------------------|
|-------------------------|-------------------------|
|-------------------------|-------------------------|
|
|  E  E  E  E  E  E  E  E    E  E  E  E  E  E  E  E
|-------------------------|-------------------------|
|-------------------------|-------------------------|
|-------------------------|-------------------------|
|----14-12-14----14-12-14-|----14-12-14----14-12-14-|
|-12----------15----------|-12-----------7----------|
|-------------------------|-------------------------|
|
|  E  E  E  E  E  E  E  E    E  E  E  E  E  E  E  E
|-------------------------|-------------------------|
|-------------------------|-------------------------|
|--3--3--3--3--3--3--3--3-|-------------------------|
|-------------------------|--5--5--5--5--5--5--5--5-|


   E  E  E  E E  E  E  E    E  E  E  E E  E  E  E
|-15--7--5--7----7--5--7-|-14--7--5--7-2--7--5--7-|
|------------------------|------------------------|
|-------------9----------|------------------------|
|------------------------|------------------------|
|------------------------|------------------------|
|------------------------|------------------------|
|
|  E  E  E  E E  E  E  E    E  E  E  E E  E  E  E
|------------------------|------------------------|
|-------------0----------|------------------------|
|----12-11-12---12-11-12-|----12-11-12-7-12-11-12-|
|------------------------|--7---------------------|
|-10---------------------|------------------------|
|------------------------|------------------------|
|
|  E  E  E  E E  E  E  E    E  E  E  E E  E  E  E
|------------------------|------------------------|
|------------------------|------------------------|
|--7--7--7--7-7--7--7--7-|--5--5--5--5-5--5--5--5-|
|------------------------|------------------------|


   E  E  E  E  E  E  E  E    E  E  E  E  E  E  E  E
|-12----------12----------|-12----------17----------|
|----13-12-13----13-12-13-|----13-12-13----13-12-13-|
|-------------------------|-------------------------|
|-------------------------|-------------------------|
|-------------------------|-------------------------|
|-------------------------|-------------------------|
|
|  E  E  E  E  E  E  E  E    E  E  E  E  E  E  E  E
|-------------------------|-------------------------|
|-------------------------|-------------------------|
|-------------------------|-------------------------|
|----14-12-14----14-12-14-|----14-12-14----14-12-14-|
|-12----------15----------|-12-----------7----------|
|-------------------------|-------------------------|
|
|  E  E  E  E  E  E  E  E    E  E  E  E  E  E  E  E
|-------------------------|-------------------------|
|-------------------------|-------------------------|
|--3--3--3--3--3--3--3--3-|-------------------------|
|-------------------------|--5--5--5--5--5--5--5--5-|


   E  E  E  E E  E  E  E    E  E  E  E E  E  E  E
|-15--7--5--7----7--5--7-|-14--7--5--7-2--7--5--7-|
|------------------------|------------------------|
|-------------9----------|------------------------|
|------------------------|------------------------|
|------------------------|------------------------|
|------------------------|------------------------|
|
|  E  E  E  E E  E  E  E    E  E  E  E E  E  E  E
|------------------------|------------------------|
|-------------0----------|------------------------|
|----12-11-12---12-11-12-|----12-11-12-7-12-11-12-|
|------------------------|--7---------------------|
|-10---------------------|------------------------|
|------------------------|------------------------|
|
|  E  E  E  E E  E  E  E    E  E  E  E E  E  E  E
|------------------------|------------------------|
|------------------------|------------------------|
|--7--7--7--7-7--7--7--7-|--5--5--5--5-5--5--5--5-|
|------------------------|------------------------|


 4/4
  Gtr I
   E  E  E  E  E  E  E  E    E  E  E  E  E  E  E  E    E  E  E  E E  E  E  E
|-12----------12----------|-12----------17----------|-15--7--5--7----7--5--7--*|
|----13-12-13----13-12-13-|----13-12-13----13-12-13-|-------------------------*|
|-------------------------|-------------------------|-------------9-----------*|
|-------------------------|-------------------------|-------------------------*|
|-------------------------|-------------------------|-------------------------*|
|-------------------------|-------------------------|-------------------------*|
|
| Gtr II
|  E  E  E  E  E  E  E  E    E  E  E  E  E  E  E  E    E  E  E  E E  E  E  E
|-------------------------|-------------------------|-------------------------*|
|-------------------------|-------------------------|-------------0-----------*|
|-------------------------|-------------------------|----12-11-12---12-11-12--*|
|----14-12-14----14-12-14-|----14-12-14----14-12-14-|-------------------------*|
|-12----------15----------|-12-----------7----------|-10----------------------*|
|-------------------------|-------------------------|-------------------------*|
|
| Gtr III
|  E  E  E  E  E  E  E  E    W                         W
|-------------------------|-------------------------|-------------------------*|
|-------------------------|-------------------------|-------------------------*|
|--3--3--3--3--3--3--3--3-|-------------------------|-------------------------*|
|-------------------------|--5----------------------|-------------------------*|


Duration Legend
---------------
W - whole; H - half; Q - quarter; E - 8th; S - 16th; T - 32nd; X - 64th; a - acciaccatura
+ - note tied to previous; . - note dotted; .. - note double dotted
Uncapitalized letters represent notes that are staccato (1/2 duration)
Irregular groupings are notated above the duration line
Duration letters will always appear directly above the note/fret number it represents the
duration for.  Duration letters with no fret number below them represent rests.  Multi-
bar rests are notated in the form Wxn, where n is the number of bars to rest for.  Low
melody durations appear below the staff

Tablature Legend
----------------
 h   - hammer-on
 p   - pull-off
 b   - bend
 pb  - pre-bend
 r   - bend release (if no number after the r, then release immediately)
 /\  - slide into or out of (from/to "nowhere")
 s   - legato slide
 S   - shift slide
<n>  - natural harmonic
[n]  - artificial harmonic
n(n) - tapped harmonic
 ~   - vibrato
 tr  - trill
 T   - tap
 TP  - trem. picking
 PM  - palm muting
\n/  - tremolo bar dip; n = amount to dip
 \n  - tremolo bar down
 n/  - tremolo bar up
/n\  - tremolo bar inverted dip
 =   - hold bend; also acts as connecting device for hammers/pulls
 <>  - volume swell (louder/softer)
 x   - on rhythm slash represents muted slash
 o   - on rhythm slash represents single note slash

Misc Legend
-----------
 |  - bar
||  - double bar
||o - repeat start
o|| - repeat end
*|  - double bar (ending)
 :  - bar (freetime)
 $  - Segno
 &  - Coda
Tempo markers - <E/E./Q/Q./H/H.> = BPM(8/16=s8/s16), where s8 = swing 8ths, s16 = swing 16ths
comments
We did not receive enough feedback on this tab! Please rate:
print report bad tab
1 2 3 4 5
I want to post or [tab]
guest
You may want to rate the tab now too:
select rating
Please do not post tabs as comments. Select "correction" instead!