Oops, an error
Loading. Please wait.

Save Your Breath Tab

ver2
ver2

Whole song

Interactive

More versions @911Tabs.com
940 views 1 this week
no commentswrite comment
1 2 3 4 5
please rate
Autoscroll
+/-
esc
set tempo
stop
Contributor
Hey! There's an official Ultimate Guitar app which is ideal
for learning songs when you're away from computer. Get the app
WARNING: You are trying to view
                                    content from Ultimate-Guitar.com
                                    in an unauthorized application,
                                    which is prohibited.

                                    Please use an official Ultimate
                                    Guitar Tabs application for iPhone,
                                    iPad or Android to access legitimate
                                    chords, guitar, bass, and drum tabs
                                    from Ultimate-Guitar.com database.

                                    Type "ultimate guitar tabs" in Apple
                                    App Store's or Android Market's
                                    search to find the application.
Lead Guitar
      Q    S S S S S E.  S S S S    Q    S S S S S E.  S E.   
D#||-----------------------------|---------------------------|
A#||-----------------------------|---------------------------|
F#||-----------------------------|---------------4-4---------|
C#||--2------------4-4-----------|--2------------4-4---4-4---|
G#||--2----2-2-2-2-4-4---2-2-2-2-|--2----2-2-2-2-2-2---4-4---|
C#||--2------------4-4-----------|--2------------------4-4---|


  Q    S S S S S E.  S S S S    Q    S S S S S E.  S E.   
-----------------------------|---------------------------|
-----------------------------|---------------------------|
-------4-4-4-4-------4-4-4-4-|-------4-4-4-4-4-4---------|
--2------------4-4-----------|--2------------4-4---4-4---|
--2----2-2-2-2-4-4---2-2-2-2-|--2----2-2-2-2-2-2---4-4---|
--2------------4-4-----------|--2------------------4-4---|


  Q    S S S S S E.  S S S S    Q    S S S S S E.  S E.   
-----------------------------|---------------------------|
-----------------------------|---------------------------|
-------4-4-4-4-------4-4-4-4-|-------4-4-4-4-4-4---------|
--2--------------4-----------|--2------------4-4---4-4---|
--2----2-2-2-2-4-4---2-2-2-2-|--2----2-2-2-2-2-2---4-4---|
--2------------4-4-----------|--2------------------4-4---|


  Q    S S S S S E.  S S S S    Q    S S S S S E.  S E.   
-----------------------------|---------------------------|
-----------------------------|---------------------------|
-------4-4-4-4-------4-4-4-4-|-------4-4-4-4-4-4---------|
--2------------4-4-----------|--2------------4-4---4-4---|
--2----2-2-2-2-4-4---2-2-2-2-|--2----2-2-2-2-2-2---4-4---|
--2------------4-4-----------|--2------------------4-4---|


  E  E  E  E  E  E  E  E     E  E  E  E  E  E  E  E   
--------------------------|--------------------------|
--------------------------|--------------------------|
--------------------------|--------------------------|
--6--6--6--6--6--6--6--6--|--2--2--2--2--2--2--2--2--|
--6--6--6--6--6--6--6--6--|--2--2--2--2--2--2--2--2--|
--6--6--6--6--6--6--6--6--|--2--2--2--2--2--2--2--2--|


  E  E  E  E  E  E  E  E     E  E  E  E  E  E  E  E   
--------------------------|--------------------------|
--------------------------|--------------------------|
--------------------------|--------------------------|
--4--4--4--4--4--4--4--4--|--4--4--4--4--4--4--4--4--|
--4--4--4--4--4--4--4--4--|--4--4--4--4--4--4--4--4--|
--4--4--4--4--4--4--4--4--|--4--4--4--4--4--4--4--4--|


  E  E  E  E  E  E  E  E     E  E  E  E  E  E  E  E   
--------------------------|--------------------------|
--------------------------|--------------------------|
--------------------------|--------------------------|
--6--6--6--6--6--6--6--6--|--2--2--2--2--2--2--2--2--|
--6--6--6--6--6--6--6--6--|--2--2--2--2--2--2--2--2--|
--6--6--6--6--6--6--6--6--|--2--2--2--2--2--2--2--2--|


  E  E  E  E  E  E  E  E     E  S S S S S S S S S S S S S S  
--------------------------|---------------------------------|
--------------------------|-----0-0-0-0-0-0-0-0-0-0-0-0-0-0-|
--------------------------|---------------------------------|
--4--4--4--4--4--4--4--4--|--2--4-4-4-4-4-4-4-4-4-4-4-4-4-4-|
--4--4--4--4--4--4--4--4--|--2--2-2-2-2-2-2-2-2-2-2-2-2-2-2-|
--4--4--4--4--4--4--4--4--|--2------------------------------|


  Q    E  E  E  E  E  E     Q    E  Q     Q     E     Q    E  Q    E  E  E   
-------------------------|-------------------------|------------------------|
-------------------------|-------------------------|------------------------|
-------------------------|----------6-----8-----6--|----------4----4--4--4--|
--2----2--2-----2--2--2--|--2----2-----------------|--6----6--4----4--4--4--|
--2----2--2--L--2--2--2--|--2----2--4s----6s----4--|--6----6--2----2--2--2--|
--2----2--2-----2--2--2--|--2----2-----------------|--6----6----------------|


  Q    E  Q    E  E  E     E  E  E  E  E  E  E  E     E  E  E  E  E  E  E  E   
------------------------|--------------------------|--------------------------|
------------------------|--------------------------|--------------------------|
------------------------|--------------------------|--------------------------|
--2----2--2----2--2--2--|--6--6--6--6--6--6--6--6--|--2--2--2--2--2--2--2--2--|
--2----2--2----2--2--2--|--6--6--6--6--6--6--6--6--|--2--2--2--2--2--2--2--2--|
--2----2--2----2--2--2--|--6--6--6--6--6--6--6--6--|--2--2--2--2--2--2--2--2--|


  E  E  E  E  E  E  E  E     Q    Q    Q    S S E     Q    Q    E  E.  E  S  
--------------------------|------------------------|------------------------|
--------------------------|------------------------|------------------------|
--------------------------|------------------------|------------------------|
--4--4--4--4--4--4--4--4--|--2----2-----------4-L--|--2------------2---4--L-|
--4--4--4--4--4--4--4--4--|--2----2-----------4-L--|--2------------2---4--L-|
--4--4--4--4--4--4--4--4--|--2----2-----------4-L--|--2------------2---4--L-|


  Q    Q    Q    Q       Q    Q    E  E.  E  S    Q    Q    Q    Q     
----------------------|------------------------|----------------------|
----------------------|------------------------|----------------------|
------------4---------|------------------------|------------4---------|
--6---------4----4----|--2------------2---4--L-|--6---------4----4----|
--6---------2----4----|--2------------2---4--L-|--6---------2----4----|
--6--------------4----|--2------------2---4--L-|--6--------------4----|


  E  E  E  E  E  E  E  E     E  E  E  E  E  E  E  E   
--------------------------|--------------------------|
--------------------------|--------------------------|
--------------------------|--------------4--4--4--4--|
--2--2--2--2--4--4--4--4--|--6--6--6--6--4--4--4--4--|
--2--2--2--2--4--4--4--4--|--6--6--6--6--2--2--2--2--|
--2--2--2--2--4--4--4--4--|--6--6--6--6--------------|


  E  E  E  E  E  E  E  E     E  H.           E     Q    E  E  E  E  E  E   
--------------------------|---------------------|-------------------------|
--------------------------|---------------------|-------------------------|
--------------------4--4--|---------------------|-------------------------|
--2--2--2--2--2--2--4--4--|--4------------------|--2----2--2-----2--2--2--|
--2--2--2--2--2--2--2--2--|--4------------------|--2----2--2--L--2--2--2--|
--2--2--2--2--2--2--------|--4------------------|--2----2--2-----2--2--2--|


  Q    E  Q     Q     E     Q    E  Q    E  E  E     Q    E  Q    E  E  E   
-------------------------|------------------------|------------------------|
-------------------------|------------------------|------------------------|
----------6-----8-----6--|----------4----4--4--4--|------------------------|
--2----2-----------------|--6----6--4----4--4--4--|--2----2--2----2--2--2--|
--2----2--4s----6s----4--|--6----6--2----2--2--2--|--2----2--2----2--2--2--|
--2----2-----------------|--6----6----------------|--2----2--2----2--2--2--|


  E  E  E  E  E  E  E  E     E  E  E  E  E  E  E  E   
--------------------------|--------------------------|
--------------------------|--------------------------|
--------------------------|--------------------------|
--6--6--6--6--6--6--6--6--|--2--2--2--2--2--2--2--2--|
--6--6--6--6--6--6--6--6--|--2--2--2--2--2--2--2--2--|
--6--6--6--6--6--6--6--6--|--2--2--2--2--2--2--2--2--|


  E  E  E  E  E  E  E  E     Q    Q    Q    S S E     E  E  E  E  E  E  E  E   
--------------------------|------------------------|-----------0--------------|
--------------------------|------------------------|-----0--4-----4--0--L--L--|
--------------------------|------------------------|--------------------------|
--4--4--4--4--4--4--4--4--|--2----2-------------L--|--2-----------------L-----|
--4--4--4--4--4--4--4--4--|--2----2-------------L--|--------------------------|
--4--4--4--4--4--4--4--4--|--2----2-------------L--|--------------------------|


  E  E  E  E  E  E  E  E     E  E  E  E  E  E  E  E   
--------------------------|-----------0--------------|
-----0--4--0-----0--4--0--|-----0--4-----4--0--L--L--|
--------------------------|--------------------------|
--2-----------2-----------|--2-----------------L-----|
--------------------------|--------------------------|
--------------------------|--------------------------|


  E  E  E  E  E  E  E  E     E  E  E  E  E  E  E  E   
--------------------------|-----------0--------------|
-----0--4--0-----0--4--0--|-----0--4-----4--0--L--L--|
--------------------------|--------------------------|
--2-----------2-----------|--2-----------------L-----|
--------------------------|--------------------------|
--------------------------|--------------------------|


  E  E  E  E  E  E  E  E     E  E  E  E  E  E  E  E   
--------------------------|-----------0--------------|
-----0--4--0-----0--4--0--|-----0--4-----4--0--L--L--|
--------------------------|--------------------------|
--2-----------2-----------|--2-----------------L-----|
--------------------------|--------------------------|
--------------------------|--------------------------|


  E  E  E  E  E  E  E  E     E  E  E  E  E  E  E  E   
--------------0-----------|--0-----------0-----------|
-----0--4--0-----4--0-----|-----4--0--4-----4--0--4--|
--------------------------|--------------------------|
--2--------------------2--|--------------------------|
--------------------------|--------------------------|
--------------------------|--------------------------|


  E  E  E  E  E  E  E  E     E  E  E  E  E  E  E  E   
--0-----------0-----------|--0-----------0-----------|
-----4--0--4-----4--0--4--|-----4--0--4-----4--0--4--|
--------------------------|--------------------------|
--------------------------|--------------------------|
--------------------------|--------------------------|
--------------------------|--------------------------|


  E  E  E  E  E  E  E  E     E  E  E  E  E  E  E  E   
--0-----------0-----------|--0-----------0-----------|
-----4--0--4-----4--0--4--|-----4--0--4-----4--0--4--|
--------------------------|--------------------------|
--------------------------|--------------------------|
--------------------------|--------------------------|
--------------------------|--------------------------|


  E  E  E  E  E  E  E  E     E  E  E  E  E  E  E  E   
--0-----------0-----------|--0-----------0-----------|
-----4--0--4-----4--0--4--|-----4--0--4-----4--0--4--|
--------------------------|--------------------------|
--------------------------|--------------------------|
--------------------------|--------------------------|
--------------------------|--------------------------|


  E  E  E  E  E  E  E  E     E  E  E  E  E  E  E  E   
--0-----------0-----------|--0-----------0-----------|
-----4--0--4-----4--0--4--|-----4--0--4-----4--0--4--|
--------------------------|--------------------------|
--------------------------|--------------------------|
--------------------------|--------------------------|
--------------------------|--------------------------|


  E  E  E  E  E  E  E  E     E  E  E  E  E  E  E  E   
--0-----------0-----------|--0-----------0-----------|
-----4--0--4-----4--0--4--|-----4--0--4-----4--0--4--|
--------------------------|--------------------------|
--------------------------|--------------------------|
--------------------------|--------------------------|
--------------------------|--------------------------|


  E  E  E  E  E  E  E  E     E  E  E  E  E  E  E  E   
--0-----------0-----------|--0-----------0-----------|
-----4--0--4-----4--0--4--|-----4--0--4-----4--0--4--|
--------------------------|--------------------------|
--------------------------|--------------------------|
--------------------------|--------------------------|
--------------------------|--------------------------|


  E  E  E  E  E  E  E  E     E  E  E  E  E  E  E  E   
--0-----------0-----------|--0-----------0-----------|
-----4--0--4-----4--0--4--|-----4--0--4-----4--0--4--|
--------------------------|--------------------------|
--------------------------|--------------------------|
--------------------------|--------------------------|
--------------------------|--------------------------|


                             <                                                  
  E  E  E  E  E  E  E  E     E.  S E  Q    E  E  S S    E.  S E  Q    E  E  E   
--0-----------0-----------|--------------------------|-------------------------|
-----4--0--4-----4--0--4--|--------------------------|-------------------------|
--------------------------|-----------4----4--4--4-4-|-----------4----4--4--4--|
--------------------------|--6---6-6--4----4--4--4-4-|--2---2-2--4----4--4--4--|
--------------------------|--6---6-6--2----2--2--2-2-|--2---2-2--2----2--2--2--|
--------------------------|--6---6-6-----------------|--2---2-2----------------|


  E.  S E  Q    E  E  E     E  H.           E     E  E  E  E  E  E  E  E   
-------------------------|---------------------|--------------------------|
-------------------------|---------------------|--------------------------|
-------------------------|---------------------|--------------------------|
--6---6-6--4----4--4--4--|--2------------------|--6--6--6--6--6--6--6--6--|
--6---6-6--4----4--4--4--|--2------------------|--6--6--6--6--6--6--6--6--|
--6---6-6--4----4--4--4--|--2------------------|--6--6--6--6--6--6--6--6--|


  E  E  E  E  E  E  E  E     E  E  E  E  E  E  E  E   
--------------------------|--------------------------|
--------------------------|--------------------------|
--------------------------|--------------------------|
--2--2--2--2--2--2--2--2--|--4--4--4--4--4--4--4--4--|
--2--2--2--2--2--2--2--2--|--4--4--4--4--4--4--4--4--|
--2--2--2--2--2--2--2--2--|--4--4--4--4--4--4--4--4--|


  E  E  E  E  E  E  E  E     Q    E  E  E  E  E  E     Q    E  Q     Q     E   
--------------------------|-------------------------|-------------------------|
--------------------------|-------------------------|-------------------------|
--------------------------|-------------------------|----------6-----8-----6--|
--2--2--2--2--2--2--2--2--|--2----2--2-----2--2--2--|--2----2-----------------|
--2--2--2--2--2--2--2--2--|--2----2--2--L--2--2--2--|--2----2--4s----6s----4--|
--2--2--2--2--2--2--2--2--|--2----2--2-----2--2--2--|--2----2-----------------|


  Q    E  Q    E  E  E     Q    E  Q    E  E  E     E  E  E  E  E  E  E  E   
------------------------|------------------------|--------------------------|
------------------------|------------------------|--------------------------|
----------4----4--4--4--|------------------------|--------------------------|
--6----6--4----4--4--4--|--2----2--2----2--2--2--|--6--6--6--6--6--6--6--6--|
--6----6--2----2--2--2--|--2----2--2----2--2--2--|--6--6--6--6--6--6--6--6--|
--6----6----------------|--2----2--2----2--2--2--|--6--6--6--6--6--6--6--6--|


  E  E  E  E  E  E  E  E     E  E  E  E  E  E  E  E   
--------------------------|--------------------------|
--------------------------|--------------------------|
--------------------------|--------------------------|
--2--2--2--2--2--2--2--2--|--4--4--4--4--4--4--4--4--|
--2--2--2--2--2--2--2--2--|--4--4--4--4--4--4--4--4--|
--2--2--2--2--2--2--2--2--|--4--4--4--4--4--4--4--4--|


  E  E  E  E  E  E  E  E     E  E  E  E  E  E  E  E     W                 
--------------------------|--------------------------|-------------------|
--------------------------|--------------------------|-------------------|
--------------------------|--------------------------|-------------------|
--2--2--2--2--2--2--2--2--|--2--2--2--2--2--2--2--2--|--2----------------|
--2--2--2--2--2--2--2--2--|--2--2--2--2--2--2--2--2--|--2----------------|
--2--2--2--2--2--2--2--2--|--2--2--2--2--2--2--2--2--|--2----------------|

Rhythm Guitar
              H        S E.  S E.     Q    Q    S E.  Q     
D#||-------|-----------------------|-----------------------|
A#||-------|-----------------------|-----------------------|
F#||-------|-----------4-4---------|-----------------------|
C#||-------|-----------4-4---4-4---|--2---------x-4--------|
G#||-------|-----------2-2---4-4---|--2---------x-4--------|
C#||-------|-----------------4-4---|--2---------4-4--------|


  Q    Q    S E.  S E.     Q    Q    S E.  Q       Q    Q    S E.  S E.   
------------------------|-----------------------|------------------------|
------------0-0---------|-----------------------|------------0-0---------|
------------------------|-----------------------|------------------------|
--2---------4-4---4-4---|--2---------x-4--------|--2---------4-4---4-4---|
--2---------2-2---4-4---|--2---------x-4--------|--2---------2-2---4-4---|
--2---------------4-4---|--2---------4-4--------|--2---------------4-4---|


  Q    Q    S E.  Q       Q    Q    S E.  S E.     E  E  E  E  E  E  E  E   
-----------------------|------------------------|--------------------------|
-----------------------|------------0-0---------|--------------------------|
-----------------------|------------------------|--------------------------|
--2---------x-4--------|--2---------4-4---4-4---|--6--6--6--6--6--6--6--6--|
--2---------x-4--------|--2---------2-2---4-4---|--6--6--6--6--6--6--6--6--|
--2---------4-4--------|--2---------------4-4---|--6--6--6--6--6--6--6--6--|


  E  E  E  E  E  E  E  E     E  E  E  E  E  E  E  E   
--------------------------|--------------------------|
--------------------------|--------------------------|
--------------------------|--------------------------|
--2--2--2--2--2--2--2--2--|--4--4--4--4--4--4--4--4--|
--2--2--2--2--2--2--2--2--|--4--4--4--4--4--4--4--4--|
--2--2--2--2--2--2--2--2--|--4--4--4--4--4--4--4--4--|


  E  E  E  E  E  E  E  E     E  E  E  E  E  E  E  E   
--------------------------|--------------------------|
--------------------------|--------------------------|
--------------------------|--------------------------|
--4--4--4--4--4--4--4--4--|--6--6--6--6--6--6--6--6--|
--4--4--4--4--4--4--4--4--|--6--6--6--6--6--6--6--6--|
--4--4--4--4--4--4--4--4--|--6--6--6--6--6--6--6--6--|


  E  E  E  E  E  E  E  E     E  E  E  E  E  E  E  E   
--------------------------|--------------------------|
--------------------------|--------------------------|
--------------------------|--------------------------|
--2--2--2--2--2--2--2--2--|--4--4--4--4--4--4--4--4--|
--2--2--2--2--2--2--2--2--|--4--4--4--4--4--4--4--4--|
--2--2--2--2--2--2--2--2--|--4--4--4--4--4--4--4--4--|


  E  S S S S S S S S S S S S S S    Q    E  Q    E  E  E   
---------------------------------|------------------------|
-----0-0-0-0-0-0-0-0-0-0-0-0-0-0-|------------------------|
---------------------------------|----------4-------------|
--2--4-4-4-4-4-4-4-4-4-4-4-4-4-4-|--6-------4----4--4--4--|
--2--2-2-2-2-2-2-2-2-2-2-2-2-2-2-|--6----6--2----2--2--2--|
--2------------------------------|--6----6----------------|


  Q    E  Q    E  E  E     Q    E  Q    E  E  E     Q    E  Q    E  E  E   
------------------------|------------------------|------------------------|
------------------------|------------------------|------------------------|
------------------------|----------4-------------|------------------------|
--2-------2----2--2--2--|--6-------4----4--4--4--|--2-------2-------------|
--2----2--2----2--2--2--|--6----6--2----2--2--2--|--2----2--2----2--2--2--|
--2----2--2----2--2--2--|--6----6----------------|--2----2--2----2--2--2--|


  E  E  E  E  E  E  E  E     E  E  E  E  E  E  E  E   
--------------------------|--------------------------|
--------------------------|--------------------------|
--------------------------|--------------------------|
--------------------------|--------------------------|
--6--6--6--6--6--6--6--6--|--2--2--2--2--2--2--2--2--|
--6--6--6--6--6--6--6--6--|--2--2--2--2--2--2--2--2--|


  E  E  E  E  E  E  E  E     Q    Q    Q    S S E     Q    Q    E  E.  E  S  
--------------------------|------------------------|------------------------|
--------------------------|------------------------|------------------------|
--------------------------|------------------------|------------------------|
--------------------------|--2----2-----------4-L--|--2------------2---4--L-|
--4--4--4--4--4--4--4--4--|--2----2-----------4-L--|--2------------2---4--L-|
--4--4--4--4--4--4--4--4--|--2----2-----------4-L--|--2------------2---4--L-|


  Q    Q    Q    Q       Q    Q    E  E.  E  S    Q    Q    Q    Q     
----------------------|------------------------|----------------------|
----------------------|------------------------|----------------------|
------------4---------|------------------------|------------4---------|
--6---------4----4----|--2------------2---4--L-|--6---------4----4----|
--6---------2----4----|--2------------2---4--L-|--6---------2----4----|
--6--------------4----|--2------------2---4--L-|--6--------------4----|


  E  E  E  E  E  E  E  E     E  E  E  E  E  E  E  E   
--------------------------|--------------------------|
--------------------------|--------------------------|
--------------------------|--------------------------|
--------------------------|--------------4--4--4--4--|
--2--2--2--2--4--4--4--4--|--6--6--6--6--2--2--2--2--|
--2--2--2--2--4--4--4--4--|--6--6--6--6--------------|


  E  E  E  E  E  E  E  E     E  H.           E     Q    E  Q    E  E  E   
--------------------------|---------------------|------------------------|
--------------------0--0--|---------------------|------------------------|
--------------------------|---------------------|----------4-------------|
--------------------4--4--|--4------------------|--6-------4----4--4--4--|
--2--2--2--2--2--2--2--2--|--4------------------|--6----6--2----2--2--2--|
--2--2--2--2--2--2--------|--4------------------|--6----6----------------|


  Q    E  Q    E  E  E     Q    E  Q    E  E  E     Q    E  Q    E  E  E   
------------------------|------------------------|------------------------|
------------------------|------------------------|------------------------|
------------------------|----------4-------------|------------------------|
--2-------4----4--4--4--|--6-------4----4--4--4--|--2-------2-------------|
--2----2--2----2--2--2--|--6----6--2----2--2--2--|--2----2--2----2--2--2--|
--2----2--2----2--2--2--|--6----6----------------|--2----2--2----2--2--2--|


  E  E  E  E  E  E  E  E     E  E  E  E  E  E  E  E   
--------------------------|--------------------------|
--------------------------|--------------------------|
--------------------------|--------------------------|
--------------------------|--------------------------|
--6--6--6--6--6--6--6--6--|--2--2--2--2--2--2--2--2--|
--6--6--6--6--6--6--6--6--|--2--2--2--2--2--2--2--2--|


  E  E  E  E  E  E  E  E     Q    Q    Q    S S E     W                 
--------------------------|------------------------|-------------------|
--------------------------|------------------------|-------------------|
--------------------------|------------------------|-------------------|
--------------------------|--2----2-------------L--|--2----------------|
--4--4--4--4--4--4--4--4--|--2----2-------------L--|--2----------------|
--4--4--4--4--4--4--4--4--|--2----2-------------L--|--2----------------|


  H        H           W                   H        H         
--------------------|-------------------|--------------------|
--------------------|-------------------|--------------------|
--------------------|-------------------|--------------------|
--6--------4--------|--2----------------|--6--------4--------|
--6--------4--------|--2----------------|--6--------4--------|
--6--------4--------|--2----------------|--6--------4--------|


  W                   H        H           W                 
-------------------|--------------------|-------------------|
-------------------|--------------------|-------------------|
-------------------|--------------------|-------------------|
--2----------------|--6--------4--------|--2----------------|
--2----------------|--6--------4--------|--2----------------|
--2----------------|--6--------4--------|--2----------------|


  PM PM PM PM PM PM PM PM                                                
  E  E  E  E  E  E  E  E     E.  E.  E  H           E.  E.  E  H         
--------------------------|----------------------|----------------------|
--------------------------|----------------------|----------------------|
--------------------------|----------------------|----------------------|
--6--6--6--6--4--4--4--4--|--6---6---6-----------|--4---4---4-----------|
--6--6--6--6--4--4--4--4--|--6---6---6-----------|--4---4---4-----------|
--6--6--6--6--4--4--4--4--|--6---6---6-----------|--4---4---4-----------|


  E.  E.  E  H           E.  E.  E  Q    Q       E.  E.  E  H         
----------------------|-----------------------|----------------------|
----------------------|-----------------------|----------------------|
----------------------|-----------------------|----------------------|
--2---2---2-----------|--2---2---2-------4----|--6---6---6-----------|
--2---2---2-----------|--2---2---2-------4----|--6---6---6-----------|
--2---2---2-----------|--2---2---2-------4----|--6---6---6-----------|


  E.  E.  E  H           E.  E.  E  H           E.  E.  E  H         
----------------------|----------------------|----------------------|
----------------------|----------------------|----------------------|
----------------------|----------------------|----------------------|
--4---4---4-----------|--2---2---2-----------|--2---2---2-----------|
--4---4---4-----------|--2---2---2-----------|--2---2---2-----------|
--4---4---4-----------|--2---2---2-----------|--2---2---2-----------|


  E.  E.  E  H           E.  E.  E  H           E.  E.  E  H         
----------------------|----------------------|----------------------|
----------------------|----------------------|----------------------|
----------------------|----------------------|----------------------|
--6---6---6-----------|--4---4---4-----------|--2---2---2-----------|
--6---6---6-----------|--4---4---4-----------|--2---2---2-----------|
--6---6---6-----------|--4---4---4-----------|--2---2---2-----------|


  E.  E.  E  Q    Q       E.  E.  E  H           E.  E.  E  H         
-----------------------|----------------------|----------------------|
-----------------------|----------------------|----------------------|
-----------------------|----------------------|----------------------|
--2---2---2-------4----|--6---6---6-----------|--4---4---4-----------|
--2---2---2-------4----|--6---6---6-----------|--4---4---4-----------|
--2---2---2-------4----|--6---6---6-----------|--4---4---4-----------|


  E.  E.  E  H           Q    Q    Q    Q       E.  S E  Q    E  E  S S  
----------------------|----------------------|--------------------------|
----------------------|------------0---------|--------------------------|
----------------------|----------------------|-----------4--------------|
--2---2---2-----------|--6----2----4----4----|--6--------4----4--4--4-4-|
--2---2---2-----------|--6----2----2----4----|--6---6-6--2----2--2--2-2-|
--2---2---2-----------|--6----2---------4----|--6---6-6-----------------|


  E.  S E  Q    E  E  E     E.  S E  Q    E  E  E     E  E  H.            
-------------------------|-------------------------|---------------------|
-------------------------|-------------------------|---------------------|
-------------------------|-------------------------|---------------------|
--2-----2--4----4--4--4--|--6-----6--4----4--4--4--|--2------------------|
--2---2-2--2----2--2--2--|--6---6-6--4----4--4--4--|--2------------------|
--2---2-2----------------|--6---6-6--4----4--4--4--|--2------------------|


  E  E  E  E  E  E  E  E     E  E  E  E  E  E  E  E   
--------------------------|--------------------------|
--------------------------|--------------------------|
--------------------------|--------------------------|
--------------------------|--------------------------|
--6--6--6--6--6--6--6--6--|--2--2--2--2--2--2--2--2--|
--6--6--6--6--6--6--6--6--|--2--2--2--2--2--2--2--2--|


  E  E  E  E  E  E  E  E     E  E  E  E  E  E  E  E     Q    E  Q    E  E  E   
--------------------------|--------------------------|------------------------|
--------------------------|--------------------------|------------------------|
--------------------------|--------------------------|----------4-------------|
--------------------------|--------------------------|--6-------4----4--4--4--|
--4--4--4--4--4--4--4--4--|--2--2--2--2--2--2--2--2--|--6----6--2----2--2--2--|
--4--4--4--4--4--4--4--4--|--2--2--2--2--2--2--2--2--|--6----6----------------|


  Q    E  Q    E  E  E     Q    E  Q    E  E  E     Q    E  Q    E  E  E   
------------------------|------------------------|------------------------|
------------------------|------------------------|------------------------|
------------------------|----------4-------------|------------------------|
--2-------4----4--4--4--|--6-------4----4--4--4--|--2-------2----4--4--4--|
--2----2--2----2--2--2--|--6----6--2----2--2--2--|--2----2--2----2--4--2--|
--2----2--2----2--2--2--|--6----6----------------|--2----2--2----2--4--2--|


  E  E  E  E  E  E  E  E     E  E  E  E  E  E  E  E   
--------------------------|--------------------------|
--------------------------|--------------------------|
--------------------------|--------------------------|
--------------------------|--------------------------|
--6--6--6--6--6--6--6--6--|--2--2--2--2--2--2--2--2--|
--6--6--6--6--6--6--6--6--|--2--2--2--2--2--2--2--2--|


  E  E  E  E  E  E  E  E     E  E  E  E  E  E  E  E   
--------------------------|--------------------------|
--------------------------|--------------------------|
--------------------------|--------------------------|
--------------------------|--------------------------|
--4--4--4--4--4--4--4--4--|--2--2--2--2--2--2--2--2--|
--4--4--4--4--4--4--4--4--|--2--2--2--2--2--2--2--2--|


  E  E  E  E  E  E  E  E     W                        
--------------------------|-------------------|-----||
--------------------------|-------------------|-----||
--------------------------|-------------------|-----||
--------------------------|--2----------------|-----||
--2--2--2--2--2--2--2--2--|--2----------------|-----||
--2--2--2--2--2--2--2--2--|--2----------------|-----||





Duration Legend
---------------
W - whole
H - half
Q - quarter
E - 8th
S - 16th
T - 32nd
X - 64th
. - note dotted
|-n-|  - n-tuplets


Tablature Legend
----------------
L - tied note
x - dead note
g - grace note
(n) - ghost note
> - accentuded note
NH - natural harmonic
AH - artificial harmonic
TH - tapped harmonic
SH - semi harmonic
PH - pitch harmonic
h - hammer on
p - pull off
b - bend
br - bendRelease
pb - preBend
pbr - preBendRelease
brb - bendReleaseBend
\n/ - tremolo bar dip
\n - tremolo bar dive
-/n - tremolo bar Release up
/n\ - tremolo bar inverted dip
/n - tremolo bar return
-\n - tremolo bar Release down
S - shift slide
s - legato slide
/ -  slide into from below or out of upwards
\ -  slide into from above or out of downwards
~ - vibrato
W - wide vibrato
tr - trill
TP - tremolo picking
T - tapping
S - slap
P - pop
< - fade in
^ - brush up
v - brush down
comments
We did not receive enough feedback on this tab! Please rate:
print report bad tab
1 2 3 4 5
I want to post or [tab]
guest
You may want to rate the tab now too:
select rating
Please do not post tabs as comments. Select "correction" instead!