Oops, an error
Loading. Please wait.

Ljetni Hit Tab

987 views 1 this week
no commentswrite comment
1 2 3 4 5
please rate
Autoscroll
+/-
esc
set tempo
stop
Contributor
WARNING: You are trying to view
                                    content from Ultimate-Guitar.com
                                    in an unauthorized application,
                                    which is prohibited.

                                    Please use an official Ultimate
                                    Guitar Tabs application for iPhone,
                                    iPad or Android to access legitimate
                                    chords, guitar, bass, and drum tabs
                                    from Ultimate-Guitar.com database.

                                    Type "ultimate guitar tabs" in Apple
                                    App Store's or Android Market's
                                    search to find the application.
Intro :
e|--------------------------|---------------------------|
B|---< 12>------------------|------------< 12>----------|
G|*-------< 12>-------------|-------< 12>--------------*|
D|*------------< 12>--------|--< 12>-------------------*|
A|--------------------------|---------------------------|
E|--------------------------|---------------------------|

  - Strofa :
e|---------------------|---------------------|---------------------|
B|---------------------|---------------------|---------------------|
G|---------------------|-4--4-5--4h5p4-------|---------------------|
D|--5----5---7---7-7---|-----------------7---|--5----5---7---7-7---|
A|-----5---------------|---------------------|-----5---------------|
E|---------------------|---------------------|---------------------|

    ---------------------|
    ---------------------|
    -4--4-5--4h5p4-------|
    -----------------5---|
    ---------------------|
    ---------------------|

e|-------------------------|--------------------------|
B|-------------------------|--------------------------|
G|*-------4--------5-------|---7----9----------------*|
D|*---5-5---5--7-7---7-----|-9---9--10---9------7\---*|
A|-------------------------|--------------------------|
E|-------------------------|--------------------------|

  - Prijelaz:
 e|-------------------------|----------------------------|
 B|-------------------------|----------------------------|
 G|*-------4--------5-------|----9----------7------5----*|
 D|*---5-5---5--7-7---7-----|-10---10----9-----7--------*|
 A|-------------------------|----------------------------|
 E|-------------------------|----------------------------|

  - Strofa :

 e|---------------------|-------------------------|---------------------|
 B|---------------------|-------------------------|---------------------|
 G|---------------------|-4--4-5--4h5h7p5p4-------|---------------------|
 D|--5----5---7---7-7---|-------------------5-----|--5----5---7---7-7---|
 A|-----5---------------|-------------------------|-----5---------------|
 E|---------------------|-------------------------|---------------------|

    ---------------------|
    ---------------------|
    -4--4-5--4h5p4-------|
    -----------------5---|
    ---------------------|
    ---------------------|

 e|------------------|-------------------|------------------|-------------||
 B|------------------|-------------------|------------------|-------------||
 G|------------------|-4--4-5--4h5p4p0---|--7---7--5--5-4---|-------------||
 D|5----5---7---7-7--|-----------------5-|------------------|---7--5h7p5--||
 A|---5--------------|-------------------|------------------|------------7||
 E|------------------|-------------------|------------------|-------------||

  - PreChorus :
 e|----------------------------|----------------------------|
 B|----------------------------|----------------------------|
 G|*---------------------------|---------------------------*| 6x
 D|*---------------------------|---------------------------*|
 A|---5-5-x--7-7-7-x--9-9-9-x--|---10------9--------7\------|
 E|---3-3-x--5-5-5-x--7-7-7-x--|---8-------7--------5\------|
      +++++++++++++++++++++++

  - Chorus :
 e|-----------------------|---------------------------|
 B|-----------------------|---------------------------|
 G|*--7-7-7-7-5-4-5---7---|--------------------------*| 4x
 D|*--7-7-7-7-5-4-5---7---|--------------------------*|
 A|---5-5-5-5-3-2-3---5---|--10------9--------7\------|
 E|-----------------------|--8-------7--------5\------|



  - Prijelaz :
       gtr I
 e|---------------------|---------------------|--------------------|
 B|---------------------|---------------------|--------------------|
 G|---------------------|-4--4-5--4h5p4-------|--------------------|
 D|--5----5---7---7-7---|-----------------7---|--5----5---7---7-7--|
 A|-----5---------------|---------------------|-----5--------------|
 E|---------------------|---------------------|--------------------|
  |

  |    gtr II

  |

 e|---------------------|---------------------|--------------------|
 B|---------------------|---------------------|--------------------|
 G|---------------------|-4--4-5--4h5p4-------|--7----7---9-----9--|
 D|--5----5---7---7-7---|-----------------5---|--------------------|
 A|-----5---------------|---------------------|--------------------|
 E|---------------------|---------------------|--------------------|

    --------------------|
    --------------------|
    -4--4--5--4h5p4-----|
    -----------------5--|
    --------------------|
    --------------------|
                        |
                        |
                        |
    --------------------|
    -7--7--8--7h8p7-----|
    -----------------9--|
    --------------------|
    --------------------|
    --------------------|


 e|---------------------|--------------------|---------------------|
 B|---------------------|--------------------|---------------------|
 G|---------------------|-4--4-5--4h5p4------|---------------------|
 D|--5----5---7---7-7---|----------------7---|--5----5---7---7-7---|
 A|-----5---------------|--------------------|-----5---------------|
 E|---------------------|--------------------|---------------------|
  |

  |

 e|---------------------|--------------------|---------------------|
 B|---------------------|--------------------|---------------------|
 G|--7\-5-4---5-4-------|---4----------------|---------------------|
 D|---------------7-5---|-7---7---5----------|--5----5---7---7-7---|
 A|---------------------|-------------7--5---|-----5---------------|
 E|---------------------|--------------------|---------------------|

    ---------------------||
    ---------------------||
    -4--4-5--4h5p4-------||
    -----------------5---||
    ---------------------||
    ---------------------||
                         ||
                         ||
    ---------------------||
    ---------------------||
    -4--4-5--4h5p4-------||
    -----------------5---||
    ---------------------||
    ---------------------||

  - Strofa

  - Prijelaz :

     gtr I
   G                  Em                     G                     
     gtr II
 e|-------------------|---------------------|---------------------|
 B|-------------------|---------------------|---------------------|
 G|---/9-----7~~------|---------------------|---/9-----7~~--------|
 D|-------------------|----9----7-----5~~---|---------------------|
 A|-------------------|---------------------|---------------------|
 E|-------------------|---------------------|---------------------|

    Em
    ---------------------|
    ---------------------|
    ---------------------|
    ---9----7--7---5~~---|
    ---------------------|
    ---------------------|


  G                   Em       C                                   
 e|-------------------|---------------------|---------------------|
 B|-------------------|---------------------|---------------------|
 G|---/9-----7~~------|---------------------|---------------------|
 D|-------------------|----9----7-----5~~---|---5---5-5----5--4---|
 A|-------------------|---------------------|---------------------|
 E|-------------------|---------------------|---------------------|

    D
    -----------------------|
    -----------------------|
    -----------------------|
    ---2----2--------------|
    ------------5~~-----\--|
    -----------------------|

   G     Em     C     D
   G     Em     C     D

  - PreChorus :
 e|----------------------------|--------------------------|
 B|----------------------------|--------------------------|
 G|*---------------------------|--------------------------|
 D|*---------------------------|--------------------------|
 A|---5-5-x--7-7-7-x--9-9-9-x--|---10------9--------7\----|
 E|---3-3-x--5-5-5-x--7-7-7-x--|---8-------7--------5\----|
     +++++++++++++++++++++++++++++++++++++++++++++++++++

 e|------------------------|--------------------------|
 B|------------------------|--------------------------|
 G|-------4--------5-------|---7----9----------------*|
 D|---5-5---5--7-7---7-----|-9---9--10---9------7\---*|
 A|------------------------|--------------------------|
 E|------------------------|--------------------------|


  - Chorus :
 e|-----------------------|---------------------------|
 B|-----------------------|---------------------------|
 G|*--7-7-7-7-5-4-5---7---|--------------------------*|     8 x
 D|*--7-7-7-7-5-4-5---7---|--------------------------*|
 A|---5-5-5-5-3-2-3---5---|--10------9--------7\------|
 E|-----------------------|--8-------7--------5\------|


  - Outro :
                                               3x
 e|---------------------|----------------------|
 B|---------------------|----------------------|
 G|*--------------------|-4--4-5--4h5p4-------*|
 D|*-5----5---7---7-7---|-----------------7---*|
 A|-----5---------------|----------------------|
 E|---------------------|----------------------|

 e|---------------------|---------------------|
 B|---------------------|---------------------|
 G|---------------------|-4--4-5--4h5p4-------|
 D|--5----5---7---7-7---|-----------------5---|
 A|-----5---------------|---------------------|
 E|---------------------|---------------------|

 e|------------------------|---------------------|
 B|------------------------|---------------------|
 G|-------4--------5-------|---7----9----9-\-----|
 D|---5-5---5--7-7---7-----|-9---9--10---10\-----|
 A|------------------------|---------------------|
 E|------------------------|---------------------|

 e|------------------------|----------------------|
 B|------------------------|----------------------|
 G|-------4--------5-------|---7----9~---7--------|
 D|---5-5---5--7-7---7-----|-9---9---------9--7---|
 A|------------------------|----------------------|
 E|------------------------|----------------------|

 e|------------------------|---------------------|
 B|------------------------|---------------------|
 G|-------4--------5-------|---7----9----9-\-----|
 D|---5-5---5--7-7---7-----|-9---9--10---10\-----|
 A|------------------------|---------------------|
 E|------------------------|---------------------|

 e|----------------------|-----------------------|---0-----------||
 B|----------------------|-----------------------|---0-----------||
 G|-------4--------5-----|---7----9--------------|---4-----------||
 D|---5-5---5--7-7---7---|-9---9--10---9----7\---|---5-----------||
 A|----------------------|-----------------------|---------------||
 E|----------------------|-----------------------|---------------||

   - h - hammer-on
   - p - pull-off
   - / i \ - slide
   - <> - natural harmonic
   - + - palm mute

*************************************************************************
comments
We did not receive enough feedback on this tab! Please rate:
print report bad tab
1 2 3 4 5
I want to post or [tab]
guest
You may want to rate the tab now too:
select rating
Please do not post tabs as comments. Select "correction" instead!