Oops, an error
Loading. Please wait.

Sreca Tab

ver1
ver1

Whole song

Interactive

More versions @911Tabs.com
1,443 views 3 this week
no commentswrite comment
1 2 3 4 5
please rate
Autoscroll
+/-
esc
set tempo
stop
Contributor
Difficulty
intermediate
WARNING: You are trying to view
                                    content from Ultimate-Guitar.com
                                    in an unauthorized application,
                                    which is prohibited.

                                    Please use an official Ultimate
                                    Guitar Tabs application for iPhone,
                                    iPad or Android to access legitimate
                                    chords, guitar, bass, and drum tabs
                                    from Ultimate-Guitar.com database.

                                    Type "ultimate guitar tabs" in Apple
                                    App Store's or Android Market's
                                    search to find the application.
Hladno pivo- Sreća

E||------------------------------|------------------------------|
B||--8--8--7h8p7-10--7--8--8-8-8-|--8--8--7h8p7-10--7--8--8-8-8-|
G||------------------------------|------------------------------|
D||------------------------------|------------------------------|
A||------------------------------|------------------------------|
E||------------------------------|------------------------------|


                                                              
------------------------------|------------------------------|
--8--8--7h8p7-10--7--8--8-8-8-|--8--8--7h8p7-10--7--8--8-8-8-|
------------------------------|------------------------------|
------------------------------|------------------------------|
------------------------------|------------------------------|
------------------------------|------------------------------|


                                                              
------------------------------|------------------------------|
--8--8--7h8p7-10--7--8--8-8-8-|--8--8--7h8p7-10--7--8--8-8-8-|
------------------------------|------------------------------|
------------------------------|------------------------------|
------------------------------|------------------------------|
------------------------------|------------------------------|


                                                                              
------------------------------|------------------------------|---|---|---|---|
--8--8--7h8p7-10--7--8--8-8-8-|--8--8--7h8p7-10--7--8--8-8-8-|---|---|---|---|
------------------------------|------------------------------|---|---|---|---|
------------------------------|------------------------------|---|---|---|---|
------------------------------|------------------------------|---|---|---|---|
------------------------------|------------------------------|---|---|---|---|


                                                                      
------------------------------|------------------------------|---|---|
--8--8--7h8p7-10--7--8--8-8-8-|--8--8--7h8p7-10--7--8--8-8-8-|---|---|
------------------------------|------------------------------|---|---|
------------------------------|------------------------------|---|---|
------------------------------|------------------------------|---|---|
------------------------------|------------------------------|---|---|


                                                              
------------------------------|------------------------------|
--8--8--7h8p7-10--7--8--8-8-8-|--8--8--7h8p7-10--7--8--8-8-8-|
------------------------------|------------------------------|
------------------------------|------------------------------|
------------------------------|------------------------------|
------------------------------|------------------------------|


                                                              
------------------------------|------------------------------|
--8--8--7h8p7-10--7--8--8-8-8-|--8--8--7h8p7-10--7--8--8-8-8-|
------------------------------|------------------------------|
------------------------------|------------------------------|
------------------------------|------------------------------|
------------------------------|------------------------------|


                                                           
----------------------------|-----------------------------|
----------------------------|-----------------------------|
----------------------------|-----------------------------|
----------------------------|-----------------------------|
--2-2-2-2-2--------4--5--4--|--5-5-5-5-5--------9--10--9--|
--0-0-0-0-0--------2--3--2--|--3-3-3-3-3--------7--8---7--|


                                                           
----------------------------|-----------------------------|
----------------------------|-----------------------------|
----------------------------|-----------------------------|
----------------------------|-----------------------------|
--2-2-2-2-2--------4--5--4--|--5-5-5-5-5--------9--10--9--|
--0-0-0-0-0--------2--3--2--|--3-3-3-3-3--------7--8---7--|


                                                                
-------------------------------|-------------------------------|
-------------------------------|-------------------------------|
-------------------------------|-------------------------------|
-------------------------------|-------------------------------|
--2------------2------2--------|--2------------2------2--------|
--0--0-0-0-0-0-0--0-0-0--0-0-0-|--0--0-0-0-0-0-0--0-0-0--0-0-0-|


                                                                   
-------------------------------|----------------------------------|
-------------------------------|----------------------------------|
-------------------------------|----------------------------------|
-------------------------------|----------------------------------|
--5------------5------5--------|--7----------7-10--10--12--12-12--|
--3--3-3-3-3-3-3--3-3-3--3-3-3-|--5--5-5-5-5-5/8---8/--10--10-10--|


                                                        
--------------------------||---------------------------|
--------------------------||---------------------------|
--12----17----9----9------||*--12----17----9----9------|
--12----17----9--9----9---||*--12----17----9--9----9---|
--10----15----7-----------||---10----15----7-----------|
--------------------------||---------------------------|


                                                        
---------------------------||--------------------------|
---------------------------||--------------------------|
--12----17----9----9------*||*-------------------------|
--12----17----9--9----9---*||*-------------------------|
--10----15----7------------||---10---9---5---4---5--9--|
---------------------------||---8----7---3---2---3--7--|


                                                               
-----------------------||----------|--------------------------|
-----------------------||----------|--------------------------|
----------------------*||----------|--12----17----9----9------|
----------------------*||----------|--12----17----9--9----9---|
--10---9---2-----------||----------|--10----15----7-----------|
--8----7---0-----------||----------|--------------------------|


                                                          
|---------------------------|---------------------------||
|---------------------------|---------------------------||
|*--12----17----9----9------|--12----17----9----9------*||
|*--12----17----9--9----9---|--12----17----9--9----9---*||
|---10----15----7-----------|--10----15----7------------||
|---------------------------|---------------------------||


                                                      
--------------------------||-------------------------|
--------------------------||-------------------------|
--12----17----9----9------||*------------------------|
--12----17----9--9----9---||*------------------------|
--10----15----7-----------||---7~--5~--2~---7~-5~-2~-|
--------------------------||-------------------------|


                                                                     
------------------------------------||------------------------------|
------------------------------------||--8--8--7h8p7-10--7--8--8-8-8-|
-----------------------------------*||------------------------------|
-----------------------------------*||------------------------------|
--7~--5~--2----------2----------2---||------------------------------|
----------0--0-0-0-0-0--0-0-0-0-0---||------------------------------|


                                                              
------------------------------|------------------------------|
--8--8--7h8p7-10--7--8--8-8-8-|--8--8--7h8p7-10--7--8--8-8-8-|
------------------------------|------------------------------|
------------------------------|------------------------------|
------------------------------|------------------------------|
------------------------------|------------------------------|


                                                                               
------------------------------||-----7----7----7----7--|----7----7----7----7--|
--8--8--7h8p7-10--7--8--8-8-8-||-----8----8----8----8--|----8----8----8----8--|
------------------------------||*----9----9----9----9--|----9----9----9----9--|
------------------------------||*----9----9----9----9--|----9----9----9----9--|
------------------------------||-----------------------|----------------------|
------------------------------||-----------------------|----------------------|


                                                                            
----10----10----10----10--|----5----5----5----5---||-----7----7----7----7--|
----12----12----12----12--|----7----7----7----7---||-----8----8----8----8--|
----12----12----12----12--|----7----7----7----7--*||*----9----9----9----9--|
----12----12----12----12--|----7----7----7----7--*||*----9----9----9----9--|
--------------------------|-----------------------||-----------------------|
--------------------------|-----------------------||-----------------------|


                                                                           
----7----7----7----7--|----10----10----10----10--|----5----5----5----5---||
----8----8----8----8--|----12----12----12----12--|----7----7----7----7---||
----9----9----9----9--|----12----12----12----12--|----7----7----7----7--*||
----9----9----9----9--|----12----12----12----12--|----7----7----7----7--*||
----------------------|--------------------------|-----------------------||
----------------------|--------------------------|-----------------------||


                                                                       
----------------------------------------------------------------------|
--8-8-8-8-8-8-8-8-10-10-10-10-7-7-7-7-8-8-----------------------------|
------------------------------------------9-9-9-9-9-9-9-9-9-9-9-9-9-9-|
----------------------------------------------------------------------|
----------------------------------------------------------------------|
----------------------------------------------------------------------|


                                                                    
-------------------------------------------------------------------|
--8-8-8-8-8-8-8-8-10-10-10-10-7-7-7-7-8-8--------------------------|
------------------------------------------9-9-9-9-9-9-9-9-9-9-9----|
-------------------------------------------------------------------|
-------------------------------------------------------------------|
-------------------------------------------------------------------|


                                                                      
----------------------------------|----------------------------------|
----------------------------------|----------------------------------|
----------------------------------|----------------------------------|
----------------------------------|----------------------------------|
--5-----7-----4-----2-----2---2---|--5-----7-----4-----2-----2---2---|
--3-3-3-5-2-2-2-2-0-0-0-0-0-0-0-0-|--3-3-3-5-2-2-2-2-0-0-0-0-0-0-0-0-|


                                                                 
|-------------------------|------------------------------------||
|-------------------------|------------------------------------||
|*------------------------|-----------------------------------*||
|*------------------------|-----------------------------------*||
|---7~--5~--2~---7~-5~-2~-|--7~--5~--2----------2----------2---||
|-------------------------|----------0--0-0-0-0-0--0-0-0-0-0---||


                                                                              
--------------------------|-------------------------------------||-----------|
--------------------------|-------------------------------------||-----------|
*-------------------------|------------------------------------*||-----------|
*-------------------------|------------------------------------*||-----------|
---10---9---5---4---5--9--|--10---9---2----------2----------2---||--10---9---|
---8----7---3---2---3--7--|--8----7---0--0-0-0-0-0--0-0-0-0-0---||--8----7---|


                                                                      
-------------------|------------------|------------------------------|
-------------------|------------------|--8--8--7h8p7-10--7--8--8-8-8-|
-------------------|------------------|------------------------------|
-------------------|------------------|------------------------------|
--2----------------|------------------|------------------------------|
--0----------------|------------------|------------------------------|


                                                
------------------------------|---|---|---|---||
--8--8--7h8p7-10--7--8--8-8-8-|---|---|---|---||
------------------------------|---|---|---|---||
------------------------------|---|---|---|---||
------------------------------|---|---|---|---||
------------------------------|---|---|---|---||
comments
We did not receive enough feedback on this tab! Please rate:
print report bad tab
1 2 3 4 5
I want to post or [tab]
guest
You may want to rate the tab now too:
select rating
Please do not post tabs as comments. Select "correction" instead!