Oops, an error
Loading. Please wait.

Babydoll Tab

by Hole
ver1
ver1

Whole song

More versions @911Tabs.com
1,724 views 6 this week
no commentswrite comment
1 2 3 4 5
accurate
x 1
Autoscroll
+/-
esc
set tempo
stop
Contributor
Difficulty
intermediate
Hey! There's an official Ultimate Guitar app which is ideal
for learning songs when you're away from computer. Get the app
WARNING: You are trying to view
                                    content from Ultimate-Guitar.com
                                    in an unauthorized application,
                                    which is prohibited.

                                    Please use an official Ultimate
                                    Guitar Tabs application for iPhone,
                                    iPad or Android to access legitimate
                                    chords, guitar, bass, and drum tabs
                                    from Ultimate-Guitar.com database.

                                    Type "ultimate guitar tabs" in Apple
                                    App Store's or Android Market's
                                    search to find the application.
-------------------------------------------------------------------------------
                             Babydoll by Hole
-------------------------------------------------------------------------------

From 1991's "Pretty on the Inside". I revised this tab, it was the first one I'd ever
written and it was not entirely organized or correct, so here you go.
There are absolutely ZERO tabs for this song on the internet, so I figured I'd give it a
shot. The song is played with heavy distortion and involves a few string bends, but
it's mostly just sliding
technique. Fairly easy to play if you can keep up with the pace. 
Listen to the song to get the timing totally right.

Tabbed by: Scott H

"b" = string bend
"x" = string mute

Tuning: Standard


INTRO:

e|-------------------------|
B|-------------------------|
G|----------3333333--------|
D|-5555555--3333333--3-----|
A|-5555555--1111111--3-----|
E|-3333333-----------1-----|


VERSE I:

e|----------------------------------------------|
B|----------------------------------------------|
G|----------------------------------------------|
D|-7777777/10---777777/10---777777/10---777777--|
A|-7777777/10---777777/10---777777/10---777777--|
E|-5555555/-8---555555/-8---555555/-8---555555--|


   VERSE II:

    e|---------------------------------------|
    B|---------------------------------------|
    G|---------------------------------------|
    D|--444444/7--444444/7--444444/7--444444-|
    A|--444444/7--444444/7--444444/7--444444-|
    E|--222222/5--222222/5--222222/5--222222-|


VERSE I:
       Here you come sucking my energy and you
       Suck it up right off the street and a...


CHORUS:

e|---------------------------------------------|
B|---------------------------------------------|
G|-333333/6--333333/6--333333/6----------------|
D|-333333/6--333333/6--333333/6----------------|
A|-111111/4--111111/4--111111/4----------------|
E|-000000/0--000000/0--000000/0----------------|

       Ba...by...doll



VERSE III:

e|------------------------------------------|
B|------------------------------------------|
G|----------33333333---------33333333-------|
D|-55555555-33333333-5555555-33333333-------|  
A|-55555555-11111111-5555555-11111111-------|
E|-33333333----------3333333----------------|


       Here you are sucking my energy up
       Drill it my good hole so that I can see
       You are, you are so much bigger than me
       You are, you are so much bigger than me


CHORUS:
       And a... ba...by...doll


BRIDGE:

e|-------------------------------------------------|
B|-------------------------------------------------|
G|------9b-------9b-------9b-----------------------|
D|--9---9b---9---9b---9---9b---55555555555555555---|
A|--9---7b---9---7b---9---7b---55555555555555555---|
E|--7--------7--------7--------33333333333333333---|

       My raw hand, my fever blister
       Watch me, watch me
       Watch me disappear

       Here she comes, her pants undone
       All waste and void
       All waste and void



        VERSE I:
                   There you go in your Nazi car
                   Oh babydoll, what a whore you are
                 
        VERSE II:
                   And you're sitting around with your old rag
                   How can I, how can I 
                   Talk when you, you've got the gag?
                  
        VERSE I:
                   Here you come sucking my energy and you
                   Suck it up baby, right off the street and a...

        CHORUS:
                   Ba...by...doll

        VERSE III:
                   In the dark her, I destroy what
                   What I began, what I destroy
                   She's hanging in the blossom tree
                   Oh, babydoll just bleeds for me

        CHORUS:
                   Ba...by...doll

        BRIDGE: 
                   Babydoll, she's all I feel
                   Her chemical wedding
                   Her chemical peel

                   I knife me and I slash my
                   And I knife me and I slash my

         VERSE I:
                   Sick inside of me?
                   Well, here you are just as ugly as me

         VERSE II:
                   Drill it in my good hole so that I can see
                   Yeah, drill it in my good hole so that I can see
 
         VERSE I:
                   Here you come sucking my energy and you
                   Suck it up right off the street and a...

         CHORUS:
                   Ba...by...doll
  
         VERSE III:
                   She stares too long into the sun, now I
                   I want a cancer that the crooked eye spun
                   Well you, you are mine and my energy
                   'Cause you, you are so much bigger than me

         CHORUS:
                   Ba...by...doll

         BRIDGE: 
                   Little girl, she's on the floor
                   She gets it all 'cause she's the whore

                   Little girl, she's on the ground
                   She gets it all for falling
                   Falling down, falling down
                   And running wild

OUTRO:

e|-------------------------------------------|
B|-------------------------------------------|
G|-3b------3b------3b------3b/4-4-4----------|
D|-3b-3b-x-3b-3b-x-3b-3b-x-3b/4-4-4----------|
A|-1b-3b-x-1b-3b-x-1b-3b-x-1b/2-2-2----------|
E|----1b-x----1b-x----1b-x-------------------|

       "I am, I am," she says, 
       "I am not free", she says
       "Help me, I am withering..."
       "Withering..."
       Withering, withering

       Hang on, you need a soul
       Get yourself a soul
       A soul
       Until the soul comes down
comments
We did not receive enough feedback on this tab! Please rate:
print report bad tab
1 2 3 4 5
I want to post or [tab]
guest
You may want to rate the tab now too:
select rating
Please do not post tabs as comments. Select "correction" instead!