Oops, an error
Loading. Please wait.

Been To Hell Tab

ver7
ver7
More versions @911Tabs.com
1,754 views 3 this week
no commentswrite comment
1 2 3 4 5
please rate
Autoscroll
+/-
esc
set tempo
stop
Contributor
Difficulty
Tuning
novice
D A D G B E
WARNING: You are trying to view
                                    content from Ultimate-Guitar.com
                                    in an unauthorized application,
                                    which is prohibited.

                                    Please use an official Ultimate
                                    Guitar Tabs application for iPhone,
                                    iPad or Android to access legitimate
                                    chords, guitar, bass, and drum tabs
                                    from Ultimate-Guitar.com database.

                                    Type "ultimate guitar tabs" in Apple
                                    App Store's or Android Market's
                                    search to find the application.
Legend
--------------|
/ Slide up    |
\ Slide Down  |
x Mute Note   |
~ Let ring    |
^ Palm mute   |
+ Flanger     |
--------------|
Song: Been To Hell
Artist: Hollywood Undead
Tuning: Drop D
Tabbed By: Mattythawank

e]---------------------|
b]---------------------|
g]---------------------|
d]-22--9-7-5---2-5-77--|
a]-22--9-7-5---2-5-77--|
d]-22--9-7-5---2-5-77--|



e]---------------------|
b]---------------------|
g]---------------------|
d]-22--9-7-5---2-5-77--|
a]-22--9-7-5---2-5-77--|
d]-22--9-7-5---2-5-77--|



e]---------------------|
b]---------------------|
g]---------------------|
d]-22--9-7-5---2-5-77--|
a]-22--9-7-5---2-5-77--|
d]-22--9-7-5---2-5-77--|



e]---------------------|
b]---------------------|
g]---------------------|
d]-22--9-7-5---2-5-77--|
a]-22--9-7-5---2-5-77--|
d]-22--9-7-5---2-5-77--|



e]---------------------------------------------------------------|
b]---------------------------------------------------------------|
g]---------------------------------------------------------------|
d]--222--------------222--------------222--------------222~--xxx-|
a]--222--------------222--------------222--------------222~--xxx-|
d]--222--------------222--------------222--------------222~--xxx-|



e]---------------------------------------------------------------|
b]---------------------------------------------------------------|
g]---------------------------------------------------------------|
d]--222--------------222--------------222--------------222~--xxx-|
a]--222-2-0-------00-222-2-0-------00-222-2-0-------00-222~--xxx-|
d]--222-----5~25-----222-----5~25-----222-----5~25-----222~--xxx-|
        ^ ^ ^ ^^^ ^^     ^ ^ ^ ^^^ ^^     ^ ^ ^ ^^^ ^^


e]----------------------------------------------------------------|
b]----------------------------------------------------------------|
g]----------------------------------------------------------------|
d]-2-2-2~-2/5--5-5-5--0000--2-2-2~-2/5--5-5-5--7777---------------|
a]-2-2-2~-2/5--5-5-5--0000--2-2-2~-2/5--5-5-5--7777---------------|
d]-2-2-2~-2/5--5-5-5--0000--2-2-2~-2/5--5-5-5--7777---------------|



e]----------------------------------------------------------------|
b]----------------------------------------------------------------|
g]----------------------------------------------------------------|
d]-2-2-2~-2/5--5-5-5--0000--2-2-2~-2/5--5-5-5--7777---------------|
a]-2-2-2~-2/5--5-5-5--0000--2-2-2~-2/5--5-5-5--7777---------------|
d]-2-2-2~-2/5--5-5-5--0000--2-2-2~-2/5--5-5-5--7777---------------|



e]----------------------------------------------------------------|
b]----------------------------------------------------------------|
g]----------------------------------------------------------------|
d]-2-2-2~-2/5--5-5-5--0000--2-2-2~-2/5--5-5-5--7777---------------|
a]-2-2-2~-2/5--5-5-5--0000--2-2-2~-2/5--5-5-5--7777---------------|
d]-2-2-2~-2/5--5-5-5--0000--2-2-2~-2/5--5-5-5--7777---------------|



e]----------------------------------------------------------------|
b]----------------------------------------------------------------|
g]----------------------------------------------------------------|
d]-2-2-2~-2/5--5-5-5--0000--2-2-2~-2/5--5-5-5--7777---------------|
a]-2-2-2~-2/5--5-5-5--0000--2-2-2~-2/5--5-5-5--7777---------------|
d]-2-2-2~-2/5--5-5-5--0000--2-2-2~-2/5--5-5-5--7777---------------|



e]---------------------|
b]---------------------|
g]---------------------|
d]-22--9-7-5---2-5-77--|
a]-22--9-7-5---2-5-77--|
d]-22--9-7-5---2-5-77--|



e]---------------------|
b]---------------------|
g]---------------------|
d]-22--9-7-5---2-5-77--|
a]-22--9-7-5---2-5-77--|
d]-22--9-7-5---2-5-77--|




e]---------------------------------------------------------------|
b]---------------------------------------------------------------|
g]---------------------------------------------------------------|
d]--222--------------222--------------222--------------222~--xxx-|
a]--222-2-0-------00-222-2-0-------00-222-2-0-------00-222~--xxx-|
d]--222-----5~25-----222-----5~25-----222-----5~25-----222~--xxx-|
        ^ ^ ^ ^^^ ^^     ^ ^ ^ ^^^ ^^     ^ ^ ^ ^^^ ^^



e]---------------------------------------------------------------|
b]---------------------------------------------------------------|
g]---------------------------------------------------------------|
d]--222--------------222--------------222--------------222~------|
a]--222-2-0-------00-222-2-0-------00-222-2-0-------00-222~------|
d]--222-----5~25-----222-----5~25-----222-----5~25-----222~------|
        ^ ^ ^ ^^^ ^^     ^ ^ ^ ^^^ ^^     ^ ^ ^ ^^^ ^^ +++



e]----------------------------------------------------------------|
b]----------------------------------------------------------------|
g]----------------------------------------------------------------|
d]-2-2-2~-2/5--5-5-5--0000--2-2-2~-2/5--5-5-5--7777---------------|
a]-2-2-2~-2/5--5-5-5--0000--2-2-2~-2/5--5-5-5--7777---------------|
d]-2-2-2~-2/5--5-5-5--0000--2-2-2~-2/5--5-5-5--7777---------------|



e]----------------------------------------------------------------|
b]----------------------------------------------------------------|
g]----------------------------------------------------------------|
d]-2-2-2~-2/5--5-5-5--0000--2-2-2~-2/5--5-5-5--7777---------------|
a]-2-2-2~-2/5--5-5-5--0000--2-2-2~-2/5--5-5-5--7777---------------|
d]-2-2-2~-2/5--5-5-5--0000--2-2-2~-2/5--5-5-5--7777---------------|



e]----------------------------------------------------------------|
b]----------------------------------------------------------------|
g]----------------------------------------------------------------|
d]-2-2-2~-2/5--5-5-5--0000--2-2-2~-2/5--5-5-5--7777---------------|
a]-2-2-2~-2/5--5-5-5--0000--2-2-2~-2/5--5-5-5--7777---------------|
d]-2-2-2~-2/5--5-5-5--0000--2-2-2~-2/5--5-5-5--7777---------------|



e]----------------------------------------------------------------|
b]----------------------------------------------------------------|
g]----------------------------------------------------------------|
d]-2-2-2~-2/5--5-5-5--0000--2-2-2~-2/5--5-5-5--7777---------------|
a]-2-2-2~-2/5--5-5-5--0000--2-2-2~-2/5--5-5-5--7777---------------|
d]-2-2-2~-2/5--5-5-5--0000--2-2-2~-2/5--5-5-5--7777---------------|



e]---------------------|
b]---------------------|
g]---------------------|
d]-22--9-7-5---2-5-77--|
a]-22--9-7-5---2-5-77--|
d]-22--9-7-5---2-5-77--|



e]---------------------|
b]---------------------|
g]---------------------|
d]-22--9-7-5---2-5-77--|
a]-22--9-7-5---2-5-77--|
d]-22--9-7-5---2-5-77--|



e]---------------------------------------------------------------|
b]---------------------------------------------------------------|
g]---------------------------------------------------------------|
d]--222--------------222--------------222--------------222~--xxx-|
a]--222-2-0----------222-2-0----------222-2-0----------222~--xxx-|
d]--222-----5~25-----222-----5~25-----222-----5~25-----222~--xxx-|
        ^ ^ ^ ^^         ^ ^ ^ ^^         ^ ^ ^ ^^



e]---------------------------------------------------------------|
b]---------------------------------------------------------------|
g]---------------------------------------------------------------|
d]--222--------------222--------------222--------------2-2-------|
a]--222-2-0----------222-2-0----------222-2-0----------2-2-------|
d]--222-----5~25-----222-----5~25-----222-----5~25-----2-2-------|
        ^ ^ ^ ^^         ^ ^ ^ ^^         ^ ^ ^ ^^



e]----------------------------------------------------------------|
b]----------------------------------------------------------------|
g]----------------------------------------------------------------|
d]-2-2-2~-2/5--5-5-5--0000--2-2-2~-2/5--5-5-5--7777---------------|
a]-2-2-2~-2/5--5-5-5--0000--2-2-2~-2/5--5-5-5--7777---------------|
d]-2-2-2~-2/5--5-5-5--0000--2-2-2~-2/5--5-5-5--7777---------------|



e]----------------------------------------------------------------|
b]----------------------------------------------------------------|
g]----------------------------------------------------------------|
d]-2-2-2~-2/5--5-5-5--0000--2-2-2~-2/5--5-5-5--7777---------------|
a]-2-2-2~-2/5--5-5-5--0000--2-2-2~-2/5--5-5-5--7777---------------|
d]-2-2-2~-2/5--5-5-5--0000--2-2-2~-2/5--5-5-5--7777---------------|



e]----------------------------------------------------------------|
b]----------------------------------------------------------------|
g]----------------------------------------------------------------|
d]-2-2-2~-2/5--5-5-5--0000--2-2-2~-2/5--5-5-5--7777---------------|
a]-2-2-2~-2/5--5-5-5--0000--2-2-2~-2/5--5-5-5--7777---------------|
d]-2-2-2~-2/5--5-5-5--0000--2-2-2~-2/5--5-5-5--7777---------------|



e]----------------------------------------------------------------|
b]----------------------------------------------------------------|
g]----------------------------------------------------------------|
d]-2-2-2~-2/5--5-5-5--0000--2-2-2~-2/5--5-5-5--7777---------------|
a]-2-2-2~-2/5--5-5-5--0000--2-2-2~-2/5--5-5-5--7777---------------|
d]-2-2-2~-2/5--5-5-5--0000--2-2-2~-2/5--5-5-5--7777---------------|



e]---------------------|
b]---------------------|
g]---------------------|
d]-22--9-7-5---2-5-77--|
a]-22--9-7-5---2-5-77--|
d]-22--9-7-5---2-5-77--|



e]---------------------|
b]---------------------|
g]---------------------|
d]-22--9-7-5---2-5-77--|
a]-22--9-7-5---2-5-77--|
d]-22--9-7-5---2-5-77--|



e]---------------------|
b]---------------------|
g]---------------------|
d]-22--9-7-5---2-5-77--|
a]-22--9-7-5---2-5-77--|
d]-22--9-7-5---2-5-77--|



e]---------------------|
b]---------------------|
g]---------------------|
d]-22--9-7-5--2-5-77---|
a]-22--9-7-5--2-5-77---|
d]-22--9-7-5--2-5-77---|



e]---------------------|
b]---------------------|
g]---------------------|
d]-2-2~----------------|
a]-2-2~----------------|
d]-2-2~----------------|
comments
We did not receive enough feedback on this tab! Please rate:
print report bad tab
1 2 3 4 5
I want to post or [tab]
guest
You may want to rate the tab now too:
select rating
Please do not post tabs as comments. Select "correction" instead!