Oops, an error
Loading. Please wait.

Bullet Tab

ver2
ver2

Whole song

Interactive

More versions @911Tabs.com
5,742 views 6 this week
no commentswrite comment
1 2 3 4 5
excellent!
x 1
Autoscroll
+/-
esc
set tempo
stop
Contributor
Difficulty
novice
Hey! There's an official Ultimate Guitar app which is ideal
for learning songs when you're away from computer. Get the app
WARNING: You are trying to view
                                    content from Ultimate-Guitar.com
                                    in an unauthorized application,
                                    which is prohibited.

                                    Please use an official Ultimate
                                    Guitar Tabs application for iPhone,
                                    iPad or Android to access legitimate
                                    chords, guitar, bass, and drum tabs
                                    from Ultimate-Guitar.com database.

                                    Type "ultimate guitar tabs" in Apple
                                    App Store's or Android Market's
                                    search to find the application.
----------------------------------------------------------------------------
                                    Bullet
                               Hollywood Undead
----------------------------------------------------------------------------

First thing’s first, this not a full instrumental tab, I don’t have the drums,
xylophones, or bass in here... This is probably the catchiest song off the album to me. 
Check out
my cover if you are struggling at some part of the tab, or to check it out. Tell me how 
I did as well. NOTE: This tab is going to be different than my other tabs due to the fact
that there are a lot of parts. Each Instrument will be divided into sections. Enjoy!

Username: dkm817 (same on X box live)
Youtube Guitar Cover: http://www.youtube.com/watch?v=vfvASLYyRxg
Email: guitardrums@rockfan.com

(Tab Legend at bottom)
Guitar 1 Rhythmic (C G C F A D)
Guitar 2 Rhythmic (C G C F A D)
Guitar 3 Lead     (C G C F A D)
Guitar 4 Lead     (C G C F A D)
Guitar 5 Acoustic (E A D G B E)
Guitar 6 Acoustic (E A D G B E)

GUITAR 1==========================================================

Guitar 1 Part 1 (x6)

Guitar 1 (0:03) - (1:04)
D-9---9---9---9---9---9---9---9---9---9---9---9---9---9---9---9---|
A-11--11--11--11--11--11--11--11--9---9---9---9---9---9---9---11--|
F-11--11--11--11--11--11--11--11--10--10--10--10--10--10--10--10--|
C-----------------------------------------------------------------|
G-----------------------------------------------------------------|
C-----------------------------------------------------------------|
Pm.   .   .   .   .   .   .   .   .   .   .   .   .   .   .   .

Guitar 1
D-6---6---6---6---6---6---9---9-----------------------------------|
A-7---7---7---7---7---7---7---7---7---7---7---7---7---7---9---9---|
F-8---8---8---8---8---8---8---8---8---8---8---8---8---8---10--10--|
C-----------------------------------------------------------------|
G-----------------------------------------------------------------|
C-----------------------------------------------------------------|
Pm.   .   .   .   .   .   .   .   .   .   .   .   .   .   .   .


Guitar 1 Part 2

Guitar 1 (1:04) - (1:12)
D-9~~~~~~~~~~~~~~-9~~~~~~~~~~~~~~-9~~~~~~~~~~~~~~-----------------|
A-11~~~~~~~~~~~~~-11~~~~~~~~~~~~~-11~~~~~~~~~~~~~-----------------|
F-11~~~~~~~~~~~~~-11~~~~~~~~~~~~~-11~~~~~~~~~~~~~-----------------|
C-----------------------------------------------------------------|
G-----------------------------------------------------------------|
C-----------------------------------------------------------------|

Guitar 1 Part 3 (x2)

Guitar 1 (1:12) - (1:33)
D-----------------------------------------------------------------|
A-11--11--11--11--11--11--11--11--9---9---9---9---9---9---9---9---|
F-11--11--11--11--11--11--11--11--10--10--10--10--10--10--10--10--|
C-----------------------------------------------------------------|
G-----------------------------------------------------------------|
C-----------------------------------------------------------------|

Guitar 1
D---------------------------------9---9---9---9---9---9---9---9---|
A-11--11--11--11--11--11--11--11--11--11--11--11--11--11--11--11--|
F-11--11--11--11--11--11--11--11--11--11--11--11--11--11--11--11--|
C-----------------------------------------------------------------|
G-----------------------------------------------------------------|
C-----------------------------------------------------------------|

Guitar 1 Part 4 (x4)

Guitar 1 (1:33) - (2:15)
D-9---9---9---9---9---9---9---9---9---9---9---9---9---9---9---9---|
A-11--11--11--11--11--11--11--11--9---9---9---9---9---9---9---11--|
F-11--11--11--11--11--11--11--11--10--10--10--10--10--10--10--10--|
C-----------------------------------------------------------------|
G-----------------------------------------------------------------|
C-----------------------------------------------------------------|
Pm.   .   .   .   .   .   .   .   .   .   .   .   .   .   .   .

Guitar 1
D-6---6---6---6---6---6---9---9-----------------------------------|
A-7---7---7---7---7---7---7---7---7---7---7---7---7---7---9---9---|
F-8---8---8---8---8---8---8---8---8---8---8---8---8---8---10--10--|
C-----------------------------------------------------------------|
G-----------------------------------------------------------------|
C-----------------------------------------------------------------|
Pm.   .   .   .   .   .   .   .   .   .   .   .   .   .   .   .

Guitar 1 Part 5

Guitar 1 (2:15) - (2:22)
D-9~~~~~~~~~~~~~~-9~~~~~~~~~~~~~~-9~~~~~~~~~~~~~~-----------------|
A-11~~~~~~~~~~~~~-11~~~~~~~~~~~~~-11~~~~~~~~~~~~~-----------------|
F-11~~~~~~~~~~~~~-11~~~~~~~~~~~~~-11~~~~~~~~~~~~~-----------------|
C-----------------------------------------------------------------|
G-----------------------------------------------------------------|
C-----------------------------------------------------------------|

Guitar 1 Part 6 (x2)

Guitar 1 (2:22) - (2:43)
D-----------------------------------------------------------------|
A-11--11--11--11--11--11--11--11--9---9---9---9---9---9---9---9---|
F-11--11--11--11--11--11--11--11--10--10--10--10--10--10--10--10--|
C-----------------------------------------------------------------|
G-----------------------------------------------------------------|
C-----------------------------------------------------------------|

Guitar 1
D---------------------------------9---9---9---9---9---9---9---9---|
A-11--11--11--11--11--11--11--11--11--11--11--11--11--11--11--11--|
F-11--11--11--11--11--11--11--11--11--11--11--11--11--11--11--11--|
C-----------------------------------------------------------------|
G-----------------------------------------------------------------|
C-----------------------------------------------------------------|

Guitar 1 Part 7 (x3)

Guitar 1 (2:43) - (3:14)
D-9---9---9---9---9---9---9---9---9---9---9---9---9---9---9---9---|
A-11--11--11--11--11--11--11--11--9---9---9---9---9---9---9---11--|
F-11--11--11--11--11--11--11--11--10--10--10--10--10--10--10--10--|
C-----------------------------------------------------------------|
G-----------------------------------------------------------------|
C-----------------------------------------------------------------|
Pm.   .   .   .   .   .   .   .   .   .   .   .   .   .   .   .

Guitar 1
D-6---6---6---6---6---6---9---9-----------------------------------|
A-7---7---7---7---7---7---7---7---7---7---7---7---7---7---9---9---|
F-8---8---8---8---8---8---8---8---8---8---8---8---8---8---10--10--|
C-----------------------------------------------------------------|
G-----------------------------------------------------------------|
C-----------------------------------------------------------------|
Pm.   .   .   .   .   .   .   .   .   .   .   .   .   .   .   .

GUITAR 2==========================================================

Guitar 2 Part 1

Guitar 2 (1:04) - (1:12)
D-----------------------------------------------------------------|
A-----------------------------------------------------------------|
F-11~~~~~-10~~~~~-8~~~~~~-6~~~~~~-4~~~~~~~~~~~~~~~~~~~~~~~~~~~~~~-|
C-11~~~~~-10~~~~~-8~~~~~~-6~~~~~~-4~~~~~~~~~~~~~~~~~~~~~~~~~~~~~~-|
G-9~~~~~~-8~~~~~~-6~~~~~~-4~~~~~~-2~~~~~~~~~~~~~~~~~~~~~~~~~~~~~~-|
C-----------------------------------------------------------------|

Guitar 2
D-----------------------------------------------------------------|
A-----------------------------------------------------------------|
F-6~~~~~~~~~~~~~~~~~~~~~~~~~~~~~~-6-------------------------------|
C-6~~~~~~~~~~~~~~~~~~~~~~~~~~~~~~-6-------------------------------|
G-4~~~~~~~~~~~~~~~~~~~~~~~~~~~~~~-4-------------------------------|
C-----------------------------------------------------------------|

Guitar 2 Part 2 (x2)

Guitar 2 (1:12) - (1:33)
D-----------------------------------------------------------------|
A-----------------------------------------------------------------|
F---------------------------------6---6---6---6---6---6---6---6---|
C-4---4---4---4---4---4---4---4---6---6---6---6---6---6---6---6---|
G-4---4---4---4---4---4---4---4---4---4---4---4---4---4---4---4---|
C-4---4---4---4---4---4---4---4-----------------------------------|

Guitar 2
D-----------------------------------------------------------------|
A-----------------------------------------------------------------|
F-8---8---8---8---8---8---10--11--4---4---4---4---4---4---4---4---|
C-8---8---8---8---8---8---10--11--4---4---4---4---4---4---4---4---|
G-6---6---6---6---6---6---8---9---2---2---2---2---2---2---2---2---|
C-----------------------------------------------------------------|

Guitar 2 Part 3

Guitar 2 (1:33) - (1:35)
D-----------------------------------------------------------------|
A-----------------------------------------------------------------|
F-----------------------------------------------------------------|
C-4~~~~~~~~~~~~~~~~~~~~~~~~~~~~~~---------------------------------|
G-4~~~~~~~~~~~~~~~~~~~~~~~~~~~~~~---------------------------------|
C-4~~~~~~~~~~~~~~~~~~~~~~~~~~~~~~---------------------------------|

Guitar 2 Part 4

Guitar 2 (2:15) - (2:22)
D-----------------------------------------------------------------|
A-----------------------------------------------------------------|
F-11~~~~~-10~~~~~-8~~~~~~-6~~~~~~-4~~~~~~~~~~~~~~~~~~~~~~~~~~~~~~-|
C-11~~~~~-10~~~~~-8~~~~~~-6~~~~~~-4~~~~~~~~~~~~~~~~~~~~~~~~~~~~~~-|
G-9~~~~~~-8~~~~~~-6~~~~~~-4~~~~~~-2~~~~~~~~~~~~~~~~~~~~~~~~~~~~~~-|
C-----------------------------------------------------------------|

Guitar 2
D-----------------------------------------------------------------|
A-----------------------------------------------------------------|
F-6~~~~~~~~~~~~~~~~~~~~~~~~~~~~~~-6-------------------------------|
C-6~~~~~~~~~~~~~~~~~~~~~~~~~~~~~~-6-------------------------------|
G-4~~~~~~~~~~~~~~~~~~~~~~~~~~~~~~-4-------------------------------|
C-----------------------------------------------------------------|

Guitar 2 Part 5 (x2)

Guitar 2 (2:22) - (2:43)
D-----------------------------------------------------------------|
A-----------------------------------------------------------------|
F---------------------------------6---6---6---6---6---6---6---6---|
C-4---4---4---4---4---4---4---4---6---6---6---6---6---6---6---6---|
G-4---4---4---4---4---4---4---4---4---4---4---4---4---4---4---4---|
C-4---4---4---4---4---4---4---4-----------------------------------|

Guitar 2
D-----------------------------------------------------------------|
A-----------------------------------------------------------------|
F-8---8---8---8---8---8---10--11--4---4---4---4---4---4---4---4---|
C-8---8---8---8---8---8---10--11--4---4---4---4---4---4---4---4---|
G-6---6---6---6---6---6---8---9---2---2---2---2---2---2---2---2---|
C-----------------------------------------------------------------|

Guitar 2 Part 6

Guitar 2 (2:43) - (2:47)
D--------------------------------/9~------------------------------|
A-----------------------------------------------------------------|
F-----------------------------------------------------------------|
C-4~~~~~~~~~~~~~~~~~~~~~~~~~~~~~----------------------------------|
G-4~~~~~~~~~~~~~~~~~~~~~~~~~~~~~----------------------------------|
C-4~~~~~~~~~~~~~~~~~~~~~~~~~~~~~----------------------------------|

GUITAR 3==========================================================

Guitar 3 Part 1

Guitar 3 (0:12) - (0:23)
D-----------------------------------------------------------------|
A-x---x---11--11--x---x---11--11--x---x---11--11--x---x---11--11--|
F-x---x---11--11--x---x---11--11--x---x---11--11--x---x---11--11--|
C-----------------------------------------------------------------|
G-----------------------------------------------------------------|
C-----------------------------------------------------------------|

Guitar 3
D-----------------------------------------------------------------|
A-x---x---9---9---x---x---9---9---x---x---9---9---x---x---9---9---|
F-x---x---10--10--x---x---10--10--x---x---10--10--x---x---10--10--|
C-----------------------------------------------------------------|
G-----------------------------------------------------------------|
C-----------------------------------------------------------------|

Guitar 3
D-----------------------------------------------------------------|
A-x---x---11--11--x---x---11--11--x---x---11--11--x---x---11--11--|
F-x---x---11--11--x---x---11--11--x---x---11--11--x---x---11--11--|
C-----------------------------------------------------------------|
G-----------------------------------------------------------------|
C-----------------------------------------------------------------|

Guitar 3
D---------9---9-----------9---9-----------9---9-----------9---9---|
A-x---x---11--11--x---x---11--11--x---x---11--11--x---x---11--11--|
F-x---x---11--11--x---x---11--11--x---x---11--11--x---x---11--11--|
C-----------------------------------------------------------------|
G-----------------------------------------------------------------|
C-----------------------------------------------------------------|

Guitar 3 Part 2

Guitar 3 (0:54) - (1:04)
D-----------------------------------------------------------------|
A-x---x---11--11--x---x---11--11--x---x---11--11--x---x---11--11--|
F-x---x---11--11--x---x---11--11--x---x---11--11--x---x---11--11--|
C-----------------------------------------------------------------|
G-----------------------------------------------------------------|
C-----------------------------------------------------------------|

Guitar 3
D-----------------------------------------------------------------|
A-x---x---9---9---x---x---9---9---x---x---9---9---x---x---9---9---|
F-x---x---10--10--x---x---10--10--x---x---10--10--x---x---10--10--|
C-----------------------------------------------------------------|
G-----------------------------------------------------------------|
C-----------------------------------------------------------------|

Guitar 3
D-----------------------------------------------------------------|
A-x---x---11--11--x---x---11--11--x---x---11--11--x---x---11--11--|
F-x---x---11--11--x---x---11--11--x---x---11--11--x---x---11--11--|
C-----------------------------------------------------------------|
G-----------------------------------------------------------------|
C-----------------------------------------------------------------|

Guitar 3
D---------9---9-----------9---9-----------9---9-----------9---9---|
A-x---x---11--11--x---x---11--11--x---x---11--11--x---x---11--11--|
F-x---x---11--11--x---x---11--11--x---x---11--11--x---x---11--11--|
C-----------------------------------------------------------------|
G-----------------------------------------------------------------|
C-----------------------------------------------------------------|

Guitar 1 Part 3

Guitar 1 (1:04) - (1:12)
D-9~~~~~~~~~~~~~~-9~~~~~~~~~~~~~~-9~~~~~~~~~~~~~~-----------------|
A-11~~~~~~~~~~~~~-11~~~~~~~~~~~~~-11~~~~~~~~~~~~~-----------------|
F-11~~~~~~~~~~~~~-11~~~~~~~~~~~~~-11~~~~~~~~~~~~~-----------------|
C-----------------------------------------------------------------|
G-----------------------------------------------------------------|
C-----------------------------------------------------------------|

Guitar 1 Part 4 (x2)

Guitar 1 (1:12) - (1:33)
D-----------------------------------------------------------------|
A-11--11--11--11--11--11--11--11--9---9---9---9---9---9---9---9---|
F-11--11--11--11--11--11--11--11--10--10--10--10--10--10--10--10--|
C-----------------------------------------------------------------|
G-----------------------------------------------------------------|
C-----------------------------------------------------------------|

Guitar 1
D---------------------------------9---9---9---9---9---9---9---9---|
A-11--11--11--11--11--11--11--11--11--11--11--11--11--11--11--11--|
F-11--11--11--11--11--11--11--11--11--11--11--11--11--11--11--11--|
C-----------------------------------------------------------------|
G-----------------------------------------------------------------|
C-----------------------------------------------------------------|

Guitar 3 Part 5 (x2)

Guitar 3 (1:54) - (2:15)
D-----------------------------------------------------------------|
A-x---x---11--11--x---x---11--11--x---x---11--11--x---x---11--11--|
F-x---x---11--11--x---x---11--11--x---x---11--11--x---x---11--11--|
C-----------------------------------------------------------------|
G-----------------------------------------------------------------|
C-----------------------------------------------------------------|

Guitar 3
D-----------------------------------------------------------------|
A-x---x---9---9---x---x---9---9---x---x---9---9---x---x---9---9---|
F-x---x---10--10--x---x---10--10--x---x---10--10--x---x---10--10--|
C-----------------------------------------------------------------|
G-----------------------------------------------------------------|
C-----------------------------------------------------------------|

Guitar 3
D-----------------------------------------------------------------|
A-x---x---11--11--x---x---11--11--x---x---11--11--x---x---11--11--|
F-x---x---11--11--x---x---11--11--x---x---11--11--x---x---11--11--|
C-----------------------------------------------------------------|
G-----------------------------------------------------------------|
C-----------------------------------------------------------------|

Guitar 3
D---------9---9-----------9---9-----------9---9-----------9---9---|
A-x---x---11--11--x---x---11--11--x---x---11--11--x---x---11--11--|
F-x---x---11--11--x---x---11--11--x---x---11--11--x---x---11--11--|
C-----------------------------------------------------------------|
G-----------------------------------------------------------------|
C-----------------------------------------------------------------|

Guitar 1 Part 6

Guitar 1 (2:15) - (2:22)
D-9~~~~~~~~~~~~~~-9~~~~~~~~~~~~~~-9~~~~~~~~~~~~~~-----------------|
A-11~~~~~~~~~~~~~-11~~~~~~~~~~~~~-11~~~~~~~~~~~~~-----------------|
F-11~~~~~~~~~~~~~-11~~~~~~~~~~~~~-11~~~~~~~~~~~~~-----------------|
C-----------------------------------------------------------------|
G-----------------------------------------------------------------|
C-----------------------------------------------------------------|

Guitar 1 Part 7 (x2)

Guitar 1 (2:22) - (2:43)
D-----------------------------------------------------------------|
A-11--11--11--11--11--11--11--11--9---9---9---9---9---9---9---9---|
F-11--11--11--11--11--11--11--11--10--10--10--10--10--10--10--10--|
C-----------------------------------------------------------------|
G-----------------------------------------------------------------|
C-----------------------------------------------------------------|

Guitar 1
D---------------------------------9---9---9---9---9---9---9---9---|
A-11--11--11--11--11--11--11--11--11--11--11--11--11--11--11--11--|
F-11--11--11--11--11--11--11--11--11--11--11--11--11--11--11--11--|
C-----------------------------------------------------------------|
G-----------------------------------------------------------------|
C-----------------------------------------------------------------|

GUITAR 4==========================================================

Guitar 4 Part 1 (x2)

Guitar 4 (1:54) - (2:15)
D-------------------------21~~~~~-------------------------21~~~~~-|
A-19~~~~~~~~~~~~~-----------------21~~~~~~~~~~~~~-----------------|
F-----------------18~~~~~-------------------------18~~~~~---------|
C-----------------------------------------------------------------|
G-----------------------------------------------------------------|
C-----------------------------------------------------------------|

Guitar 4
D-----------------------------------------------------------------|
A-19~~~~~~~~~~~~~---------19~~~~~-19~~~~~---------19~~~~~-21~~~~~-|
F-----------------18~~~~~-----------------18~~~~~-----------------|
C-----------------------------------------------------------------|
G-----------------------------------------------------------------|
C-----------------------------------------------------------------|

Guitar 4 Part 2

Guitar 4 (2:15) - (2:17)
D-----------------------------------------------------------------|
A-19~~~~~~~~~~~~~~~~~~~~~~~~~~~~~---------------------------------|
F-----------------------------------------------------------------|
C-----------------------------------------------------------------|
G-----------------------------------------------------------------|
C-----------------------------------------------------------------|

GUITAR 5==========================================================

Guitar 5 Part 1 (x26) (It’s basically like this the whole time)

Guitar 5 (0:00) - (1:04)
E-----------------------------------------------------------------|
B-----------------------------------------------------------------|
G-----------------------------------------------------------------|
D-x-------x---x-------x---x---x---x-------x---x-------x---x---x---|
A-x-------x---x-------x---x---x---x-------x---x-------x---x---x---|
E-x-------x---x-------x---x---x---x-------x---x-------x---x---x---|
          V           v       v           V           v       v

Guitar 5 Part 2 (1:04) - (1:12)

Guitar 5
E-----------------------------------------------------------------|
B-----------------------------------------------------------------|
G-----------------------------------------------------------------|
D-x-------x---x-------x---x---x---x-------x---x-------x---x---x---|
A-x-------x---x-------x---x---x---x-------x---x-------x---x---x---|
E-x-------x---x-------x---x---x---x-------x---x-------x---x---x---|
          V           v       v           V           v       v

Guitar 5
E-----------------------------------------------------------------|
B-----------------------------------------------------------------|
G-----------------------------------------------------------------|
D-x-------x---x-------x---x---x---x-------x---x-------x---x---x---|
A-x-------x---x-------x---x---x---x-------x---x-------x---x---x---|
E-x-------x---x-------x---x---x---x-------x---x-------x---x---x---|
          V           v       v           V           v       v

Guitar 5
E-----------------------------------------------------------------|
B-----------------------------------------------------------------|
G-----------------------------------------------------------------|
D-x-------x---x-------x---x---x---x-------------------------------|
A-x-------x---x-------x---x---x---x-------------------------------|
E-x-------x---x-------x---x---x---x-------------------------------|
          V           v       v

Guitar 5 Part 3 (x24)

Guitar 5 (1:12) - (2:15)
E-----------------------------------------------------------------|
B-----------------------------------------------------------------|
G-----------------------------------------------------------------|
D-x-------x---x-------x---x---x---x-------x---x-------x---x---x---|
A-x-------x---x-------x---x---x---x-------x---x-------x---x---x---|
E-x-------x---x-------x---x---x---x-------x---x-------x---x---x---|
          V           v       v           V           v       v

Guitar 5 Part 4 (2:15) - (2:22)

Guitar 5
E-----------------------------------------------------------------|
B-----------------------------------------------------------------|
G-----------------------------------------------------------------|
D-x-------x---x-------x---x---x---x-------x---x-------x---x---x---|
A-x-------x---x-------x---x---x---x-------x---x-------x---x---x---|
E-x-------x---x-------x---x---x---x-------x---x-------x---x---x---|
          V           v       v           V           v       v

Guitar 5
E-----------------------------------------------------------------|
B-----------------------------------------------------------------|
G-----------------------------------------------------------------|
D-x-------x---x-------x---x---x---x-------x---x-------x---x---x---|
A-x-------x---x-------x---x---x---x-------x---x-------x---x---x---|
E-x-------x---x-------x---x---x---x-------x---x-------x---x---x---|
          V           v       v           V           v       v

Guitar 5
E-----------------------------------------------------------------|
B-----------------------------------------------------------------|
G-----------------------------------------------------------------|
D-x-------x---x-------x---x---x---x-------------------------------|
A-x-------x---x-------x---x---x---x-------------------------------|
E-x-------x---x-------x---x---x---x-------------------------------|
          V           v       v

Guitar 5 Part 5 (x8)

Guitar 5 (2:22) - (2:43)
E-----------------------------------------------------------------|
B-----------------------------------------------------------------|
G-----------------------------------------------------------------|
D-x-------x---x-------x---x---x---x-------x---x-------x---x---x---|
A-x-------x---x-------x---x---x---x-------x---x-------x---x---x---|
E-x-------x---x-------x---x---x---x-------x---x-------x---x---x---|
          V           v       v           V           v       v

GUITAR 6==========================================================

Guitar 6 Part 1 (x6)

Guitar 6 (0:03) - (1:04)
E---------0---0-----------0---0-----------0---0-------------------|
B-----------------------------------------------------2---0-------|
G-----------------------------------------------------------------|
D-----------------------------------------------------------------|
A-----------------------------------------------------------------|
E-----------------------------------------------------------------|

Guitar 6
E---------2---2-----------2---2-----------2---2-------2---2h--4---|
B-----------------------------------------------------------------|
G-----------------------------------------------------------------|
D-----------------------------------------------------------------|
A-----------------------------------------------------------------|
E-----------------------------------------------------------------|

Guitar 6
E---------4---4-----------4---4-----------4---4-------4---4h--5---|
B-----------------------------------------------------------------|
G-----------------------------------------------------------------|
D-----------------------------------------------------------------|
A-----------------------------------------------------------------|
E-----------------------------------------------------------------|

Guitar 6
E---------5---5-----------5---5-----------5---5-----------5---5---|
B-----------------------------------------------------------------|
G-----------------------------------------------------------------|
D-----------------------------------------------------------------|
A-----------------------------------------------------------------|
E-----------------------------------------------------------------|

Guitar 6 Part 2

Guitar 6 (1:04) - (1:07)
E-0~~~~~~~~~~~~~~~~~~~~~~~~~~~~~~~~~~~~~~~~~~~~~~~~~~~~~~~~~~~~~~-
B-----------------------------------------------------------------|
G-----------------------------------------------------------------|
D-----------------------------------------------------------------|
A-----------------------------------------------------------------|
E-----------------------------------------------------------------|

Guitar 6 Part 3 (x6)

Guitar 6 (1:12) - (2:15)
E---------0---0-----------0---0-----------0---0-------------------|
B-----------------------------------------------------2---0-------|
G-----------------------------------------------------------------|
D-----------------------------------------------------------------|
A-----------------------------------------------------------------|
E-----------------------------------------------------------------|

Guitar 6
E---------2---2-----------2---2-----------2---2-------2---2h--4---|
B-----------------------------------------------------------------|
G-----------------------------------------------------------------|
D-----------------------------------------------------------------|
A-----------------------------------------------------------------|
E-----------------------------------------------------------------|

Guitar 6
E---------4---4-----------4---4-----------4---4-------4---4h--5---|
B-----------------------------------------------------------------|
G-----------------------------------------------------------------|
D-----------------------------------------------------------------|
A-----------------------------------------------------------------|
E-----------------------------------------------------------------|

Guitar 6
E---------5---5-----------5---5-----------5---5-----------5---5---|
B-----------------------------------------------------------------|
G-----------------------------------------------------------------|
D-----------------------------------------------------------------|
A-----------------------------------------------------------------|
E-----------------------------------------------------------------|

Guitar 6 Part 4

Guitar 6 (2:15) - (2:17)
E-0~~~~~~~~~~~~~~~~~~~~~~~~~~~~~~~~~~~~~~~~~~~~~~~~~~~~~~~~~~~~~~-
B-----------------------------------------------------------------|
G-----------------------------------------------------------------|
D-----------------------------------------------------------------|
A-----------------------------------------------------------------|
E-----------------------------------------------------------------|

Guitar 6 Part 5 (x2)

Guitar 6 (2:22) - (2:43)
E---------0---0-----------0---0-----------0---0-------------------|
B-----------------------------------------------------2---0-------|
G-----------------------------------------------------------------|
D-----------------------------------------------------------------|
A-----------------------------------------------------------------|
E-----------------------------------------------------------------|

Guitar 6
E---------2---2-----------2---2-----------2---2-------2---2h--4---|
B-----------------------------------------------------------------|
G-----------------------------------------------------------------|
D-----------------------------------------------------------------|
A-----------------------------------------------------------------|
E-----------------------------------------------------------------|

Guitar 6
E---------4---4-----------4---4-----------4---4-------4---4h--5---|
B-----------------------------------------------------------------|
G-----------------------------------------------------------------|
D-----------------------------------------------------------------|
A-----------------------------------------------------------------|
E-----------------------------------------------------------------|

Guitar 6
E---------5---5-----------5---5-----------5---5-----------5---5---|
B-----------------------------------------------------------------|
G-----------------------------------------------------------------|
D-----------------------------------------------------------------|
A-----------------------------------------------------------------|
E-----------------------------------------------------------------|

Guitar 6 Part 6

Guitar 6 (2:43) - (2:46)
E-0~~~~~~~~~~~~~~~~~~~~~~~~~~~~~~~~~~~~~~~~~~~~~~~~~~~~~~~~~~~~~~-
B-----------------------------------------------------------------|
G-----------------------------------------------------------------|
D-----------------------------------------------------------------|
A-----------------------------------------------------------------|
E-----------------------------------------------------------------|

Tab Legend
h  -  hammer-on
p  -  pull-off
/  -  slide up
\  -  slide down
ps/-  pickslide up
ps\-  pickslide down
~  -  let ring
pm.-  palm mute
b  -  bend
r  -  return from bend
*  -  harmonic
x  -  dead note
^  -  Whammy bar
v  -  Acsent (low)
V  -  Acsent (high)

That’s all of it! I hope this tab wasn’t confusing in anyway, and if it way, just ask
me. Check out my cover, and tell me how I did. Thanks, oh and one last thing... ROCK OUT!!!!
comments
We did not receive enough feedback on this tab! Please rate:
print report bad tab
1 2 3 4 5
I want to post or [tab]
guest
You may want to rate the tab now too:
select rating
Please do not post tabs as comments. Select "correction" instead!