Oops, an error
Loading. Please wait.

Comin In Hot Tab

4,982 views 51 this week
no commentswrite comment
1 2 3 4 5
accurate
x 3
Autoscroll
+/-
esc
set tempo
stop
Contributor
Difficulty
Tuning
novice
D A D G B E
Hey! There's an official Ultimate Guitar app which is ideal
for learning songs when you're away from computer. Get the app
WARNING: You are trying to view
                                    content from Ultimate-Guitar.com
                                    in an unauthorized application,
                                    which is prohibited.

                                    Please use an official Ultimate
                                    Guitar Tabs application for iPhone,
                                    iPad or Android to access legitimate
                                    chords, guitar, bass, and drum tabs
                                    from Ultimate-Guitar.com database.

                                    Type "ultimate guitar tabs" in Apple
                                    App Store's or Android Market's
                                    search to find the application.
-----------------------------------------------------------------------------
                   COMIN' IN HOT - Hollywood Undead
-----------------------------------------------------------------------------
Tabbed by: Syn_August

Album: American Tragedy
Artist: Hollywood Undead

Tuning: Drop D(DADGBE)
In the Key of: D Minor

This song doesn't really depend very much on a guitar, so instead of tabbing just the
one guitar (which is only three power chords), I've tabbed the melody played in the
background (tabbed as "guitar 2") in case you have a second guitar/bass and you're 
looking to make the song sound "full". I find that using a heavy distortion/fuzz works well to
imitate the sound. Please let me know if there are any mistakes.


**Update: After watching the music video, I noticed that the song is actually played in
a different tuning. I've changed the tab to drop D. If you'd still like to play it in
standard tuning (less trouble and it still sounds good), just play D5 on the fifth 
string (fifth fret), and both F5 and G5 on the sixth string (first and third frets, respectfully).


(**Note: For lyrics, each verse is separated into four parts (a, b, c, and d). Only one
section - verse one, part a - is shown to show you how the tab correlates with the lyrics)





| INTRO |


Guitar 1:

e|---------------------12---17------------12--17----|
B|--------------15-------------15------15-----------|
G|--------------------------------------------------|  x4
D|--------------------------------------------------|
A|--------------------------------------------------|
E|--------------------------------------------------|

    If you got Jack in your cup, go raise it up
    (Go raise it up, go raise it up)
    If you ain’t got enough, go fill it up
    (Go fill it up, go fill it up)



Guitar 2:


e|----------------------------------------------|
B|----------------------------------------------|
G|----------------------------------------------|
D|----------------------------------------------|
A|--------------5\-----(5)----------------------|
E|----------------------------------------------|

    If you got Jack in your cup, go raise it up

e|-------------------------------------------------|
B|-------------------------------------------------|
G|-------------------------------------------------|
D|-------------7-----------------------------------|
A|--------5-------5\------------5----(5)-----------|
E|-------------------------------------------------|

    (Go raise it up, go raise it up)

e|----------------------------------|
B|----------------------------------|
G|----------------------------------|
D|----------------------------------|
A|----(5)-8~------------------------|
E|----------------------------------|

    If you ain’t got enough, go fill it up

e|----------------------------------|
B|----------------------------------|
G|----------------------------------|
D|----------------------------------|
A|--------10~-\---------------------|
E|----------------------------------|

    (Go fill it up, go fill it up)





| CHORUS |


Guitar 1:
                D5
e|--------------------------------------------|
B|--------------------------------------------|
G|--------------------------------------------|  x2
D|--------------0-----------------------------|
A|--------------0-----------------------------|
E|--------------0-----------------------------|

 1. I’m gonna chase this whiskey with Patrón
    I want a girl on my lap and a Jägerbomb

 2. I'll drink a fifth of vodka 'till it's gone
    And if it feels so good, then it can't be wrong


           F5
e|-----------------------------------|
B|-----------------------------------|
G|-----------------------------------|
D|---------3-------------------------|
A|---------3-------------------------|
E|---------3-------------------------|

     I’m comin’ in hot, you heard me


                      G5
e|----------------------------------------------|
B|----------------------------------------------|
G|----------------------------------------------|
D|--------------------5-------------------------|
A|--------------------5-------------------------|
E|--------------------5-------------------------|

 1.  And Imma make it rain on the girl who serves me
 2.  And we be taking shots, and if not, you're nerdy



Guitar 2:
              D5
e|----------------------------------------------|
B|----------------------------------------------|
G|----------------------------------------------|
D|----------------------------------------------|
A|------------5\-----(5)-----(5)-(5)----(5)-----|
E|----------------------------------------------|

 1. I’m gonna chase this whiskey with Patrón
    I want a girl on my lap and a Jägerbomb

 2. I'll drink a fifth of vodka 'till it's gone
    And if it feels so good, then it can't be wrong


                   F5
e|----------------------------------|
B|----------------------------------|
G|----------------------------------|
D|----------------------------------|
A|-----------------8~---------------|
E|----------------------------------|

    I’m comin’ in hot, you heard me


                     G5
e|----------------------------------|
B|----------------------------------|
G|----------------------------------|
D|----------------------------------|
A|-------------------10~-\----------|
E|----------------------------------|

 1. And Imma make it rain on the girl who serves me
 2. And we be taking shots, and if not, you're nerdy





| VERSE |


Guitar 1:
              D5
e|----------------------------------------------|
B|----------------------------------------------|
G|----------------------------------------------|
D|----------------------------------------------|
A|------------5\-----(5)-----(5)-(5)------------|
E|----------------------------------------------|

 a)  We only leave a pre-party to go party some more


           D5
e|----------------------------------------------|
B|----------------------------------------------|
G|----------------------------------------------|
D|----------------------------------------------|
A|-----(5)-5\----------------(5)----------------|
E|----------------------------------------------|

 a)  I’m already shitfaced before I walk in the door


                   F5
e|----------------------------------|
B|----------------------------------|
G|----------------------------------|
D|-----------------3~---------------|
A|-----------------3~---------------|
E|-----------------3~---------------|

 a)  This girls rubbing on my leg, I never met her before


                     G5
e|----------------------------------|
B|----------------------------------|
G|----------------------------------|
D|-------------------5~-------------|
A|-------------------5~-------------|
E|-------------------5~-------------|

 a)  And now she is making her way down to my gentleman's sword



Guitar 2:


(**Something like this is played near the end of parts a and c. It's very hard to hear,
but it should be something along these lines)

e|---17-17-17---17-17-17---17-17-17----------------|
B|------------------------------------15-15-15-----|
G|-------------------------------------------------|
D|-------------------------------------------------|
A|-------------------------------------------------|
E|-------------------------------------------------|


(**The intro riff is played during parts b and d)

e|---------------------12---17------------12--17----|
B|--------------15-------------15------15-----------|
G|--------------------------------------------------|
D|--------------------------------------------------|
A|--------------------------------------------------|
E|--------------------------------------------------|






| INTRO 2 |


Guitar 1:
                D5
e|--------------------------------------------|
B|--------------------------------------------|
G|--------------------------------------------|  x2
D|--------------0-----------------------------|
A|--------------0-----------------------------|
E|--------------0-----------------------------|

    If you got Jack in your cup, go raise it up
    If you ain't got enough, go fill it up


            F5
e|-----------------------------------|
B|-----------------------------------|
G|-----------------------------------|
D|----------3~-----------------------|
A|----------3~-----------------------|
E|----------3~-----------------------|

    If you had too much, don't throw it up


             G5
e|---------------------------------------------|
B|---------------------------------------------|
G|---------------------------------------------|
D|-----------5~--------------------------------|
A|-----------5~--------------------------------|
E|-----------5~--------------------------------|

    And if you ain't got shit, throw your hands up



Guitar 2:

e|---------------------12---17------------12--17----|
B|--------------15-------------15------15-----------|
G|--------------------------------------------------|  x4
D|--------------------------------------------------|
A|--------------------------------------------------|
E|--------------------------------------------------|


Song Order:

Intro (0:00)
Chorus (0:10)
Verse 1 (0:30)
Chorus (1:10)
Intro 2 (1:30)
Verse 2 (1:41)
Chorus (2:21)
Intro 2 (2:41)
Intro 2 (2:51)
Chorus (3:01)
Intro (3:22)
Intro (3:32)




Additional Lyrics:


Verse 1 -


b) It might be the drugs talking or the shots of Patrón
   But these bitches look like models and they're ready to bone
   I’ll take em back to my parents house, we'll be home alone
   Slap them cheeks and have 'em yelling like Macaulay Culkin
c) She’s tearing it up, yeah, she's dancing her ass off
   This girls like a Mac, the way she's riding my laptop
   I’m trying to get my rocks off, so don’t try to cockblock
   I’ll grab my sawed off and I’ll blow your cock off
d) You know we drink so much, we getting drunk for weeks
   We drink so much goose, we turnin' into geese
   Me and my crew fought the feed through VIP
   These bitches blow my skin flute like they're Kenny G


Verse 2 -


a) Get gone with it, there's nothin' wrong with it
   Take shots, don't stop, sing along with it
   I wanna feel you bounce, girl, go up and down
   Take shots, don't stop 'till I'm passin' out
b) Girl get down, you can have more
   And you can shake your hips around on my man sword
   You're gonna have to rock this house, I'm your landlord
   So let your sweat drip down on the dance floor
c) I ain't try to go home with, nolla nolla
   We can hit the dance floor when you, wanna wanna
   Girl, you know you're feelin' me so, holla holla
   'Cause everyone compared to me is, nada nada
d) Okay dawg, this has gone on for way long
   Can't quit my day job 'till I'm played on K-Rock
   It's chaos! I'm in the club with my shades on
   And I'm about to smack that like I'm Akon




************************************

| /    slide up
| \    slide down
| x2   repeat
|(3)   a "ghost note" (quiet/barely audible note)
| ~    vibrato

************************************
comments
We did not receive enough feedback on this tab! Please rate:
print report bad tab
1 2 3 4 5
I want to post or [tab]
guest
You may want to rate the tab now too:
select rating
Please do not post tabs as comments. Select "correction" instead!