Oops, an error
Loading. Please wait.

Hear Me Now Tab

ver3
ver3

Whole song

Interactive

More versions @911Tabs.com
10,669 views 6 this week
2 commentsread comments
1 2 3 4 5
accurate
x 3
Autoscroll
+/-
esc
set tempo
stop
Contributor
Difficulty
Tuning
intermediate
C G C F A D
Hey! There's an official Ultimate Guitar app which is ideal
for learning songs when you're away from computer. Get the app
WARNING: You are trying to view
                                    content from Ultimate-Guitar.com
                                    in an unauthorized application,
                                    which is prohibited.

                                    Please use an official Ultimate
                                    Guitar Tabs application for iPhone,
                                    iPad or Android to access legitimate
                                    chords, guitar, bass, and drum tabs
                                    from Ultimate-Guitar.com database.

                                    Type "ultimate guitar tabs" in Apple
                                    App Store's or Android Market's
                                    search to find the application.
----------------------------------------------------------------------------
                                 Hear Me Now
                               Hollywood Undead
----------------------------------------------------------------------------

Alright! My first guitar tab for Hollywood Undead, and I love to play it. Just a tip, I
tuned the F string to G, because that is just the way I do it, but the tab keeps the F
string tuned F. So just subtract that string by 2 frets and it should be good. My 
youtube cover is a little bit different, but not at all separate from the notes from this tab. I
hope it helps. Enjoy!

Username: dkm817 (same on X box live)
Lyrics made by: http://www.hotnewsonglyrics.com/hollywood-undead-hear-me-now-lyrics.html
Youtube Guitar Cover: http://www.youtube.com/watch?v=0mD4RnHhR70
Email: guitardrums@rockfan.com

(Tab Legend at bottom)
Guitar 1 Rhythmic (C G C F A D)
Guitar 2 Lead     (C G C F A D)

Intro 1

Guitar 1 “Now...”
D---------------------------------|---------------------------------|
A---------------------------------|---------------------------------|
F---------------------------------|---------------------------------|
C---------------------------------|---------------------------------|
G---------------------------------|---------------------------------|
C---------------------------------|---------------------------------|

Guitar 2 (Wah Effect: Low)
D---------------------------------|---------------------------------|
A---------------------------------|---------------------------------|
F---------------2-6-2-------------|---------------2-7-2-------------|
C-------4-----4-------4-----------|-------4-----4-------4-----------|
G-----4---0-4-----------4---------|-----4---0-4-----------4---------|
C-4-7---------------------7-4-7-6-|-4-7---------------------7-4-7-6-|

Guitar 1 “Now...”                                          |Triplets|
D---------------------------------|------------------------|--------|
A---------------------------------|------------------------|--------|
F---------------------------------|------------------------|--------|
C---------------------------------|-x-x---x-x-x---x-x---x--|x--x--x-|
G---------------------------------|-x-x---x-x-x---x-x---x--|x--x--x-|
C---------------------------------|-x-x---x-x-x---x-x---x--|x--x--x-|

Guitar 2
D---------------------------------|---------------------------------|
A---------------------------------|-----------------9---------------|
F-------------6-9-6---------------|---------------9---9-------------|
C-------------------7-------------|-----6-9---6-9-------9-6---9-6---|
G-0-4-7-0-4-7---------7-4-0-7-4-0-|-7-7-----7---------------7-----7-|
C---------------------------------|---------------------------------|

Intro 2

Guitar 1 “Now...”
D---------------------------------|---------------------------------|
A---------------------------------|---------------------------------|
F---------------------------------|-7~~~~~~~~~~~~~~~~~~~~~~~~~~~~~~-|
C-4~~~~~~~~~~~~~~~~~~~~~~~~~~~~~~-|-7~~~~~~~~~~~~~~~~~~~~~~~~~~~~~~-|
G-4~~~~~~~~~~~~~~~~~~~~~~~~~~~~~~-|-5~~~~~~~~~~~~~~~~~~~~~~~~~~~~~~-|
C-4~~~~~~~~~~~~~~~~~~~~~~~~~~~~~~-|---------------------------------|

Guitar 2
D---------------------------------|---------------------------------|
A---------------------------------|---------------------------------|
F---------------2-6-2-------------|---------------2-7-2-------------|
C-------4-----4-------4-----------|-------4-----4-------4-----------|
G-----4---0-4-----------4---------|-----4---0-4-----------4---------|
C-4-7---------------------7-4-7-6-|-4-7---------------------7-4-7-6-|

Guitar 1 “Now...”
D---------------------------------|---------------------------------|
A---------------------------------|---------------------------------|
F---------------------------------|---------------------------------|
C-7~~~~~~~~~~~~~~~~~~~~~~~~~~~~~~-|-2~~~~~~~~~~~~~~~14\~~~~~~~~~~~~-|
G-7~~~~~~~~~~~~~~~~~~~~~~~~~~~~~~-|-2~~~~~~~~~~~~~~~14\~~~~~~~~~~~~-|
C-7~~~~~~~~~~~~~~~~~~~~~~~~~~~~~~-|-2~~~~~~~~~~~~~~-14\~~~~~~~~~~~~-|

Guitar 2
D---------------------------------|---------------------------------|
A---------------------------------|-----------------9---------------|
F-------------6-9-6---------------|---------------9---9-------------|
C-------------------7-------------|-----6-9---6-9-------9-6---9-6---|
G-0-4-7-0-4-7---------7-4-0-7-4-0-|-7-7-----7---------------7-----7-|
C---------------------------------|---------------------------------|

Verse 1

Guitar 1 “As I Walked Through the Valley of the Shadow of Death...”
D---------------------------------|---------------------------------|
A---------------------------------|---------------------------------|
F---------------------------------|-7~~~~~~~~~~~~~~~~~~~~~~~~~~~~~~-|
C-4~~~~~~~~~~~~~~~~~~~~~~~~~~~~~~-|-7~~~~~~~~~~~~~~~~~~~~~~~~~~~~~~-|
G-4~~~~~~~~~~~~~~~~~~~~~~~~~~~~~~-|-5~~~~~~~~~~~~~~~~~~~~~~~~~~~~~~-|
C-4~~~~~~~~~~~~~~~~~~~~~~~~~~~~~~-|---------------------------------|

Guitar 2
D---------------------------------|---------------------------------|
A---------------------------------|---------------------------------|
F---------------------------------|---------------------------------|
C-4~~~~~~~~~~~~~~~~~~~~~~~~~~~~~~-|-0~~~~~~~~~~~~~~~~~~~~~~~~~~~~~~-|
G-4~~~~~~~~~~~~~~~~~~~~~~~~~~~~~~-|-0~~~~~~~~~~~~~~~~~~~~~~~~~~~~~~-|
C-4~~~~~~~~~~~~~~~~~~~~~~~~~~~~~~-|-0~~~~~~~~~~~~~~~~~~~~~~~~~~~~~~-|

Guitar 1 “I Keep Searching For Something That I Never Seem To Find...”
D---------------------------------|---------------------------------|
A---------------------------------|---------------------------------|
F---------------------------------|---------------------------------|
C-7~~~~~~~~~~~~~~~~~~~~~~~~~~~~~~-|-2~~~~~~~~~~~~~~~~~~~~~~~~~~~~~~-|
G-7~~~~~~~~~~~~~~~~~~~~~~~~~~~~~~-|-2~~~~~~~~~~~~~~~~~~~~~~~~~~~~~~-|
C-7~~~~~~~~~~~~~~~~~~~~~~~~~~~~~~-|-2~~~~~~~~~~~~~~~~~~~~~~~~~~~~~~-|

Guitar 2
D---------------------------------|---------------------------------|
A---------------------------------|---------------------------------|
F---------------------------------|---------------------------------|
C-7~~~~~~~~~~~~~~~~~~~~~~~~~~~~~~-|-2~~~~~~~~~~~~~~~~~~~~~~~~~~~~~~-|
G-7~~~~~~~~~~~~~~~~~~~~~~~~~~~~~~-|-2~~~~~~~~~~~~~~~~~~~~~~~~~~~~~~-|
C-7~~~~~~~~~~~~~~~~~~~~~~~~~~~~~~-|-2~~~~~~~~~~~~~~~~~~~~~~~~~~~~~~-|

Guitar 1 “Now I’m Stuck with This and That Will Never Change...”
D---------------------------------|---------------------------------|
A---------------------------------|---------------------------------|
F---------------------------------|-7~~~~~~~~~~~~~~~~~~~~~~~~~~~~~~-|
C-4~~~~~~~~~~~~~~~~~~~~~~~~~~~~~~-|-7~~~~~~~~~~~~~~~~~~~~~~~~~~~~~~-|
G-4~~~~~~~~~~~~~~~~~~~~~~~~~~~~~~-|-5~~~~~~~~~~~~~~~~~~~~~~~~~~~~~~-|
C-4~~~~~~~~~~~~~~~~~~~~~~~~~~~~~~-|---------------------------------|

Guitar 2
D---------------------------------|---------------------------------|
A---------------------------------|---------------------------------|
F---------------------------------|---------------------------------|
C-4~~~~~~~~~~~~~~~~~~~~~~~~~~~~~~-|-0~~~~~~~~~~~~~~~~~~~~~~~~~~~~~~-|
G-4~~~~~~~~~~~~~~~~~~~~~~~~~~~~~~-|-0~~~~~~~~~~~~~~~~~~~~~~~~~~~~~~-|
C-4~~~~~~~~~~~~~~~~~~~~~~~~~~~~~~-|-0~~~~~~~~~~~~~~~~~~~~~~~~~~~~~~-|

Guitar 1 “Where To Go From Here, What Road To Travel On...”
D---------------------------------|---------------------------------|
A---------------------------------|---------------------------------|
F---------------------------------|---------------------------------|
C-7~~~~~~~~~~~~~~~~~~~~~~~~~~~~~~-|-2~~~~~~~~~~~~~~~~~~~~~~~~~~~~~~-|
G-7~~~~~~~~~~~~~~~~~~~~~~~~~~~~~~-|-2~~~~~~~~~~~~~~~~~~~~~~~~~~~~~~-|
C-7~~~~~~~~~~~~~~~~~~~~~~~~~~~~~~-|-2~~~~~~~~~~~~~~~~~~~~~~~~~~~~~~-|

Guitar 2
D---------------------------------|---------------------------------|
A---------------------------------|---------------------------------|
F---------------------------------|---------------------------------|
C-7~~~~~~~~~~~~~~~~~~~~~~~~~~~~~~-|-2~~~~~~~~~~~~~~~~~~~~~~~~~~~~~~-|
G-7~~~~~~~~~~~~~~~~~~~~~~~~~~~~~~-|-2~~~~~~~~~~~~~~~~~~~~~~~~~~~~~~-|
C-7~~~~~~~~~~~~~~~~~~~~~~~~~~~~~~-|-2~~~~~~~~~~~~~~~~~~~~~~~~~~~~~~-|

Guitar 1 “Will I Try To Have the Will to Be Alive...”
D---------------------------------|---------------------------------|
A---------------------------------|---------------------------------|
F---------------------------------|-7~~~~~~~~~~~~~~~~~~~~~~~~~~~~~~-|
C-4~~~~~~~~~~~~~~~~~~~~~~~~~~~~~~-|-7~~~~~~~~~~~~~~~~~~~~~~~~~~~~~~-|
G-4~~~~~~~~~~~~~~~~~~~~~~~~~~~~~~-|-5~~~~~~~~~~~~~~~~~~~~~~~~~~~~~~-|
C-4~~~~~~~~~~~~~~~~~~~~~~~~~~~~~~-|---------------------------------|

Guitar 2
D---------------------------------|---------------------------------|
A---------------------------------|---------------------------------|
F---------------------------------|---------------------------------|
C-4~~~~~~~~~~~~~~~~~~~~~~~~~~~~~~-|-0~~~~~~~~~~~~~~~~~~~~~~~~~~~~~~-|
G-4~~~~~~~~~~~~~~~~~~~~~~~~~~~~~~-|-0~~~~~~~~~~~~~~~~~~~~~~~~~~~~~~-|
C-4~~~~~~~~~~~~~~~~~~~~~~~~~~~~~~-|-0~~~~~~~~~~~~~~~~~~~~~~~~~~~~~~-|

Guitar 1 “Lower to the Ground and it’s Now You See...”
D---------------------------------|---------------------------------|
A---------------------------------|---------------------------------|
F---------------------------------|---------------------------------|
C-7~~~~~~~~~~~~~~~~~~~~~~~~~~~~~~-|-2~~~~~~~~~~~~~~~----------------|
G-7~~~~~~~~~~~~~~~~~~~~~~~~~~~~~~-|-2~~~~~~~~~~~~~~~----------------|
C-7~~~~~~~~~~~~~~~~~~~~~~~~~~~~~~-|-2~~~~~~~~~~~~~~~----------------|

Guitar 2
D---------------------------------|---------------------------------|
A---------------------------------|---------------------------------|
F---------------------------------|---------------------------------|
C-7~~~~~~~~~~~~~~~~~~~~~~~~~~~~~~-|-2~~~~~~~~~~~~~~~----------------|
G-7~~~~~~~~~~~~~~~~~~~~~~~~~~~~~~-|-2~~~~~~~~~~~~~~~----------------|
C-7~~~~~~~~~~~~~~~~~~~~~~~~~~~~~~-|-2~~~~~~~~~~~~~~~----------------|

Chorus

Guitar 1 “Where’d You Go? Where’s Your Home...”
D---------------------------------|---------------------------------|
A---------------------------------|---------------------------------|
F---------------------------------|-7~~~~~~~~~~~~~~~~~~~~~~~~~~~~~~-|
C-4~~~~~~~~~~~~~~~~~~~~~~~~~~~~~~-|-7~~~~~~~~~~~~~~~~~~~~~~~~~~~~~~-|
G-4~~~~~~~~~~~~~~~~~~~~~~~~~~~~~~-|-5~~~~~~~~~~~~~~~~~~~~~~~~~~~~~~-|
C-4~~~~~~~~~~~~~~~~~~~~~~~~~~~~~~-|---------------------------------|

Guitar 2
D---------------------------------|---------------------------------|
A---------------------------------|---------------------------------|
F---------------2-6-2-------------|---------------2-7-2-------------|
C-------4-----4-------4-----------|-------4-----4-------4-----------|
G-----4---0-4-----------4---------|-----4---0-4-----------4---------|
C-4-7---------------------7-4-7-6-|-4-7---------------------7-4-7-6-|

Guitar 1 “Can You Here Me Now...”
D---------------------------------|---------------------------------|
A---------------------------------|---------------------------------|
F---------------------------------|---------------------------------|
C-7~~~~~~~~~~~~~~~~~~~~~~~~~~~~~~-|-2~~~~~~~~~~~~~~~~~~~~~~~~~~~~~~-|
G-7~~~~~~~~~~~~~~~~~~~~~~~~~~~~~~-|-2~~~~~~~~~~~~~~~~~~~~~~~~~~~~~~-|
C-7~~~~~~~~~~~~~~~~~~~~~~~~~~~~~~-|-2~~~~~~~~~~~~~~~~~~~~~~~~~~~~~~-|

Guitar 2
D---------------------------------|---------------------------------|
A---------------------------------|-----------------9---------------|
F-------------6-9-6---------------|---------------9---9-------------|
C-------------------7-------------|-----6-9---6-9-------9-6---9-6---|
G-0-4-7-0-4-7---------7-4-0-7-4-0-|-7-7-----7---------------7-----7-|
C---------------------------------|---------------------------------|

Guitar 1 “There’s No Light, There’s No Sound...”
D---------------------------------|---------------------------------|
A---------------------------------|---------------------------------|
F---------------------------------|-7~~~~~~~~~~~~~~~~~~~~~~~~~~~~~~-|
C-4~~~~~~~~~~~~~~~~~~~~~~~~~~~~~~-|-7~~~~~~~~~~~~~~~~~~~~~~~~~~~~~~-|
G-4~~~~~~~~~~~~~~~~~~~~~~~~~~~~~~-|-5~~~~~~~~~~~~~~~~~~~~~~~~~~~~~~-|
C-4~~~~~~~~~~~~~~~~~~~~~~~~~~~~~~-|---------------------------------|

Guitar 2
D---------------------------------|---------------------------------|
A---------------------------------|---------------------------------|
F---------------2-6-2-------------|---------------2-7-2-------------|
C-------4-----4-------4-----------|-------4-----4-------4-----------|
G-----4---0-4-----------4---------|-----4---0-4-----------4---------|
C-4-7---------------------7-4-7-6-|-4-7---------------------7-4-7-6-|

Guitar 1 “Can You Hear Me Now...”                   “Hear   Me...”
D---------------------------------|---------------------------------|
A---------------------------------|---------------------------------|
F---------------------------------|---------------------------------|
C-7~~~~~~~~~~~~~~~~~~~~~~~~~~~~~~-|-2~~~~~~~~~~~~~~~~~~~~~~~~~~~~~~-|
G-7~~~~~~~~~~~~~~~~~~~~~~~~~~~~~~-|-2~~~~~~~~~~~~~~~~~~~~~~~~~~~~~~-|
C-7~~~~~~~~~~~~~~~~~~~~~~~~~~~~~~-|-2~~~~~~~~~~~~~~~~~~~~~~~~~~~~~~-|

Guitar 2
D---------------------------------|---------------------------------|
A---------------------------------|-----------------9---------------|
F-------------6-9-6---------------|---------------9---9-------------|
C-------------------7-------------|-----6-9---6-9-------9-6---9-6---|
G-0-4-7-0-4-7---------7-4-0-7-4-0-|-7-7-----7---------------7-----7-|
C---------------------------------|---------------------------------|

Break Off 1

Guitar 1 “NOW...”
D---------------------------------|---------------------------------|
A---------------------------------|---------------------------------|
F---------------------------------|---------------------------------|
C---------------------------------|---------------------------------|
G---------------------------------|---------------------------------|
C---------------------------------|---------------------------------|

Guitar 2
D---------------------------------|---------------------------------|
A---------------------------------|-----------------9---------------|
F---------------2-6-2-------------|---------------9---9-------------|
C-------4-----4-------4-----------|-----6-9---6-9-------9-6---9-6---|
G-----4---0-4-----------4---------|-7-7-----7---------------7-----7-|
C-4-7---------------------7-4-7-6-|---------------------------------|

Verse 2

Guitar 1 “How Long Can I Keep Pretending To Be...”
D---------------------------------|---------------------------------|
A---------------------------------|---------------------------------|
F---------------------------------|-7~~~~~~~~~~~~~~~~~~~~~~~~~~~~~~-|
C-4~~~~~~~~~~~~~~~~~~~~~~~~~~~~~~-|-7~~~~~~~~~~~~~~~~~~~~~~~~~~~~~~-|
G-4~~~~~~~~~~~~~~~~~~~~~~~~~~~~~~-|-5~~~~~~~~~~~~~~~~~~~~~~~~~~~~~~-|
C-4~~~~~~~~~~~~~~~~~~~~~~~~~~~~~~-|---------------------------------|

Guitar 2
D---------------------------------|---------------------------------|
A---------------------------------|---------------------------------|
F---------------------------------|---------------------------------|
C-4~~~~~~~~~~~~~~~~~~~~~~~~~~~~~~-|-0~~~~~~~~~~~~~~~~~~~~~~~~~~~~~~-|
G-4~~~~~~~~~~~~~~~~~~~~~~~~~~~~~~-|-0~~~~~~~~~~~~~~~~~~~~~~~~~~~~~~-|
C-4~~~~~~~~~~~~~~~~~~~~~~~~~~~~~~-|-0~~~~~~~~~~~~~~~~~~~~~~~~~~~~~~-|

Guitar 1 “Heaven Will Open Up If I Live On My Knees...”
D---------------------------------|---------------------------------|
A---------------------------------|---------------------------------|
F---------------------------------|---------------------------------|
C-7~~~~~~~~~~~~~~~~~~~~~~~~~~~~~~-|-2~~~~~~~~~~~~~~~~~~~~~~~~~~~~~~-|
G-7~~~~~~~~~~~~~~~~~~~~~~~~~~~~~~-|-2~~~~~~~~~~~~~~~~~~~~~~~~~~~~~~-|
C-7~~~~~~~~~~~~~~~~~~~~~~~~~~~~~~-|-2~~~~~~~~~~~~~~~~~~~~~~~~~~~~~~-|

Guitar 2
D---------------------------------|---------------------------------|
A---------------------------------|---------------------------------|
F---------------------------------|---------------------------------|
C-7~~~~~~~~~~~~~~~~~~~~~~~~~~~~~~-|-2~~~~~~~~~~~~~~~~~~~~~~~~~~~~~~-|
G-7~~~~~~~~~~~~~~~~~~~~~~~~~~~~~~-|-2~~~~~~~~~~~~~~~~~~~~~~~~~~~~~~-|
C-7~~~~~~~~~~~~~~~~~~~~~~~~~~~~~~-|-2~~~~~~~~~~~~~~~~~~~~~~~~~~~~~~-|

Guitar 1 “Walking These Streets So Absent of Hope...”
D---------------------------------|---------------------------------|
A---------------------------------|---------------------------------|
F---------------------------------|-7~~~~~~~~~~~~~~~~~~~~~~~~~~~~~~-|
C-4~~~~~~~~~~~~~~~~~~~~~~~~~~~~~~-|-7~~~~~~~~~~~~~~~~~~~~~~~~~~~~~~-|
G-4~~~~~~~~~~~~~~~~~~~~~~~~~~~~~~-|-5~~~~~~~~~~~~~~~~~~~~~~~~~~~~~~-|
C-4~~~~~~~~~~~~~~~~~~~~~~~~~~~~~~-|---------------------------------|

Guitar 2
D---------------------------------|---------------------------------|
A---------------------------------|---------------------------------|
F---------------------------------|---------------------------------|
C-4~~~~~~~~~~~~~~~~~~~~~~~~~~~~~~-|-0~~~~~~~~~~~~~~~~~~~~~~~~~~~~~~-|
G-4~~~~~~~~~~~~~~~~~~~~~~~~~~~~~~-|-0~~~~~~~~~~~~~~~~~~~~~~~~~~~~~~-|
C-4~~~~~~~~~~~~~~~~~~~~~~~~~~~~~~-|-0~~~~~~~~~~~~~~~~~~~~~~~~~~~~~~-|

Guitar 1 “Lending My Hand and We’re Walking Away...”
D---------------------------------|---------------------------------|
A---------------------------------|---------------------------------|
F---------------------------------|---------------------------------|
C-7~~~~~~~~~~~~~~~~~~~~~~~~~~~~~~-|-2~~~~~~~~~~~~~~~~~~~~~~~~~~~~~~-|
G-7~~~~~~~~~~~~~~~~~~~~~~~~~~~~~~-|-2~~~~~~~~~~~~~~~~~~~~~~~~~~~~~~-|
C-7~~~~~~~~~~~~~~~~~~~~~~~~~~~~~~-|-2~~~~~~~~~~~~~~~~~~~~~~~~~~~~~~-|

Guitar 2
D---------------------------------|---------------------------------|
A---------------------------------|---------------------------------|
F---------------------------------|---------------------------------|
C-7~~~~~~~~~~~~~~~~~~~~~~~~~~~~~~-|-2~~~~~~~~~~~~~~~~~~~~~~~~~~~~~~-|
G-7~~~~~~~~~~~~~~~~~~~~~~~~~~~~~~-|-2~~~~~~~~~~~~~~~~~~~~~~~~~~~~~~-|
C-7~~~~~~~~~~~~~~~~~~~~~~~~~~~~~~-|-2~~~~~~~~~~~~~~~~~~~~~~~~~~~~~~-|

Guitar 1 “Those Get To Deep In A World With No Sunlight...”
D---------------------------------|---------------------------------|
A---------------------------------|---------------------------------|
F---------------------------------|-7~~~~~~~~~~~~~~~~~~~~~~~~~~~~~~-|
C-4~~~~~~~~~~~~~~~~~~~~~~~~~~~~~~-|-7~~~~~~~~~~~~~~~~~~~~~~~~~~~~~~-|
G-4~~~~~~~~~~~~~~~~~~~~~~~~~~~~~~-|-5~~~~~~~~~~~~~~~~~~~~~~~~~~~~~~-|
C-4~~~~~~~~~~~~~~~~~~~~~~~~~~~~~~-|---------------------------------|

Guitar 2
D---------------------------------|---------------------------------|
A---------------------------------|---------------------------------|
F---------------------------------|---------------------------------|
C-4~~~~~~~~~~~~~~~~~~~~~~~~~~~~~~-|-0~~~~~~~~~~~~~~~~~~~~~~~~~~~~~~-|
G-4~~~~~~~~~~~~~~~~~~~~~~~~~~~~~~-|-0~~~~~~~~~~~~~~~~~~~~~~~~~~~~~~-|
C-4~~~~~~~~~~~~~~~~~~~~~~~~~~~~~~-|-0~~~~~~~~~~~~~~~~~~~~~~~~~~~~~~-|

Guitar 1 “Quickly We Forget, Sacrifice Goodbye...”
D---------------------------------|---------------------------------|
A---------------------------------|---------------------------------|
F---------------------------------|---------------------------------|
C-7~~~~~~~~~~~~~~~~~~~~~~~~~~~~~~-|-2~~~~~~~~~~~~~~~----------------|
G-7~~~~~~~~~~~~~~~~~~~~~~~~~~~~~~-|-2~~~~~~~~~~~~~~~----------------|
C-7~~~~~~~~~~~~~~~~~~~~~~~~~~~~~~-|-2~~~~~~~~~~~~~~~----------------|

Guitar 2
D---------------------------------|---------------------------------|
A---------------------------------|---------------------------------|
F---------------------------------|---------------------------------|
C-7~~~~~~~~~~~~~~~~~~~~~~~~~~~~~~-|-2~~~~~~~~~~~~~~~----------------|
G-7~~~~~~~~~~~~~~~~~~~~~~~~~~~~~~-|-2~~~~~~~~~~~~~~~----------------|
C-7~~~~~~~~~~~~~~~~~~~~~~~~~~~~~~-|-2~~~~~~~~~~~~~~~----------------|

Break Off 2

Guitar 1 & 2
D---------------------------------|
A---------------------------------|
F---------------------------------|
C---------------------------------|
G---------------------------------|
C---------------------------------|

Chorus

Guitar 1 “Where’d You Go? Where’s Your Home...”
D---------------------------------|---------------------------------|
A---------------------------------|---------------------------------|
F---------------------------------|-7~~~~~~~~~~~~~~~~~~~~~~~~~~~~~~-|
C-4~~~~~~~~~~~~~~~~~~~~~~~~~~~~~~-|-7~~~~~~~~~~~~~~~~~~~~~~~~~~~~~~-|
G-4~~~~~~~~~~~~~~~~~~~~~~~~~~~~~~-|-5~~~~~~~~~~~~~~~~~~~~~~~~~~~~~~-|
C-4~~~~~~~~~~~~~~~~~~~~~~~~~~~~~~-|---------------------------------|

Guitar 2
D---------------------------------|---------------------------------|
A---------------------------------|---------------------------------|
F---------------2-6-2-------------|---------------2-7-2-------------|
C-------4-----4-------4-----------|-------4-----4-------4-----------|
G-----4---0-4-----------4---------|-----4---0-4-----------4---------|
C-4-7---------------------7-4-7-6-|-4-7---------------------7-4-7-6-|

Guitar 1 “Can You Here Me Now...”
D---------------------------------|---------------------------------|
A---------------------------------|---------------------------------|
F---------------------------------|---------------------------------|
C-7~~~~~~~~~~~~~~~~~~~~~~~~~~~~~~-|-2~~~~~~~~~~~~~~~~~~~~~~~~~~~~~~-|
G-7~~~~~~~~~~~~~~~~~~~~~~~~~~~~~~-|-2~~~~~~~~~~~~~~~~~~~~~~~~~~~~~~-|
C-7~~~~~~~~~~~~~~~~~~~~~~~~~~~~~~-|-2~~~~~~~~~~~~~~~~~~~~~~~~~~~~~~-|

Guitar 2
D---------------------------------|---------------------------------|
A---------------------------------|-----------------9---------------|
F-------------6-9-6---------------|---------------9---9-------------|
C-------------------7-------------|-----6-9---6-9-------9-6---9-6---|
G-0-4-7-0-4-7---------7-4-0-7-4-0-|-7-7-----7---------------7-----7-|
C---------------------------------|---------------------------------|

Guitar 1 “There’s No Light, There’s No Sound...”
D---------------------------------|---------------------------------|
A---------------------------------|---------------------------------|
F---------------------------------|-7~~~~~~~~~~~~~~~~~~~~~~~~~~~~~~-|
C-4~~~~~~~~~~~~~~~~~~~~~~~~~~~~~~-|-7~~~~~~~~~~~~~~~~~~~~~~~~~~~~~~-|
G-4~~~~~~~~~~~~~~~~~~~~~~~~~~~~~~-|-5~~~~~~~~~~~~~~~~~~~~~~~~~~~~~~-|
C-4~~~~~~~~~~~~~~~~~~~~~~~~~~~~~~-|---------------------------------|

Guitar 2
D---------------------------------|---------------------------------|
A---------------------------------|---------------------------------|
F---------------2-6-2-------------|---------------2-7-2-------------|
C-------4-----4-------4-----------|-------4-----4-------4-----------|
G-----4---0-4-----------4---------|-----4---0-4-----------4---------|
C-4-7---------------------7-4-7-6-|-4-7---------------------7-4-7-6-|

Guitar 1 “Can You Hear Me Now...”                   “Hear   Me...”
D---------------------------------|---------------------------------|
A---------------------------------|---------------------------------|
F---------------------------------|---------------------------------|
C-7~~~~~~~~~~~~~~~~~~~~~~~~~~~~~~-|-2~~~~~~~~~~~~~~~~~~~~~~~~~~~~~~-|
G-7~~~~~~~~~~~~~~~~~~~~~~~~~~~~~~-|-2~~~~~~~~~~~~~~~~~~~~~~~~~~~~~~-|
C-7~~~~~~~~~~~~~~~~~~~~~~~~~~~~~~-|-2~~~~~~~~~~~~~~~~~~~~~~~~~~~~~~-|

Guitar 2
D---------------------------------|---------------------------------|
A---------------------------------|-----------------9---------------|
F-------------6-9-6---------------|---------------9---9-------------|
C-------------------7-------------|-----6-9---6-9-------9-6---9-6---|
G-0-4-7-0-4-7---------7-4-0-7-4-0-|-7-7-----7---------------7-----7-|
C---------------------------------|---------------------------------|

Interlude

Guitar 1 & 2 “Look Into My and I See...”
D---------------------------------|---------------------------------|
A---------------------------------|---------------------------------|
F---------------------------------|-7~~~~~~~~~~~~~~~~~~~~~~~~~~~~~~-|
C-9~~~~~~~~~~~~~~~~~~~~~~~~~~~~~~-|-7~~~~~~~~~~~~~~~~~~~~~~~~~~~~~~-|
G-9~~~~~~~~~~~~~~~~~~~~~~~~~~~~~~-|-5~~~~~~~~~~~~~~~~~~~~~~~~~~~~~~-|
C-9~~~~~~~~~~~~~~~~~~~~~~~~~~~~~~-|---------------------------------|

Guitar 1 & 2
D---------------------------------|---------------------------------|
A---------------------------------|---------------------------------|
F---------------------------------|---------------------------------|
C-7~~~~~~~~~~~~~~~~~~~~~~~~~~~~~~-|-2~~~~~~~~~~~~~~~~~~~~~~~~~~~~~~-|
G-7~~~~~~~~~~~~~~~~~~~~~~~~~~~~~~-|-2~~~~~~~~~~~~~~~~~~~~~~~~~~~~~~-|
C-7~~~~~~~~~~~~~~~~~~~~~~~~~~~~~~-|-2~~~~~~~~~~~~~~~~~~~~~~~~~~~~~~-|

Guitar 1 & 2 “Take Another Look Around Me...”
D---------------------------------|---------------------------------|
A---------------------------------|---------------------------------|
F---------------------------------|-7~~~~~~~~~~~~~~~~~~~~~~~~~~~~~~-|
C-9~~~~~~~~~~~~~~~~~~~~~~~~~~~~~~-|-7~~~~~~~~~~~~~~~~~~~~~~~~~~~~~~-|
G-9~~~~~~~~~~~~~~~~~~~~~~~~~~~~~~-|-5~~~~~~~~~~~~~~~~~~~~~~~~~~~~~~-|
C-9~~~~~~~~~~~~~~~~~~~~~~~~~~~~~~-|---------------------------------|

Guitar 1 & 2
D---------------------------------|---------------------------------|
A---------------------------------|---------------------------------|
F---------------------------------|---------------------------------|
C-7~~~~~~~~~~~~~~~~~~~~~~~~~~~~~~-|-2~~~~~~~~~~~~~~~~~~~~~~~~~~~~~~-|
G-7~~~~~~~~~~~~~~~~~~~~~~~~~~~~~~-|-2~~~~~~~~~~~~~~~~~~~~~~~~~~~~~~-|
C-7~~~~~~~~~~~~~~~~~~~~~~~~~~~~~~-|-2~~~~~~~~~~~~~~~~~~~~~~~~~~~~~~-|

Bridge

Guitar 1 “Now...”
D---------------------------------|---------------------------------|
A---------------------------------|---------------------------------|
F---------------------------------|---------------------------------|
C---------------------------------|---------------------------------|
G---------------------------------|---------------------------------|
C---------------------------------|---------------------------------|

Guitar 2
D---------------------------------|---------------------------------|
A---------------------------------|---------------------------------|
F---------------2-6-2-------------|---------------2-7-2-------------|
C-------4-----4-------4-----------|-------4-----4-------4-----------|
G-----4---0-4-----------4---------|-----4---0-4-----------4---------|
C-4-7---------------------7-4-7-6-|-4-7---------------------7-4-----|

Guitar 1 “Now...”
D---------------------------------|---------------------------------|
A---------------------------------|---------------------------------|
F---------------------------------|---------------------------------|
C-7~~~~~~~~~~~~~~~~~~~~~~~~~~~~~~-|-2~~~~~~~~~~~~~~~14\~~~~~~~~~~~~-|
G-7~~~~~~~~~~~~~~~~~~~~~~~~~~~~~~-|-2~~~~~~~~~~~~~~~14\~~~~~~~~~~~~-|
C-7~~~~~~~~~~~~~~~~~~~~~~~~~~~~~~-|-2~~~~~~~~~~~~~~-14\~~~~~~~~~~~~-|

Guitar 2
D---------------------------------|---------------------------------|
A---------------------------------|-----------------9---------------|
F-------------6-9-6---------------|---------------9---9-------------|
C-------------------7-------------|-----6-9---6-9-------9-6---9-6---|
G-0-4-7-0-4-7---------7-4-0-7-4-0-|-7-7-----7---------------7-----7-|
C---------------------------------|---------------------------------|

Chorus

Guitar 1 “Where’d You Go? Where’s Your Home...”
D---------------------------------|---------------------------------|
A---------------------------------|---------------------------------|
F---------------------------------|-7~~~~~~~~~~~~~~~~~~~~~~~~~~~~~~-|
C-4~~~~~~~~~~~~~~~~~~~~~~~~~~~~~~-|-7~~~~~~~~~~~~~~~~~~~~~~~~~~~~~~-|
G-4~~~~~~~~~~~~~~~~~~~~~~~~~~~~~~-|-5~~~~~~~~~~~~~~~~~~~~~~~~~~~~~~-|
C-4~~~~~~~~~~~~~~~~~~~~~~~~~~~~~~-|---------------------------------|

Guitar 2
D---------------------------------|---------------------------------|
A---------------------------------|---------------------------------|
F---------------2-6-2-------------|---------------2-7-2-------------|
C-------4-----4-------4-----------|-------4-----4-------4-----------|
G-----4---0-4-----------4---------|-----4---0-4-----------4---------|
C-4-7---------------------7-4-7-6-|-4-7---------------------7-4-7-6-|

Guitar 1 “Can You Here Me Now...”
D---------------------------------|---------------------------------|
A---------------------------------|---------------------------------|
F---------------------------------|---------------------------------|
C-7~~~~~~~~~~~~~~~~~~~~~~~~~~~~~~-|-2~~~~~~~~~~~~~~~~~~~~~~~~~~~~~~-|
G-7~~~~~~~~~~~~~~~~~~~~~~~~~~~~~~-|-2~~~~~~~~~~~~~~~~~~~~~~~~~~~~~~-|
C-7~~~~~~~~~~~~~~~~~~~~~~~~~~~~~~-|-2~~~~~~~~~~~~~~~~~~~~~~~~~~~~~~-|

Guitar 2
D---------------------------------|---------------------------------|
A---------------------------------|-----------------9---------------|
F-------------6-9-6---------------|---------------9---9-------------|
C-------------------7-------------|-----6-9---6-9-------9-6---9-6---|
G-0-4-7-0-4-7---------7-4-0-7-4-0-|-7-7-----7---------------7-----7-|
C---------------------------------|---------------------------------|

Guitar 1 “There’s No Light, There’s No Sound...”
D---------------------------------|---------------------------------|
A---------------------------------|---------------------------------|
F---------------------------------|-7~~~~~~~~~~~~~~~~~~~~~~~~~~~~~~-|
C-4~~~~~~~~~~~~~~~~~~~~~~~~~~~~~~-|-7~~~~~~~~~~~~~~~~~~~~~~~~~~~~~~-|
G-4~~~~~~~~~~~~~~~~~~~~~~~~~~~~~~-|-5~~~~~~~~~~~~~~~~~~~~~~~~~~~~~~-|
C-4~~~~~~~~~~~~~~~~~~~~~~~~~~~~~~-|---------------------------------|

Guitar 2
D---------------------------------|---------------------------------|
A---------------------------------|---------------------------------|
F---------------2-6-2-------------|---------------2-7-2-------------|
C-------4-----4-------4-----------|-------4-----4-------4-----------|
G-----4---0-4-----------4---------|-----4---0-4-----------4---------|
C-4-7---------------------7-4-7-6-|-4-7---------------------7-4-7-6-|

Guitar 1 “Can You Hear Me Now...”                   “Hear   Me...”
D---------------------------------|---------------------------------|
A---------------------------------|---------------------------------|
F---------------------------------|---------------------------------|
C-7~~~~~~~~~~~~~~~~~~~~~~~~~~~~~~-|-2~~~~~~~~~~~~~~~~~~~~~~~~~~~~~~-|
G-7~~~~~~~~~~~~~~~~~~~~~~~~~~~~~~-|-2~~~~~~~~~~~~~~~~~~~~~~~~~~~~~~-|
C-7~~~~~~~~~~~~~~~~~~~~~~~~~~~~~~-|-2~~~~~~~~~~~~~~~~~~~~~~~~~~~~~~-|

Guitar 2
D---------------------------------|---------------------------------|
A---------------------------------|-----------------9---------------|
F-------------6-9-6---------------|---------------9---9-------------|
C-------------------7-------------|-----6-9---6-9-------9-6---9-6---|
G-0-4-7-0-4-7---------7-4-0-7-4-0-|-7-7-----7---------------7-----7-|
C---------------------------------|---------------------------------|

Outro

Chorus

Guitar 1 “NOW...”
D---------------------------------|---------------------------------|
A---------------------------------|---------------------------------|
F---------------------------------|-7~~~~~~~~~~~~~~~~~~~~~~~~~~~~~~-|
C-4~~~~~~~~~~~~~~~~~~~~~~~~~~~~~~-|-7~~~~~~~~~~~~~~~~~~~~~~~~~~~~~~-|
G-4~~~~~~~~~~~~~~~~~~~~~~~~~~~~~~-|-5~~~~~~~~~~~~~~~~~~~~~~~~~~~~~~-|
C-4~~~~~~~~~~~~~~~~~~~~~~~~~~~~~~-|---------------------------------|

Guitar 2
D---------------------------------|---------------------------------|
A---------------------------------|---------------------------------|
F---------------2-6-2-------------|---------------2-7-2-------------|
C-------4-----4-------4-----------|-------4-----4-------4-----------|
G-----4---0-4-----------4---------|-----4---0-4-----------4---------|
C-4-7---------------------7-4-7-6-|-4-7---------------------7-4-7-6-|

Guitar 1 “Now...”                    “Can You Hear Me? Hear Me...”
D---------------------------------|---------------------------------|
A---------------------------------|---------------------------------|
F---------------------------------|---------------------------------|
C-7~~~~~~~~~~~~~~~~~~~~~~~~~~~~~~-|-2~~~~~~~~~~~~~~~~~~~~~~~~~~~~~~-|
G-7~~~~~~~~~~~~~~~~~~~~~~~~~~~~~~-|-2~~~~~~~~~~~~~~~~~~~~~~~~~~~~~~-|
C-7~~~~~~~~~~~~~~~~~~~~~~~~~~~~~~-|-2~~~~~~~~~~~~~~~~~~~~~~~~~~~~~~-|

Guitar 2
D---------------------------------|---------------------------------|
A---------------------------------|-----------------9---------------|
F-------------6-9-6---------------|---------------9---9-------------|
C-------------------7-------------|-----6-9---6-9-------9-6---9-6---|
G-0-4-7-0-4-7---------7-4-0-7-4-0-|-7-7-----7---------------7-----7-|
C---------------------------------|---------------------------------|

Guitar 1 & 2 “NOW!”
D---------------------------------|---------------------------------|
A---------------------------------|---------------------------------|
F---------------------------------|---------------------------------|
C---------------------------------|---------------------------------|
G---------------------------------|---------------------------------|
C---------------------------------|---------------------------------|

Tab Legend
h  -  hammer-on
p  -  pull-off
/  -  slide up
\  -  slide down
ps/-  pickslide up
ps\-  pickslide down
~  -  let ring
pm.-  palm mute
b  -  bend
r  -  return from bend
*  -  harmonic
x  -  dead note
^ -  Whammy bar

That’s it! Check out my cover, and tell me how I did. Thanks, oh and one last thing...
ROCK OUT!!!!
comments
We did not receive enough feedback on this tab! Please rate:
print report bad tab
1 2 3 4 5
2 comments total.
0 reply
Phoenix94 wrote on April 14 2011, 09:35 am

well done! keep it up (especially hollywood undead, I love them)! :)

0 reply
mattythawank wrote on December 29 2011, 02:47 pm

what the hell is wrong with people first off the first riff is synthesizers,that just pissed j dog off, so it should be in standard. oh and charlie scene only plays dropd d (and standard which he uses for only three songs)

I want to post or [tab]
guest
You may want to rate the tab now too:
select rating
Please do not post tabs as comments. Select "correction" instead!