Oops, an error
Loading. Please wait.

Lion Tab

ver1
ver1

Whole song

Interactive

More versions @911Tabs.com
8,154 views 78 this week
no commentswrite comment
1 2 3 4 5
accurate
x 3
Autoscroll
+/-
esc
set tempo
stop
Contributor
Difficulty
Tuning
intermediate
C# G# C# F# A# D#
Hey! There's an official Ultimate Guitar app which is ideal
for learning songs when you're away from computer. Get the app
WARNING: You are trying to view
                                    content from Ultimate-Guitar.com
                                    in an unauthorized application,
                                    which is prohibited.

                                    Please use an official Ultimate
                                    Guitar Tabs application for iPhone,
                                    iPad or Android to access legitimate
                                    chords, guitar, bass, and drum tabs
                                    from Ultimate-Guitar.com database.

                                    Type "ultimate guitar tabs" in Apple
                                    App Store's or Android Market's
                                    search to find the application.
----------------------------------------------------------------------------
                                 Lion
                           Hollywood Undead
----------------------------------------------------------------------------

You’re probably thinking, “4 guitars! Yeah right.” Well, all the parts I tab are in the
song, but most of them are studio guitars. Also, just like in my “Believe” guitar tab, I
transcribed some of the synthesizer/piano parts onto guitar. This is one of Hollywood 
Undead’s stronger songs and I love them for that. Enjoy!

Username: dkm817 (same on X box live)
Youtube Cover: http://www.youtube.com/watch?v=ZDT5V07qD50
Email: guitardrums@rockfan.com

Guitar 1 Rhythmic (C# G# C# F# A# D#)
Guitar 2 Rhythmic (C# G# C# F# A# D#)
Guitar 3 Lead     (C# G# C# F# A# D#)
Guitar 4 Lead     (C# G# C# F# A# D#)

NOTE: This was exported off of guitar pro.


Guitar 1

      W                   E  E  Q    H           W
D#||-------------------|----------------------|-------------------|
A#||-------------------|----------------------|-------------------|
F#||-------------------|----------------------|-------------------|
C#||-------------------|-----0--L----L--------|-------------------|
G#||-------------------|----------------------|--3----------------|
C#||--2----------------|--0--L--L----L--------|-------------------|


  W                   W                   E  E  Q    H
-------------------|-------------------|----------------------|
-------------------|-------------------|----------------------|
-------------------|-------------------|----------------------|
-------------------|-------------------|-----0--L----L--------|
--2----------------|-------------------|----------------------|
-------------------|--2----------------|--0--L--L----L--------|


  W                   W                   W
-------------------|-------------------|-------------------|
-------------------|-------------------|-------------------|
-------------------|-------------------|-------------------|
-------------------|-------------------|-------------------|
--3----------------|--2----------------|-------------------|
-------------------|-------------------|--2----------------|


  E  E  Q    H           W                   W
----------------------|-------------------|-------------------|
----------------------|-------------------|-------------------|
----------------------|-------------------|-------------------|
-----0--L----L--------|-------------------|-------------------|
----------------------|--3----------------|--2----------------|
--0--L--L----L--------|-------------------|-------------------|


  W                   E  E  Q    H           W
-------------------|----------------------|-------------------|
-------------------|----------------------|-------------------|
-------------------|----------------------|-------------------|
-------------------|-----0--L----L--------|-------------------|
-------------------|----------------------|--3----------------|
--2----------------|--0--L--L----L--------|-------------------|


                      PM PM PM PM PM PM PM PM PM PM PM PM PM PM PM PM
  W                   S  S  S  S  S  S  S  S  S  S  S  S  S  S  S  S
-------------------|--------------------------------------------------|
-------------------|--------------------------------------------------|
-------------------|--9--9--9--9--9--9--9--9--9--9--9--9--9--9--9--9--|
-------------------|--9--9--9--9--9--9--9--9--9--9--9--9--9--9--9--9--|
--2----------------|--7--7--7--7--7--7--7--7--7--7--7--7--7--7--7--7--|
-------------------|--------------------------------------------------|


  PM PM PM PM PM PM PM PM PM PM PM PM PM PM PM PM
  S  S  S  S  S  S  S  S  S  S  S  S  S  S  S  S
--------------------------------------------------|
--------------------------------------------------|
--7--7--7--7--7--7--7--7--7--7--7--7--7--7--7--7--|
--7--7--7--7--7--7--7--7--7--7--7--7--7--7--7--7--|
--5--5--5--5--5--5--5--5--5--5--5--5--5--5--5--5--|
--------------------------------------------------|


  PM PM PM PM PM PM PM PM PM PM PM PM PM PM PM PM
  S  S  S  S  S  S  S  S  S  S  S  S  S  S  S  S
--------------------------------------------------|
--------------------------------------------------|
--5--5--5--5--5--5--5--5--5--5--5--5--5--5--5--5--|
--5--5--5--5--5--5--5--5--5--5--5--5--5--5--5--5--|
--3--3--3--3--3--3--3--3--3--3--3--3--3--3--3--3--|
--------------------------------------------------|


  PM PM PM PM PM PM PM PM PM PM PM PM PM PM PM PM
  S  S  S  S  S  S  S  S  S  S  S  S  S  S  S  S
--------------------------------------------------|
--------------------------------------------------|
--------------------------------------------------|
--5--5--5--5--5--5--5--5--9--9--9--9--9--9--9--9--|
--5--5--5--5--5--5--5--5--9--9--9--9--9--9--9--9--|
--5--5--5--5--5--5--5--5--9--9--9--9--9--9--9--9--|


  PM PM PM PM PM PM PM PM PM PM PM PM PM PM PM PM
  S  S  S  S  S  S  S  S  S  S  S  S  S  S  S  S
--------------------------------------------------|
--------------------------------------------------|
--9--9--9--9--9--9--9--9--9--9--9--9--9--9--9--9--|
--9--9--9--9--9--9--9--9--9--9--9--9--9--9--9--9--|
--7--7--7--7--7--7--7--7--7--7--7--7--7--7--7--7--|
--------------------------------------------------|


  PM PM PM PM PM PM PM PM PM PM PM PM PM PM PM PM
  S  S  S  S  S  S  S  S  S  S  S  S  S  S  S  S
--------------------------------------------------|
--------------------------------------------------|
--7--7--7--7--7--7--7--7--7--7--7--7--7--7--7--7--|
--7--7--7--7--7--7--7--7--7--7--7--7--7--7--7--7--|
--5--5--5--5--5--5--5--5--5--5--5--5--5--5--5--5--|
--------------------------------------------------|


  PM PM PM PM PM PM PM PM PM PM PM PM PM PM PM PM
  S  S  S  S  S  S  S  S  S  S  S  S  S  S  S  S
--------------------------------------------------|
--------------------------------------------------|
--5--5--5--5--5--5--5--5--5--5--5--5--5--5--5--5--|
--5--5--5--5--5--5--5--5--5--5--5--5--5--5--5--5--|
--3--3--3--3--3--3--3--3--3--3--3--3--3--3--3--3--|
--------------------------------------------------|


  PM PM PM PM PM PM PM PM
  S  S  S  S  S  S  S  S  S S S S  S  S  S  S
----------------------------------------------|
----------------------------------------------|
--------------------------9-9-9-9-12-12-12-12-|
--5--5--5--5--5--5--5--5--9-9-9-9-12-12-12-12-|
--5--5--5--5--5--5--5--5--7-7-7-7-10-10-10-10-|
--5--5--5--5--5--5--5--5----------------------|


  PM PM PM PM PM PM PM PM PM PM PM PM PM PM PM PM
  S  S  S  S  S  S  S  S  S  S  S  S  S  S  S  S
--------------------------------------------------|
--------------------------------------------------|
--9--9--9--9--9--9--9--9--9--9--9--9--9--9--9--9--|
--9--9--9--9--9--9--9--9--9--9--9--9--9--9--9--9--|
--7--7--7--7--7--7--7--7--7--7--7--7--7--7--7--7--|
--------------------------------------------------|


  PM PM PM PM PM PM PM PM PM PM PM PM PM PM PM PM
  S  S  S  S  S  S  S  S  S  S  S  S  S  S  S  S
--------------------------------------------------|
--------------------------------------------------|
--7--7--7--7--7--7--7--7--7--7--7--7--7--7--7--7--|
--7--7--7--7--7--7--7--7--7--7--7--7--7--7--7--7--|
--5--5--5--5--5--5--5--5--5--5--5--5--5--5--5--5--|
--------------------------------------------------|


  PM PM PM PM PM PM PM PM PM PM PM PM PM PM PM PM
  S  S  S  S  S  S  S  S  S  S  S  S  S  S  S  S
--------------------------------------------------|
--------------------------------------------------|
--5--5--5--5--5--5--5--5--5--5--5--5--5--5--5--5--|
--5--5--5--5--5--5--5--5--5--5--5--5--5--5--5--5--|
--3--3--3--3--3--3--3--3--3--3--3--3--3--3--3--3--|
--------------------------------------------------|


  PM PM PM PM PM PM PM PM PM PM PM PM PM PM PM PM
  S  S  S  S  S  S  S  S  S  S  S  S  S  S  S  S
--------------------------------------------------|
--------------------------------------------------|
--7--7--7--7--7--7--7--7--7--7--7--7--7--7--7--7--|
--7--7--7--7--7--7--7--7--7--7--7--7--7--7--7--7--|
--5--5--5--5--5--5--5--5--5--5--5--5--5--5--5--5--|
--5--5--5--5--5--5--5--5--------------------------|


  PM PM PM PM PM PM PM PM PM PM PM PM PM PM PM PM
  S  S  S  S  S  S  S  S  S  S  S  S  S  S  S  S
--------------------------------------------------|
--------------------------------------------------|
--9--9--9--9--9--9--9--9--9--9--9--9--9--9--9--9--|
--9--9--9--9--9--9--9--9--9--9--9--9--9--9--9--9--|
--7--7--7--7--7--7--7--7--7--7--7--7--7--7--7--7--|
--------------------------------------------------|


  PM PM PM PM PM PM PM PM PM PM PM PM PM PM PM PM
  S  S  S  S  S  S  S  S  S  S  S  S  S  S  S  S
--------------------------------------------------|
--------------------------------------------------|
--7--7--7--7--7--7--7--7--7--7--7--7--7--7--7--7--|
--7--7--7--7--7--7--7--7--7--7--7--7--7--7--7--7--|
--5--5--5--5--5--5--5--5--5--5--5--5--5--5--5--5--|
--------------------------------------------------|


  PM PM PM PM PM PM PM PM PM PM PM PM PM PM PM PM
  S  S  S  S  S  S  S  S  S  S  S  S  S  S  S  S
--------------------------------------------------|
--------------------------------------------------|
--5--5--5--5--5--5--5--5--5--5--5--5--5--5--5--5--|
--5--5--5--5--5--5--5--5--5--5--5--5--5--5--5--5--|
--3--3--3--3--3--3--3--3--3--3--3--3--3--3--3--3--|
--------------------------------------------------|


  PM PM PM PM PM PM PM PM PM PM PM PM PM PM PM PM
  S  S  S  S  S  S  S  S  S  S  S  S  S  S  S  S
--------------------------------------------------|
--------------------------------------------------|
--7--7--7--7--7--7--7--7--7--7--7--7--7--7--7--7--|
--7--7--7--7--7--7--7--7--7--7--7--7--7--7--7--7--|
--5--5--5--5--5--5--5--5--5--5--5--5--5--5--5--5--|
--5--5--5--5--5--5--5--5--------------------------|


  PM PM PM PM PM PM PM PM PM PM PM PM PM PM PM PM
  S  S  S  S  S  S  S  S  S  S  S  S  S  S  S  S
--------------------------------------------------|
--------------------------------------------------|
--9--9--9--9--9--9--9--9--9--9--9--9--9--9--9--9--|
--9--9--9--9--9--9--9--9--9--9--9--9--9--9--9--9--|
--7--7--7--7--7--7--7--7--7--7--7--7--7--7--7--7--|
--------------------------------------------------|


  PM PM PM PM PM PM PM PM PM PM PM PM PM PM PM PM
  S  S  S  S  S  S  S  S  S  S  S  S  S  S  S  S
--------------------------------------------------|
--------------------------------------------------|
--7--7--7--7--7--7--7--7--7--7--7--7--7--7--7--7--|
--7--7--7--7--7--7--7--7--7--7--7--7--7--7--7--7--|
--5--5--5--5--5--5--5--5--5--5--5--5--5--5--5--5--|
--------------------------------------------------|


  PM PM PM PM PM PM PM PM PM PM PM PM PM PM PM PM
  S  S  S  S  S  S  S  S  S  S  S  S  S  S  S  S
--------------------------------------------------|
--------------------------------------------------|
--5--5--5--5--5--5--5--5--5--5--5--5--5--5--5--5--|
--5--5--5--5--5--5--5--5--5--5--5--5--5--5--5--5--|
--3--3--3--3--3--3--3--3--3--3--3--3--3--3--3--3--|
--------------------------------------------------|


  PM PM PM PM PM PM PM PM PM PM PM PM PM PM PM PM
  S  S  S  S  S  S  S  S  S  S  S  S  S  S  S  S
--------------------------------------------------|
--------------------------------------------------|
--------------------------------------------------|
--5--5--5--5--5--5--5--5--9--9--9--9--9--9--9--9--|
--5--5--5--5--5--5--5--5--9--9--9--9--9--9--9--9--|
--5--5--5--5--5--5--5--5--9--9--9--9--9--9--9--9--|


  PM PM PM PM PM PM PM PM PM PM PM PM PM PM PM PM
  S  S  S  S  S  S  S  S  S  S  S  S  S  S  S  S
--------------------------------------------------|
--------------------------------------------------|
--9--9--9--9--9--9--9--9--9--9--9--9--9--9--9--9--|
--9--9--9--9--9--9--9--9--9--9--9--9--9--9--9--9--|
--7--7--7--7--7--7--7--7--7--7--7--7--7--7--7--7--|
--------------------------------------------------|


  PM PM PM PM PM PM PM PM PM PM PM PM PM PM PM PM
  S  S  S  S  S  S  S  S  S  S  S  S  S  S  S  S
--------------------------------------------------|
--------------------------------------------------|
--7--7--7--7--7--7--7--7--7--7--7--7--7--7--7--7--|
--7--7--7--7--7--7--7--7--7--7--7--7--7--7--7--7--|
--5--5--5--5--5--5--5--5--5--5--5--5--5--5--5--5--|
--------------------------------------------------|


  PM PM PM PM PM PM PM PM PM PM PM PM PM PM PM PM
  S  S  S  S  S  S  S  S  S  S  S  S  S  S  S  S
--------------------------------------------------|
--------------------------------------------------|
--5--5--5--5--5--5--5--5--5--5--5--5--5--5--5--5--|
--5--5--5--5--5--5--5--5--5--5--5--5--5--5--5--5--|
--3--3--3--3--3--3--3--3--3--3--3--3--3--3--3--3--|
--------------------------------------------------|


  PM PM PM PM PM PM PM PM
  S  S  S  S  S  S  S  S  S S S S  S  S  S  S
----------------------------------------------|
----------------------------------------------|
--------------------------9-9-9-9-12-12-12-12-|
--5--5--5--5--5--5--5--5--9-9-9-9-12-12-12-12-|
--5--5--5--5--5--5--5--5--7-7-7-7-10-10-10-10-|
--5--5--5--5--5--5--5--5----------------------|


         PM PM        PM PM     PM PM           PM PM        PM PM     PM PM
  E  S S S  S  E  S S S  S  S S S  S     E  S S S  S  E  S S S  S  S S S  S
--------------------------------------|--------------------------------------|
--------------------------------------|--------------------------------------|
--------------------------------------|--------------------------------------|
--2--2-2-2--2--2--2-2-2--2--2-2-2--2--|--0--0-0-0--0--0--0-0-0--0--0-0-0--0--|
--2--2-2-2--2--2--2-2-2--2--2-2-2--2--|--0--0-0-0--0--0--0-0-0--0--0-0-0--0--|
--2--2-2-2--2--2--2-2-2--2--2-2-2--2--|--0--0-0-0--0--0--0-0-0--0--0-0-0--0--|


         PM PM        PM PM     PM PM           PM PM        PM PM     PM PM
  E  S S S  S  E  S S S  S  S S S  S     E  S S S  S  E  S S S  S  S S S  S
--------------------------------------|--------------------------------------|
--------------------------------------|--------------------------------------|
--5--5-5-5--5--5--5-5-5--5--5-5-5--5--|--7--7-7-7--7--7--7-7-7--7--7-7-7--7--|
--5--5-5-5--5--5--5-5-5--5--5-5-5--5--|--7--7-7-7--7--7--7-7-7--7--7-7-7--7--|
--3--3-3-3--3--3--3-3-3--3--3-3-3--3--|--5--5-5-5--5--5--5-5-5--5--5-5-5--5--|
--------------------------------------|--------------------------------------|


         PM PM        PM PM     PM PM           PM PM        PM PM     PM PM
  E  S S S  S  E  S S S  S  S S S  S     E  S S S  S  E  S S S  S  S S S  S
--------------------------------------|--------------------------------------|
--------------------------------------|--------------------------------------|
--------------------------------------|--------------------------------------|
--2--2-2-2--2--2--2-2-2--2--2-2-2--2--|--0--0-0-0--0--0--0-0-0--0--0-0-0--0--|
--2--2-2-2--2--2--2-2-2--2--2-2-2--2--|--0--0-0-0--0--0--0-0-0--0--0-0-0--0--|
--2--2-2-2--2--2--2-2-2--2--2-2-2--2--|--0--0-0-0--0--0--0-0-0--0--0-0-0--0--|


         PM PM        PM PM     PM PM           PM PM        PM PM     PM PM
  E  S S S  S  E  S S S  S  S S S  S     E  S S S  S  E  S S S  S  S S S  S
--------------------------------------|--------------------------------------|
--------------------------------------|--------------------------------------|
--5--5-5-5--5--5--5-5-5--5--5-5-5--5--|--7--7-7-7--7--7--7-7-7--7--7-7-7--7--|
--5--5-5-5--5--5--5-5-5--5--5-5-5--5--|--7--7-7-7--7--7--7-7-7--7--7-7-7--7--|
--3--3-3-3--3--3--3-3-3--3--3-3-3--3--|--5--5-5-5--5--5--5-5-5--5--5-5-5--5--|
--------------------------------------|--------------------------------------|


  W                   W                   W                   W
-------------------|-------------------|-------------------|-------------------|
-------------------|-------------------|-------------------|-------------------|
-------------------|-------------------|-------------------|-------------------|
--2----------------|--L----------------|--L----------------|--L----------------|
--2----------------|--L----------------|--L----------------|--L----------------|
--2----------------|--L----------------|--L----------------|--L----------------|


-------------------|-------------------|-------------------|-------------------|
-------------------|-------------------|-------------------|-------------------|
-------------------|-------------------|-------------------|-------------------|
-------------------|-------------------|-------------------|-------------------|
-------------------|-------------------|-------------------|-------------------|
-------------------|-------------------|-------------------|-------------------|


  PM PM PM PM PM PM PM PM PM PM PM PM PM PM PM PM
  S  S  S  S  S  S  S  S  S  S  S  S  S  S  S  S
--------------------------------------------------|
--------------------------------------------------|
--9--9--9--9--9--9--9--9--9--9--9--9--9--9--9--9--|
--9--9--9--9--9--9--9--9--9--9--9--9--9--9--9--9--|
--7--7--7--7--7--7--7--7--7--7--7--7--7--7--7--7--|
--------------------------------------------------|


  PM PM PM PM PM PM PM PM PM PM PM PM PM PM PM PM
  S  S  S  S  S  S  S  S  S  S  S  S  S  S  S  S
--------------------------------------------------|
--------------------------------------------------|
--7--7--7--7--7--7--7--7--7--7--7--7--7--7--7--7--|
--7--7--7--7--7--7--7--7--7--7--7--7--7--7--7--7--|
--5--5--5--5--5--5--5--5--5--5--5--5--5--5--5--5--|
--------------------------------------------------|


  PM PM PM PM PM PM PM PM PM PM PM PM PM PM PM PM
  S  S  S  S  S  S  S  S  S  S  S  S  S  S  S  S
--------------------------------------------------|
--------------------------------------------------|
--5--5--5--5--5--5--5--5--5--5--5--5--5--5--5--5--|
--5--5--5--5--5--5--5--5--5--5--5--5--5--5--5--5--|
--3--3--3--3--3--3--3--3--3--3--3--3--3--3--3--3--|
--------------------------------------------------|


  PM PM PM PM PM PM PM PM PM PM PM PM PM PM PM PM
  S  S  S  S  S  S  S  S  S  S  S  S  S  S  S  S
--------------------------------------------------|
--------------------------------------------------|
--------------------------------------------------|
--5--5--5--5--5--5--5--5--9--9--9--9--9--9--9--9--|
--5--5--5--5--5--5--5--5--9--9--9--9--9--9--9--9--|
--5--5--5--5--5--5--5--5--9--9--9--9--9--9--9--9--|


  PM PM PM PM PM PM PM PM PM PM PM PM PM PM PM PM
  S  S  S  S  S  S  S  S  S  S  S  S  S  S  S  S
--------------------------------------------------|
--------------------------------------------------|
--9--9--9--9--9--9--9--9--9--9--9--9--9--9--9--9--|
--9--9--9--9--9--9--9--9--9--9--9--9--9--9--9--9--|
--7--7--7--7--7--7--7--7--7--7--7--7--7--7--7--7--|
--------------------------------------------------|


  PM PM PM PM PM PM PM PM PM PM PM PM PM PM PM PM
  S  S  S  S  S  S  S  S  S  S  S  S  S  S  S  S
--------------------------------------------------|
--------------------------------------------------|
--7--7--7--7--7--7--7--7--7--7--7--7--7--7--7--7--|
--7--7--7--7--7--7--7--7--7--7--7--7--7--7--7--7--|
--5--5--5--5--5--5--5--5--5--5--5--5--5--5--5--5--|
--------------------------------------------------|


  PM PM PM PM PM PM PM PM PM PM PM PM PM PM PM PM
  S  S  S  S  S  S  S  S  S  S  S  S  S  S  S  S
--------------------------------------------------|
--------------------------------------------------|
--5--5--5--5--5--5--5--5--5--5--5--5--5--5--5--5--|
--5--5--5--5--5--5--5--5--5--5--5--5--5--5--5--5--|
--3--3--3--3--3--3--3--3--3--3--3--3--3--3--3--3--|
--------------------------------------------------|


  PM PM PM PM PM PM PM PM
  S  S  S  S  S  S  S  S  S S S S  S  S  S  S
----------------------------------------------|
----------------------------------------------|
--------------------------9-9-9-9-12-12-12-12-|
--5--5--5--5--5--5--5--5--9-9-9-9-12-12-12-12-|
--5--5--5--5--5--5--5--5--7-7-7-7-10-10-10-10-|
--5--5--5--5--5--5--5--5----------------------|


  PM PM PM PM PM PM PM PM PM PM PM PM PM PM PM PM
  S  S  S  S  S  S  S  S  S  S  S  S  S  S  S  S
--------------------------------------------------|
--------------------------------------------------|
--9--9--9--9--9--9--9--9--9--9--9--9--9--9--9--9--|
--9--9--9--9--9--9--9--9--9--9--9--9--9--9--9--9--|
--7--7--7--7--7--7--7--7--7--7--7--7--7--7--7--7--|
--------------------------------------------------|


  PM PM PM PM PM PM PM PM PM PM PM PM PM PM PM PM
  S  S  S  S  S  S  S  S  S  S  S  S  S  S  S  S
--------------------------------------------------|
--------------------------------------------------|
--7--7--7--7--7--7--7--7--7--7--7--7--7--7--7--7--|
--7--7--7--7--7--7--7--7--7--7--7--7--7--7--7--7--|
--5--5--5--5--5--5--5--5--5--5--5--5--5--5--5--5--|
--------------------------------------------------|


  PM PM PM PM PM PM PM PM PM PM PM PM PM PM PM PM
  S  S  S  S  S  S  S  S  S  S  S  S  S  S  S  S
--------------------------------------------------|
--------------------------------------------------|
--5--5--5--5--5--5--5--5--5--5--5--5--5--5--5--5--|
--5--5--5--5--5--5--5--5--5--5--5--5--5--5--5--5--|
--3--3--3--3--3--3--3--3--3--3--3--3--3--3--3--3--|
--------------------------------------------------|


  PM PM PM PM PM PM PM PM PM PM PM PM PM PM PM PM
  S  S  S  S  S  S  S  S  S  S  S  S  S  S  S  S
--------------------------------------------------|
--------------------------------------------------|
--7--7--7--7--7--7--7--7--7--7--7--7--7--7--7--7--|
--7--7--7--7--7--7--7--7--7--7--7--7--7--7--7--7--|
--5--5--5--5--5--5--5--5--5--5--5--5--5--5--5--5--|
--5--5--5--5--5--5--5--5--------------------------|


  PM PM PM PM PM PM PM PM PM PM PM PM PM PM PM PM
  S  S  S  S  S  S  S  S  S  S  S  S  S  S  S  S
--------------------------------------------------|
--------------------------------------------------|
--9--9--9--9--9--9--9--9--9--9--9--9--9--9--9--9--|
--9--9--9--9--9--9--9--9--9--9--9--9--9--9--9--9--|
--7--7--7--7--7--7--7--7--7--7--7--7--7--7--7--7--|
--------------------------------------------------|


  PM PM PM PM PM PM PM PM PM PM PM PM PM PM PM PM
  S  S  S  S  S  S  S  S  S  S  S  S  S  S  S  S
--------------------------------------------------|
--------------------------------------------------|
--7--7--7--7--7--7--7--7--7--7--7--7--7--7--7--7--|
--7--7--7--7--7--7--7--7--7--7--7--7--7--7--7--7--|
--5--5--5--5--5--5--5--5--5--5--5--5--5--5--5--5--|
--------------------------------------------------|


  PM PM PM PM PM PM PM PM PM PM PM PM PM PM PM PM
  S  S  S  S  S  S  S  S  S  S  S  S  S  S  S  S
--------------------------------------------------|
--------------------------------------------------|
--5--5--5--5--5--5--5--5--5--5--5--5--5--5--5--5--|
--5--5--5--5--5--5--5--5--5--5--5--5--5--5--5--5--|
--3--3--3--3--3--3--3--3--3--3--3--3--3--3--3--3--|
--------------------------------------------------|


  PM PM PM PM PM PM PM PM PM PM PM PM PM PM PM PM
  S  S  S  S  S  S  S  S  S  S  S  S  S  S  S  S
--------------------------------------------------|
--------------------------------------------------|
--7--7--7--7--7--7--7--7--7--7--7--7--7--7--7--7--|
--7--7--7--7--7--7--7--7--7--7--7--7--7--7--7--7--|
--5--5--5--5--5--5--5--5--5--5--5--5--5--5--5--5--|
--5--5--5--5--5--5--5--5--------------------------|


  PM PM PM PM PM PM PM PM PM PM PM PM PM PM PM PM
  S  S  S  S  S  S  S  S  S  S  S  S  S  S  S  S
--------------------------------------------------|
--------------------------------------------------|
--9--9--9--9--9--9--9--9--9--9--9--9--9--9--9--9--|
--9--9--9--9--9--9--9--9--9--9--9--9--9--9--9--9--|
--7--7--7--7--7--7--7--7--7--7--7--7--7--7--7--7--|
--------------------------------------------------|


  PM PM PM PM PM PM PM PM PM PM PM PM PM PM PM PM
  S  S  S  S  S  S  S  S  S  S  S  S  S  S  S  S
--------------------------------------------------|
--------------------------------------------------|
--7--7--7--7--7--7--7--7--7--7--7--7--7--7--7--7--|
--7--7--7--7--7--7--7--7--7--7--7--7--7--7--7--7--|
--5--5--5--5--5--5--5--5--5--5--5--5--5--5--5--5--|
--------------------------------------------------|


  PM PM PM PM PM PM PM PM PM PM PM PM PM PM PM PM
  S  S  S  S  S  S  S  S  S  S  S  S  S  S  S  S
--------------------------------------------------|
--------------------------------------------------|
--5--5--5--5--5--5--5--5--5--5--5--5--5--5--5--5--|
--5--5--5--5--5--5--5--5--5--5--5--5--5--5--5--5--|
--3--3--3--3--3--3--3--3--3--3--3--3--3--3--3--3--|
--------------------------------------------------|


  PM PM PM PM PM PM PM PM PM PM PM PM PM PM PM PM
  S  S  S  S  S  S  S  S  S  S  S  S  S  S  S  S
--------------------------------------------------|
--------------------------------------------------|
--7--7--7--7--7--7--7--7--7--7--7--7--7--7--7--7--|
--7--7--7--7--7--7--7--7--7--7--7--7--7--7--7--7--|
--5--5--5--5--5--5--5--5--5--5--5--5--5--5--5--5--|
--5--5--5--5--5--5--5--5--------------------------|


  PM PM PM PM PM PM PM PM PM PM PM PM PM PM PM PM
  S  S  S  S  S  S  S  S  S  S  S  S  S  S  S  S
--------------------------------------------------|
--------------------------------------------------|
--9--9--9--9--9--9--9--9--9--9--9--9--9--9--9--9--|
--9--9--9--9--9--9--9--9--9--9--9--9--9--9--9--9--|
--7--7--7--7--7--7--7--7--7--7--7--7--7--7--7--7--|
--------------------------------------------------|


  PM PM PM PM PM PM PM PM PM PM PM PM PM PM PM PM
  S  S  S  S  S  S  S  S  S  S  S  S  S  S  S  S
--------------------------------------------------|
--------------------------------------------------|
--7--7--7--7--7--7--7--7--7--7--7--7--7--7--7--7--|
--7--7--7--7--7--7--7--7--7--7--7--7--7--7--7--7--|
--5--5--5--5--5--5--5--5--5--5--5--5--5--5--5--5--|
--------------------------------------------------|


  PM PM PM PM PM PM PM PM PM PM PM PM PM PM PM PM
  S  S  S  S  S  S  S  S  S  S  S  S  S  S  S  S
--------------------------------------------------|
--------------------------------------------------|
--5--5--5--5--5--5--5--5--5--5--5--5--5--5--5--5--|
--5--5--5--5--5--5--5--5--5--5--5--5--5--5--5--5--|
--3--3--3--3--3--3--3--3--3--3--3--3--3--3--3--3--|
--------------------------------------------------|


  PM PM PM PM PM PM PM PM PM PM PM PM PM PM PM PM
  S  S  S  S  S  S  S  S  S  S  S  S  S  S  S  S
--------------------------------------------------|----||
--------------------------------------------------|----||
--7--7--7--7--7--7--7--7--7--7--7--7--7--7--7--7--|----||
--7--7--7--7--7--7--7--7--7--7--7--7--7--7--7--7--|----||
--5--5--5--5--5--5--5--5--5--5--5--5--5--5--5--5--|----||
--5--5--5--5--5--5--5--5--------------------------|----||


Guitar 2

     E  E  E  S S E  E  E  E     Q    E  E  H
D#||-----7--7--L-8-7-----------|--7----7--8--7--------|
A#||------------------8-----8--|----------------------|
F#||---------------------9-----|----------------------|
C#||---------------------------|----------------------|
G#||---------------------------|----------------------|
C#||---------------------------|----------------------|


  E  E  E  S S E  E  E  E     S E  S E  E  H
-----7--7--L-8-7-----------|--7-7--L-7--8--7--------|
------------------8-----8--|------------------------|
---------------------9-----|------------------------|
---------------------------|------------------------|
---------------------------|------------------------|
---------------------------|------------------------|


  E  E  E  S S E  E  E  E     Q    E  E  H           E  E  E  S S E  E  E  E
-----7--7--L-8-7-----------|--7----7--8--7--------|-----7--7--L-8-7-----------|
------------------8-----8--|----------------------|------------------8-----8--|
---------------------9-----|----------------------|---------------------9-----|
---------------------------|----------------------|---------------------------|
---------------------------|----------------------|---------------------------|
---------------------------|----------------------|---------------------------|


  Q    E  E  H           E  E  E  E  E  E  E  E     E  E  E  E  E  E  E  E
--7----7--8--7--------|--7--L--7--L--7--L--7--L--|--7--L--7--L--7--L--7--L--|
----------------------|--8--5--8--5--8--5--8--5--|--7--5--7--5--7--5--7--5--|
----------------------|--------------------------|--------------------------|
----------------------|--------------------------|--------------------------|
----------------------|--------------------------|--------------------------|
----------------------|--------------------------|--------------------------|


  E  E  E  E  E  E  E  E     E  E  E  E  E  E  E  E
--7--L--7--L--7--L--7--L--|--7--L--7--L--7--L--7--L--|
--8--5--8--5--8--5--8--5--|--7--5--7--5--7--5--7--5--|
--------------------------|--------------------------|
--------------------------|--------------------------|
--------------------------|--------------------------|
--------------------------|--------------------------|


  E  E  E  E  E  E  E  E     E  E  E  E  E  E  E  E
--7--L--7--L--7--L--7--L--|--7--L--7--L--7--L--7--L--|
--8--5--8--5--8--5--8--5--|--7--5--7--5--7--5--7--5--|
--------------------------|--------------------------|
--------------------------|--------------------------|
--------------------------|--------------------------|
--------------------------|--------------------------|


  E  E  E  E  E  E  E  E     E  E  E  E  E  E  E  E
--7--L--7--L--7--L--7--L--|--7--L--7--L--7--L--7--L--|
--8--5--8--5--8--5--8--5--|--7--5--7--5--7--5--7--5--|
--------------------------|--------------------------|
--------------------------|--------------------------|
--------------------------|--------------------------|
--------------------------|--------------------------|


  PM PM PM PM PM PM PM PM PM PM PM PM PM PM PM PM
  S  S  S  S  S  S  S  S  S  S  S  S  S  S  S  S
--------------------------------------------------|
--------------------------------------------------|
--9--9--9--9--9--9--9--9--9--9--9--9--4--4--7--7--|
--9--9--9--9--9--9--9--9--9--9--9--9--4--4--7--7--|
--7--7--7--7--7--7--7--7--7--7--7--7--2--2--5--5--|
--------------------------------------------------|


  PM PM PM PM PM PM PM PM PM PM PM PM PM PM PM PM
  S  S  S  S  S  S  S  S  S  S  S  S  S  S  S  S
--------------------------------------------------|
--------------------------------------------------|
--7--7--7--7--7--7--7--7--7--7--7--7--4--4--5--5--|
--7--7--7--7--7--7--7--7--7--7--7--7--4--4--5--5--|
--5--5--5--5--5--5--5--5--5--5--5--5--2--2--3--3--|
--------------------------------------------------|


  PM PM PM PM PM PM PM PM PM PM PM PM PM PM PM PM
  S  S  S  S  S  S  S  S  S  S  S  S  S  S  S  S
--------------------------------------------------|
--------------------------------------------------|
--5--5--5--5--5--5--5--5--5--5--5--5--------------|
--5--5--5--5--5--5--5--5--5--5--5--5--5--5--7--7--|
--3--3--3--3--3--3--3--3--3--3--3--3--5--5--7--7--|
--------------------------------------5--5--7--7--|


  PM PM PM PM PM PM PM PM PM PM PM PM PM PM PM PM
  S  S  S  S  S  S  S  S  S  S  S  S  S  S  S  S
--------------------------------------------------|
--------------------------------------------------|
--------------------------------------------------|
--9--9--9--9--9--9--9--9--9--9--9--9--9--9--9--9--|
--9--9--9--9--9--9--9--9--9--9--9--9--9--9--9--9--|
--9--9--9--9--9--9--9--9--9--9--9--9--9--9--9--9--|


  PM PM PM PM PM PM PM PM PM PM PM PM PM PM PM PM
  S  S  S  S  S  S  S  S  S  S  S  S  S  S  S  S
--------------------------------------------------|
--------------------------------------------------|
--9--9--9--9--9--9--9--9--9--9--9--9--4--4--7--7--|
--9--9--9--9--9--9--9--9--9--9--9--9--4--4--7--7--|
--7--7--7--7--7--7--7--7--7--7--7--7--2--2--5--5--|
--------------------------------------------------|


  PM PM PM PM PM PM PM PM PM PM PM PM PM PM PM PM
  S  S  S  S  S  S  S  S  S  S  S  S  S  S  S  S
--------------------------------------------------|
--------------------------------------------------|
--7--7--7--7--7--7--7--7--7--7--7--7--4--4--5--5--|
--7--7--7--7--7--7--7--7--7--7--7--7--4--4--5--5--|
--5--5--5--5--5--5--5--5--5--5--5--5--2--2--3--3--|
--------------------------------------------------|


  PM PM PM PM PM PM PM PM PM PM PM PM PM PM PM PM
  S  S  S  S  S  S  S  S  S  S  S  S  S  S  S  S
--------------------------------------------------|
--------------------------------------------------|
--5--5--5--5--5--5--5--5--5--5--5--5--------------|
--5--5--5--5--5--5--5--5--5--5--5--5--5--5--7--7--|
--3--3--3--3--3--3--3--3--3--3--3--3--5--5--7--7--|
--------------------------------------5--5--7--7--|


  PM PM PM PM PM PM PM PM
  S  S  S  S  S  S  S  S  S S S S  S  S  S  S
----------------------------------------------|
----------------------------------------------|
--------------------------9-9-9-9-12-12-12-12-|
--9--9--9--9--9--9--9--9--9-9-9-9-12-12-12-12-|
--9--9--9--9--9--9--9--9--7-7-7-7-10-10-10-10-|
--9--9--9--9--9--9--9--9----------------------|


         PM PM        PM PM     PM PM           PM PM        PM PM     PM PM
  E  S S S  S  E  S S S  S  S S S  S     E  S S S  S  E  S S S  S  S S S  S
--------------------------------------|--------------------------------------|
--------------------------------------|--------------------------------------|
--------------------------------------|--------------------------------------|
--2--2-2-2--2--2--2-2-2--2--2-2-2--2--|--0--0-0-0--0--0--0-0-0--0--0-0-0--0--|
--2--2-2-2--2--2--2-2-2--2--2-2-2--2--|--0--0-0-0--0--0--0-0-0--0--0-0-0--0--|
--2--2-2-2--2--2--2-2-2--2--2-2-2--2--|--0--0-0-0--0--0--0-0-0--0--0-0-0--0--|


         PM PM        PM PM     PM PM           PM PM        PM PM     PM PM
  E  S S S  S  E  S S S  S  S S S  S     E  S S S  S  E  S S S  S  S S S  S
--------------------------------------|--------------------------------------|
--------------------------------------|--------------------------------------|
--5--5-5-5--5--5--5-5-5--5--5-5-5--5--|--7--7-7-7--7--7--7-7-7--7--7-7-7--7--|
--5--5-5-5--5--5--5-5-5--5--5-5-5--5--|--7--7-7-7--7--7--7-7-7--7--7-7-7--7--|
--3--3-3-3--3--3--3-3-3--3--3-3-3--3--|--5--5-5-5--5--5--5-5-5--5--5-5-5--5--|
--------------------------------------|--------------------------------------|


         PM PM        PM PM     PM PM           PM PM        PM PM     PM PM
  E  S S S  S  E  S S S  S  S S S  S     E  S S S  S  E  S S S  S  S S S  S
--------------------------------------|--------------------------------------|
--------------------------------------|--------------------------------------|
--------------------------------------|--------------------------------------|
--2--2-2-2--2--2--2-2-2--2--2-2-2--2--|--0--0-0-0--0--0--0-0-0--0--0-0-0--0--|
--2--2-2-2--2--2--2-2-2--2--2-2-2--2--|--0--0-0-0--0--0--0-0-0--0--0-0-0--0--|
--2--2-2-2--2--2--2-2-2--2--2-2-2--2--|--0--0-0-0--0--0--0-0-0--0--0-0-0--0--|


         PM PM        PM PM     PM PM           PM PM        PM PM     PM PM
  E  S S S  S  E  S S S  S  S S S  S     E  S S S  S  E  S S S  S  S S S  S
--------------------------------------|--------------------------------------|
--------------------------------------|--------------------------------------|
--5--5-5-5--5--5--5-5-5--5--5-5-5--5--|--7--7-7-7--7--7--7-7-7--7--7-7-7--7--|
--5--5-5-5--5--5--5-5-5--5--5-5-5--5--|--7--7-7-7--7--7--7-7-7--7--7-7-7--7--|
--3--3-3-3--3--3--3-3-3--3--3-3-3--3--|--5--5-5-5--5--5--5-5-5--5--5-5-5--5--|
--------------------------------------|--------------------------------------|


  PM PM PM PM PM PM PM PM PM PM PM PM PM PM PM PM
  S  S  S  S  S  S  S  S  S  S  S  S  S  S  S  S
--------------------------------------------------|
--------------------------------------------------|
--9--9--9--9--9--9--9--9--9--9--9--9--4--4--7--7--|
--9--9--9--9--9--9--9--9--9--9--9--9--4--4--7--7--|
--7--7--7--7--7--7--7--7--7--7--7--7--2--2--5--5--|
--------------------------------------------------|


  PM PM PM PM PM PM PM PM PM PM PM PM PM PM PM PM
  S  S  S  S  S  S  S  S  S  S  S  S  S  S  S  S
--------------------------------------------------|
--------------------------------------------------|
--7--7--7--7--7--7--7--7--7--7--7--7--4--4--5--5--|
--7--7--7--7--7--7--7--7--7--7--7--7--4--4--5--5--|
--5--5--5--5--5--5--5--5--5--5--5--5--2--2--3--3--|
--------------------------------------------------|


  PM PM PM PM PM PM PM PM PM PM PM PM PM PM PM PM
  S  S  S  S  S  S  S  S  S  S  S  S  S  S  S  S
--------------------------------------------------|
--------------------------------------------------|
--5--5--5--5--5--5--5--5--5--5--5--5--------------|
--5--5--5--5--5--5--5--5--5--5--5--5--5--5--7--7--|
--3--3--3--3--3--3--3--3--3--3--3--3--5--5--7--7--|
--------------------------------------5--5--7--7--|


  PM PM PM PM PM PM PM PM PM PM PM PM PM PM PM PM
  S  S  S  S  S  S  S  S  S  S  S  S  S  S  S  S
--------------------------------------------------|
--------------------------------------------------|
--------------------------------------------------|
--9--9--9--9--9--9--9--9--9--9--9--9--9--9--9--9--|
--9--9--9--9--9--9--9--9--9--9--9--9--9--9--9--9--|
--9--9--9--9--9--9--9--9--9--9--9--9--9--9--9--9--|


  PM PM PM PM PM PM PM PM PM PM PM PM PM PM PM PM
  S  S  S  S  S  S  S  S  S  S  S  S  S  S  S  S
--------------------------------------------------|
--------------------------------------------------|
--9--9--9--9--9--9--9--9--9--9--9--9--4--4--7--7--|
--9--9--9--9--9--9--9--9--9--9--9--9--4--4--7--7--|
--7--7--7--7--7--7--7--7--7--7--7--7--2--2--5--5--|
--------------------------------------------------|


  PM PM PM PM PM PM PM PM PM PM PM PM PM PM PM PM
  S  S  S  S  S  S  S  S  S  S  S  S  S  S  S  S
--------------------------------------------------|
--------------------------------------------------|
--7--7--7--7--7--7--7--7--7--7--7--7--4--4--5--5--|
--7--7--7--7--7--7--7--7--7--7--7--7--4--4--5--5--|
--5--5--5--5--5--5--5--5--5--5--5--5--2--2--3--3--|
--------------------------------------------------|


  PM PM PM PM PM PM PM PM PM PM PM PM PM PM PM PM
  S  S  S  S  S  S  S  S  S  S  S  S  S  S  S  S
--------------------------------------------------|
--------------------------------------------------|
--5--5--5--5--5--5--5--5--5--5--5--5--------------|
--5--5--5--5--5--5--5--5--5--5--5--5--5--5--7--7--|
--3--3--3--3--3--3--3--3--3--3--3--3--5--5--7--7--|
--------------------------------------5--5--7--7--|


  PM PM PM PM PM PM PM PM
  S  S  S  S  S  S  S  S  S S S S  S  S  S  S    E  S S S S E  S S S S S S S S
----------------------------------------------|--------------------------------|
----------------------------------------------|--------------------------------|
--------------------------9-9-9-9-12-12-12-12-|--9--9-9-x-x-9--9-9-x-x-9-9-x-x-|
--9--9--9--9--9--9--9--9--9-9-9-9-12-12-12-12-|--x--x-x-x-x-x--x-x-x-x-x-x-x-x-|
--9--9--9--9--9--9--9--9--7-7-7-7-10-10-10-10-|--7--7-7-x-x-7--7-7-x-x-7-7-x-x-|
--9--9--9--9--9--9--9--9----------------------|--------------------------------|


   E   S  S  S  S  E   S  S  S  S  S  S  S  S
----------------------------------------------|
----------------------------------------------|
--11--11-11--x--x-11--11-11--x--x-11-11--x--x-|
---x---x--x--x--x--x---x--x--x--x--x--x--x--x-|
---9---9--9--x--x--9---9--9--x--x--9--9--x--x-|
----------------------------------------------|


   E   S  S  S  S  E   S  S  S  S  S  S  S  S    E  S S S S E  S S S S S S S S
----------------------------------------------|--------------------------------|
----------------------------------------------|--------------------------------|
--12--12-12--x--x-12--12-12--x--x-12-12--x--x-|--7--7-7-x-x-7--7-7-x-x-7-7-x-x-|
---x---x--x--x--x--x---x--x--x--x--x--x--x--x-|--x--x-x-x-x-x--x-x-x-x-x-x-x-x-|
--10--10-10--x--x-10--10-10--x--x-10-10--x--x-|--5--5-5-x-x-5--5-5-x-x-5-5-x-x-|
----------------------------------------------|--------------------------------|


  E  S S S S E  S S S S S S S S     E   S  S  S  S  E   S  S  S  S  S  S  S  S
--------------------------------|----------------------------------------------|
--------------------------------|----------------------------------------------|
--9--9-9-x-x-9--9-9-x-x-9-9-x-x-|--11--11-11--x--x-11--11-11--x--x-11-11--x--x-|
--x--x-x-x-x-x--x-x-x-x-x-x-x-x-|---x---x--x--x--x--x---x--x--x--x--x--x--x--x-|
--7--7-7-x-x-7--7-7-x-x-7-7-x-x-|---9---9--9--x--x--9---9--9--x--x--9--9--x--x-|
--------------------------------|----------------------------------------------|


   E   S  S  S  S  E   S  S  S  S  S  S  S  S    E  S S S S E  S S S S S S S S
----------------------------------------------|--------------------------------|
----------------------------------------------|--------------------------------|
--12--12-12--x--x-12--12-12--x--x-12-12--x--x-|--7--7-7-x-x-7--7-7-x-x-7-7-x-x-|
---x---x--x--x--x--x---x--x--x--x--x--x--x--x-|--x--x-x-x-x-x--x-x-x-x-x-x-x-x-|
--10--10-10--x--x-10--10-10--x--x-10-10--x--x-|--5--5-5-x-x-5--5-5-x-x-5-5-x-x-|
----------------------------------------------|--------------------------------|


  W                   W                   W                   W
-------------------|-------------------|-------------------|-------------------|
-------------------|-------------------|-------------------|-------------------|
--9----------------|--L----------------|--L----------------|--L----------------|
--x----------------|-------------------|-------------------|-------------------|
--7----------------|--L----------------|--L----------------|--L----------------|
-------------------|-------------------|-------------------|-------------------|


-------------------|-------------------|-------------------|-------------------|
-------------------|-------------------|-------------------|-------------------|
-------------------|-------------------|-------------------|-------------------|
-------------------|-------------------|-------------------|-------------------|
-------------------|-------------------|-------------------|-------------------|
-------------------|-------------------|-------------------|-------------------|


  PM PM PM PM PM PM PM PM PM PM PM PM PM PM PM PM
  S  S  S  S  S  S  S  S  S  S  S  S  S  S  S  S
--------------------------------------------------|
--------------------------------------------------|
--9--9--9--9--9--9--9--9--9--9--9--9--4--4--7--7--|
--9--9--9--9--9--9--9--9--9--9--9--9--4--4--7--7--|
--7--7--7--7--7--7--7--7--7--7--7--7--2--2--5--5--|
--------------------------------------------------|


  PM PM PM PM PM PM PM PM PM PM PM PM PM PM PM PM
  S  S  S  S  S  S  S  S  S  S  S  S  S  S  S  S
--------------------------------------------------|
--------------------------------------------------|
--7--7--7--7--7--7--7--7--7--7--7--7--4--4--5--5--|
--7--7--7--7--7--7--7--7--7--7--7--7--4--4--5--5--|
--5--5--5--5--5--5--5--5--5--5--5--5--2--2--3--3--|
--------------------------------------------------|


  PM PM PM PM PM PM PM PM PM PM PM PM PM PM PM PM
  S  S  S  S  S  S  S  S  S  S  S  S  S  S  S  S
--------------------------------------------------|
--------------------------------------------------|
--5--5--5--5--5--5--5--5--5--5--5--5--------------|
--5--5--5--5--5--5--5--5--5--5--5--5--5--5--7--7--|
--3--3--3--3--3--3--3--3--3--3--3--3--5--5--7--7--|
--------------------------------------5--5--7--7--|


  PM PM PM PM PM PM PM PM PM PM PM PM PM PM PM PM
  S  S  S  S  S  S  S  S  S  S  S  S  S  S  S  S
--------------------------------------------------|
--------------------------------------------------|
--------------------------------------------------|
--9--9--9--9--9--9--9--9--9--9--9--9--9--9--9--9--|
--9--9--9--9--9--9--9--9--9--9--9--9--9--9--9--9--|
--9--9--9--9--9--9--9--9--9--9--9--9--9--9--9--9--|


  PM PM PM PM PM PM PM PM PM PM PM PM PM PM PM PM
  S  S  S  S  S  S  S  S  S  S  S  S  S  S  S  S
--------------------------------------------------|
--------------------------------------------------|
--9--9--9--9--9--9--9--9--9--9--9--9--4--4--7--7--|
--9--9--9--9--9--9--9--9--9--9--9--9--4--4--7--7--|
--7--7--7--7--7--7--7--7--7--7--7--7--2--2--5--5--|
--------------------------------------------------|


  PM PM PM PM PM PM PM PM PM PM PM PM PM PM PM PM
  S  S  S  S  S  S  S  S  S  S  S  S  S  S  S  S
--------------------------------------------------|
--------------------------------------------------|
--7--7--7--7--7--7--7--7--7--7--7--7--4--4--5--5--|
--7--7--7--7--7--7--7--7--7--7--7--7--4--4--5--5--|
--5--5--5--5--5--5--5--5--5--5--5--5--2--2--3--3--|
--------------------------------------------------|


  PM PM PM PM PM PM PM PM PM PM PM PM PM PM PM PM
  S  S  S  S  S  S  S  S  S  S  S  S  S  S  S  S
--------------------------------------------------|
--------------------------------------------------|
--5--5--5--5--5--5--5--5--5--5--5--5--------------|
--5--5--5--5--5--5--5--5--5--5--5--5--5--5--7--7--|
--3--3--3--3--3--3--3--3--3--3--3--3--5--5--7--7--|
--------------------------------------5--5--7--7--|


  PM PM PM PM PM PM PM PM
  S  S  S  S  S  S  S  S  S S S S  S  S  S  S
----------------------------------------------|
----------------------------------------------|
--------------------------9-9-9-9-12-12-12-12-|
--9--9--9--9--9--9--9--9--9-9-9-9-12-12-12-12-|
--9--9--9--9--9--9--9--9--7-7-7-7-10-10-10-10-|
--9--9--9--9--9--9--9--9----------------------|


         PM PM        PM PM     PM PM           PM PM        PM PM     PM PM
  E  S S S  S  E  S S S  S  S S S  S     E  S S S  S  E  S S S  S  S S S  S
--------------------------------------|--------------------------------------|
--------------------------------------|--------------------------------------|
--------------------------------------|--------------------------------------|
--2--2-2-2--2--2--2-2-2--2--2-2-2--2--|--0--0-0-0--0--0--0-0-0--0--0-0-0--0--|
--2--2-2-2--2--2--2-2-2--2--2-2-2--2--|--0--0-0-0--0--0--0-0-0--0--0-0-0--0--|
--2--2-2-2--2--2--2-2-2--2--2-2-2--2--|--0--0-0-0--0--0--0-0-0--0--0-0-0--0--|


         PM PM        PM PM     PM PM           PM PM        PM PM     PM PM
  E  S S S  S  E  S S S  S  S S S  S     E  S S S  S  E  S S S  S  S S S  S
--------------------------------------|--------------------------------------|
--------------------------------------|--------------------------------------|
--5--5-5-5--5--5--5-5-5--5--5-5-5--5--|--7--7-7-7--7--7--7-7-7--7--7-7-7--7--|
--5--5-5-5--5--5--5-5-5--5--5-5-5--5--|--7--7-7-7--7--7--7-7-7--7--7-7-7--7--|
--3--3-3-3--3--3--3-3-3--3--3-3-3--3--|--5--5-5-5--5--5--5-5-5--5--5-5-5--5--|
--------------------------------------|--------------------------------------|


         PM PM        PM PM     PM PM           PM PM        PM PM     PM PM
  E  S S S  S  E  S S S  S  S S S  S     E  S S S  S  E  S S S  S  S S S  S
--------------------------------------|--------------------------------------|
--------------------------------------|--------------------------------------|
--------------------------------------|--------------------------------------|
--2--2-2-2--2--2--2-2-2--2--2-2-2--2--|--0--0-0-0--0--0--0-0-0--0--0-0-0--0--|
--2--2-2-2--2--2--2-2-2--2--2-2-2--2--|--0--0-0-0--0--0--0-0-0--0--0-0-0--0--|
--2--2-2-2--2--2--2-2-2--2--2-2-2--2--|--0--0-0-0--0--0--0-0-0--0--0-0-0--0--|


         PM PM        PM PM     PM PM           PM PM        PM PM     PM PM
  E  S S S  S  E  S S S  S  S S S  S     E  S S S  S  E  S S S  S  S S S  S
--------------------------------------|--------------------------------------|
--------------------------------------|--------------------------------------|
--5--5-5-5--5--5--5-5-5--5--5-5-5--5--|--7--7-7-7--7--7--7-7-7--7--7-7-7--7--|
--5--5-5-5--5--5--5-5-5--5--5-5-5--5--|--7--7-7-7--7--7--7-7-7--7--7-7-7--7--|
--3--3-3-3--3--3--3-3-3--3--3-3-3--3--|--5--5-5-5--5--5--5-5-5--5--5-5-5--5--|
--------------------------------------|--------------------------------------|


         PM PM        PM PM     PM PM           PM PM        PM PM     PM PM
  E  S S S  S  E  S S S  S  S S S  S     E  S S S  S  E  S S S  S  S S S  S
--------------------------------------|--------------------------------------|
--------------------------------------|--------------------------------------|
--------------------------------------|--------------------------------------|
--2--2-2-2--2--2--2-2-2--2--2-2-2--2--|--0--0-0-0--0--0--0-0-0--0--0-0-0--0--|
--2--2-2-2--2--2--2-2-2--2--2-2-2--2--|--0--0-0-0--0--0--0-0-0--0--0-0-0--0--|
--2--2-2-2--2--2--2-2-2--2--2-2-2--2--|--0--0-0-0--0--0--0-0-0--0--0-0-0--0--|


         PM PM        PM PM     PM PM           PM PM        PM PM     PM PM
  E  S S S  S  E  S S S  S  S S S  S     E  S S S  S  E  S S S  S  S S S  S
--------------------------------------|--------------------------------------|
--------------------------------------|--------------------------------------|
--5--5-5-5--5--5--5-5-5--5--5-5-5--5--|--7--7-7-7--7--7--7-7-7--7--7-7-7--7--|
--5--5-5-5--5--5--5-5-5--5--5-5-5--5--|--7--7-7-7--7--7--7-7-7--7--7-7-7--7--|
--3--3-3-3--3--3--3-3-3--3--3-3-3--3--|--5--5-5-5--5--5--5-5-5--5--5-5-5--5--|
--------------------------------------|--------------------------------------|


         PM PM        PM PM     PM PM           PM PM        PM PM     PM PM
  E  S S S  S  E  S S S  S  S S S  S     E  S S S  S  E  S S S  S  S S S  S
--------------------------------------|--------------------------------------|
--------------------------------------|--------------------------------------|
--------------------------------------|--------------------------------------|
--2--2-2-2--2--2--2-2-2--2--2-2-2--2--|--0--0-0-0--0--0--0-0-0--0--0-0-0--0--|
--2--2-2-2--2--2--2-2-2--2--2-2-2--2--|--0--0-0-0--0--0--0-0-0--0--0-0-0--0--|
--2--2-2-2--2--2--2-2-2--2--2-2-2--2--|--0--0-0-0--0--0--0-0-0--0--0-0-0--0--|


         PM PM        PM PM     PM PM           PM PM        PM PM     PM PM
  E  S S S  S  E  S S S  S  S S S  S     E  S S S  S  E  S S S  S  S S S  S
--------------------------------------|--------------------------------------|
--------------------------------------|--------------------------------------|
--5--5-5-5--5--5--5-5-5--5--5-5-5--5--|--7--7-7-7--7--7--7-7-7--7--7-7-7--7--|
--5--5-5-5--5--5--5-5-5--5--5-5-5--5--|--7--7-7-7--7--7--7-7-7--7--7-7-7--7--|
--3--3-3-3--3--3--3-3-3--3--3-3-3--3--|--5--5-5-5--5--5--5-5-5--5--5-5-5--5--|
--------------------------------------|--------------------------------------|


----||
----||
----||
----||
----||
----||


Guitar 3

Starts at (0:23)

                 NH   NH                    NH   NH
  H        Q      E    E     H        Q      E    E
--------------------------|--------------------------|
--------------------------|--------------------------|
---------------------<>7--|--L--------L----<>7----L--|
----------------<>7----L--|--L--------L---------<>7--|
--------------------------|--------------------------|
--------------------------|--------------------------|


    NH              NH   NH               NH                          NH   NH
    H        Q      E    E     H          H           H        Q      E    E
----------------------------|----------------------|--------------------------|
----------------------------|-----------<>7--------|--------------------------|
--<>5--------L---------<>7--|--L----------L--------|---------------------<>7--|
----L--------L----<>7-------|--L----------L--------|----------------<>7----L--|
----------------------------|----------------------|--------------------------|
----------------------------|----------------------|--------------------------|


                  NH   NH                    NH   NH               NH
  H        Q      E    E     H        Q      E    E     H          H
--------------------------|--------------------------|----------------------|
--------------------------|--------------------------|-----------<>7--------|
--L--------L---------<>7--|--L--------L---------<>5--|--L----------L--------|
--L--------L----<>7----L--|--L--------L----<>7----L--|--L----------L--------|
--------------------------|--------------------------|----------------------|
--------------------------|--------------------------|----------------------|


  S S S S S S S S S S S S S S S S    S S S S S S S S S S S S   S  S  S  S
----------------------------------|---------------------------------------|
--8-7-7-8-7-7-8-7-7-8-7-7-8-7-L-7-|--8-7-7-8-7-7-8-7-7-8-7-7s-12-12-12-12-|
----------------------------------|---------------------------------------|
----------------------------------|---------------------------------------|
----------------------------------|---------------------------------------|
----------------------------------|---------------------------------------|


  S S S S S S S S S S S S S S S S    S S S S S S S S S S S S  S S S S
----------------------------------|-----------------------------------|
--8-7-7-8-7-7-8-7-7-8-7-7-8-7-L-7-|--8-7-7-8-7-7-8-7-7-8-7-7s-3-3-3-3-|
----------------------------------|-----------------------------------|
----------------------------------|-----------------------------------|
----------------------------------|-----------------------------------|
----------------------------------|-----------------------------------|


  S S S S S S S S S S S S S S S S    S S S S S S S S S S S S   S  S  S  S
----------------------------------|---------------------------------------|
--8-7-7-8-7-7-8-7-7-8-7-7-8-7-L-7-|--8-7-7-8-7-7-8-7-7-8-7-7s-12-12-12-12-|
----------------------------------|---------------------------------------|
----------------------------------|---------------------------------------|
----------------------------------|---------------------------------------|
----------------------------------|---------------------------------------|


  S S S S S S S S S S S S S S S S    S S S S S S S S S S S S  S S S S
----------------------------------|-----------------------------------|
--8-7-7-8-7-7-8-7-7-8-7-7-8-7-L-7-|--8-7-7-8-7-7-8-7-7-8-7-7s-3-3-3-3-|
----------------------------------|-----------------------------------|
----------------------------------|-----------------------------------|
----------------------------------|-----------------------------------|
----------------------------------|-----------------------------------|


  H        Q     E   E      H        Q     E  E     S S H        E   E   E
------------------------|------------------------|--------------------------|
----------------12--10--|---L--------L----12--8--|--L-8-------------12--10--|
--9--------L------------|------------------------|------9--------L----------|
------------------------|------------------------|--------------------------|
------------------------|------------------------|--------------------------|
------------------------|------------------------|--------------------------|


  Q     E  E  Q     E  E     S S H        E   E   E
--------------------------|--------------------------|
--L----12--8--L----10--8--|--L-8-------------12--10--|
--------------------------|------9--------L----------|
--------------------------|--------------------------|
--------------------------|--------------------------|
--------------------------|--------------------------|


  Q     E  E  Q     E  E     S S H        E   E   E
--------------------------|--------------------------|
--L----12--8--L----10--8--|--L-8-------------12--10--|
--------------------------|------9--------L----------|
--------------------------|--------------------------|
--------------------------|--------------------------|
--------------------------|--------------------------|


  Q     E  E  Q     E  E     H        E  Q    E
--------------------------|----------------------|-----|
--L----12--8--L----10--8--|----------------------|-----|
--------------------------|--9--------L--9----L--|-----|
--------------------------|----------------------|-----|
--------------------------|----------------------|-----|
--------------------------|----------------------|-----|


  E  E  E  S S E  E  E  E     Q    E  E  H           E  E  E  S S E  E  E  E
-----7--7--L-8-7-----------|--7----7--8--7--------|-----7--7--L-8-7-----------|
------------------8-----8--|----------------------|------------------8-----8--|
---------------------9-----|----------------------|---------------------9-----|
---------------------------|----------------------|---------------------------|
---------------------------|----------------------|---------------------------|
---------------------------|----------------------|---------------------------|


  Q    E  E  H           E  E  E  S S E  E  E  E     Q    E  E  H
--7----7--8--7--------|-----7--7--L-8-7-----------|--7----7--8--7--------|
----------------------|------------------8-----8--|----------------------|
----------------------|---------------------9-----|----------------------|
----------------------|---------------------------|----------------------|
----------------------|---------------------------|----------------------|
----------------------|---------------------------|----------------------|


-----------|-----------|-----------|-----------|-----------|-----------|
-----------|-----------|-----------|-----------|-----------|-----------|
-----------|-----------|-----------|-----------|-----------|-----------|
-----------|-----------|-----------|-----------|-----------|-----------|
-----------|-----------|-----------|-----------|-----------|-----------|
-----------|-----------|-----------|-----------|-----------|-----------|


                          E  E  E  E  E  E  E  E     E  E  E  E  E  E  E  E
-----------|-----------|--7--L--7--L--7--L--7--L--|--7--L--7--L--7--L--7--L--|
-----------|-----------|--8--5--8--5--8--5--8--5--|--7--5--7--5--7--5--7--5--|
-----------|-----------|--------------------------|--------------------------|
-----------|-----------|--------------------------|--------------------------|
-----------|-----------|--------------------------|--------------------------|
-----------|-----------|--------------------------|--------------------------|


  E  E  E  E  E  E  E  E     E  E  E  E  E  E  E  E
--7--L--7--L--7--L--7--L--|--7--L--7--L--7--L--7--L--|
--8--5--8--5--8--5--8--5--|--7--5--7--5--7--5--7--5--|
--------------------------|--------------------------|
--------------------------|--------------------------|
--------------------------|--------------------------|
--------------------------|--------------------------|


  E  E  E  E  E  E  E  E     E  E  E  E  E  E  E  E
--7--L--7--L--7--L--7--L--|--7--L--7--L--7--L--7--L--|
--8--5--8--5--8--5--8--5--|--7--5--7--5--7--5--7--5--|
--------------------------|--------------------------|
--------------------------|--------------------------|
--------------------------|--------------------------|
--------------------------|--------------------------|


  E  E  E  E  E  E  E  E     E  E  E  E  E  E  E  E
--7--L--7--L--7--L--7--L--|--7--L--7--L--7--L--7--L--|
--8--5--8--5--8--5--8--5--|--7--5--7--5--7--5--7--5--|
--------------------------|--------------------------|
--------------------------|--------------------------|
--------------------------|--------------------------|
--------------------------|--------------------------|


  S S S S S S S S S S S S S S S S    S S S S S S S S S S S S   S  S  S  S
----------------------------------|---------------------------------------|
--8-7-7-8-7-7-8-7-7-8-7-7-8-7-L-7-|--8-7-7-8-7-7-8-7-7-8-7-7s-12-12-12-12-|
----------------------------------|---------------------------------------|
----------------------------------|---------------------------------------|
----------------------------------|---------------------------------------|
----------------------------------|---------------------------------------|


  S S S S S S S S S S S S S S S S    S S S S S S S S S S S S  S S S S
----------------------------------|-----------------------------------|
--8-7-7-8-7-7-8-7-7-8-7-7-8-7-L-7-|--8-7-7-8-7-7-8-7-7-8-7-7s-3-3-3-3-|
----------------------------------|-----------------------------------|
----------------------------------|-----------------------------------|
----------------------------------|-----------------------------------|
----------------------------------|-----------------------------------|


  S S S S S S S S S S S S S S S S    S S S S S S S S S S S S   S  S  S  S
----------------------------------|---------------------------------------|
--8-7-7-8-7-7-8-7-7-8-7-7-8-7-L-7-|--8-7-7-8-7-7-8-7-7-8-7-7s-12-12-12-12-|
----------------------------------|---------------------------------------|
----------------------------------|---------------------------------------|
----------------------------------|---------------------------------------|
----------------------------------|---------------------------------------|


  S S S S S S S S S S S S S S S S    S S S S S S S S S S S S  S S S S
----------------------------------|-----------------------------------|
--8-7-7-8-7-7-8-7-7-8-7-7-8-7-L-7-|--8-7-7-8-7-7-8-7-7-8-7-7s-3-3-3-3-|
----------------------------------|-----------------------------------|
----------------------------------|-----------------------------------|
----------------------------------|-----------------------------------|
----------------------------------|-----------------------------------|


  H        Q     E   E      H        Q     E  E     S S H        E   E   E
------------------------|------------------------|--------------------------|
----------------12--10--|---L--------L----12--8--|--L-8-------------12--10--|
--9--------L------------|------------------------|------9--------L----------|
------------------------|------------------------|--------------------------|
------------------------|------------------------|--------------------------|
------------------------|------------------------|--------------------------|


  Q     E  E  Q     E  E     S S H        E   E   E
--------------------------|--------------------------|
--L----12--8--L----10--8--|--L-8-------------12--10--|
--------------------------|------9--------L----------|
--------------------------|--------------------------|
--------------------------|--------------------------|
--------------------------|--------------------------|


  Q     E  E  Q     E  E     S S H        E   E   E
--------------------------|--------------------------|
--L----12--8--L----10--8--|--L-8-------------12--10--|
--------------------------|------9--------L----------|
--------------------------|--------------------------|
--------------------------|--------------------------|
--------------------------|--------------------------|


  Q     E  E  Q     E  E     H        Q     E   E      H        Q     E  E
--------------------------|------------------------|------------------------|
--L----12--8--L----10--8--|----------------12--10--|---L--------L----12--8--|
--------------------------|--9--------L------------|------------------------|
--------------------------|------------------------|------------------------|
--------------------------|------------------------|------------------------|
--------------------------|------------------------|------------------------|


  S S H        E   E   E     Q     E  E  Q     E  E
--------------------------|--------------------------|
--L-8-------------12--10--|--L----12--8--L----10--8--|
------9--------L----------|--------------------------|
--------------------------|--------------------------|
--------------------------|--------------------------|
--------------------------|--------------------------|


  S S H        E   E   E     Q     E  E  Q     E  E
--------------------------|--------------------------|
--L-8-------------12--10--|--L----12--8--L----10--8--|
------9--------L----------|--------------------------|
--------------------------|--------------------------|
--------------------------|--------------------------|
--------------------------|--------------------------|


  S S H        E   E   E     Q     E  E  Q    E  E     E  E  H        Q
--------------------------|-------------------------|----------------------||
--L-8-------------12--10--|--L----12--8--L----8-----|----------------------||
------9--------L----------|----------------------9--|--L-------------------||
--------------------------|-------------------------|----------------------||
--------------------------|-------------------------|----------------------||
--------------------------|-------------------------|----------------------||


Guitar 4

Starts at (02:14)

  E  E  Q     E  E  E  E     E  E  E  E  E  E  E  E
-----7--------------------|--------------------------|
--------7b----7-----------|--------------------------|
-----------------9--7-----|--7--9--7--9--7--9--7-----|
-----------------------9--|-----------------------9--|
--------------------------|--------------------------|
--------------------------|--------------------------|


  E  E  Q     E  E  E  E     E  E  E  E  E  E  E  E
-----7--------------------|--------------------------|
--------7b----7-----------|--------------------------|
-----------------9--7-----|--7--9--7--9--7--9--7-----|
-----------------------9--|-----------------------9--|
--------------------------|--------------------------|
--------------------------|--------------------------|


  E  E  Q     E  E  E  E     E  E  E  E  E  E  E  E
-----7--------------------|--------------------------|
--------7b----7-----------|--------------------------|
-----------------9--7-----|--7--9--7--9--7--9--7-----|
-----------------------9--|-----------------------9--|
--------------------------|--------------------------|
--------------------------|--------------------------|


  E  E  Q     E  E  E  E     E  E  E  E  E  E  E  E
-----7--------------------|--------------------------|
--------7b----7-----------|--------------------------|
-----------------9--7-----|--7--9--7--9--7--9--7-----|
-----------------------9--|-----------------------9--|
--------------------------|--------------------------|
--------------------------|--------------------------|


  E  E  Q     E  E  E  E     E  E  E  E  E  E  E  E
-----7--------------------|--------------------------|
--------7b----7-----------|--------------------------|
-----------------9--7-----|--7--9--7--9--7--9--7-----|
-----------------------9--|-----------------------9--|
--------------------------|--------------------------|
--------------------------|--------------------------|


  E  E  Q     E  E  E  E     E  E  E  E  E  E  E  E
-----7--------------------|--------------------------|
--------7b----7-----------|--------------------------|
-----------------9--7-----|--7--9--7--9--7--9--7-----|
-----------------------9--|-----------------------9--|
--------------------------|--------------------------|
--------------------------|--------------------------|


  E  E  Q     E  E  E  E     E  E  E  E  E  E  E  E
-----7--------------------|--------------------------|
--------7b----7-----------|--------------------------|
-----------------9--7-----|--7--9--7--9--7--9--7-----|
-----------------------9--|-----------------------9--|
--------------------------|--------------------------|
--------------------------|--------------------------|


  E  E  Q     E  E  E  E     E  E  E  E  E  E  E  E
-----7--------------------|--------------------------|
--------7b----7-----------|--------------------------|
-----------------9--7-----|--7--9--7--9--7--9--7-----|
-----------------------9--|-----------------------9--|
--------------------------|--------------------------|
--------------------------|--------------------------|


  E  E  Q     E  E  E  E     E  E  E  E  E  E  E  E
-----7--------------------|--------------------------|
--------7b----7-----------|--------------------------|
-----------------9--7-----|--7--9--7--9--7--9--7-----|
-----------------------9--|-----------------------9--|
--------------------------|--------------------------|
--------------------------|--------------------------|


  E  E  Q     E  E  E  E     E  E  E  E  E  E  E  E
-----7--------------------|--------------------------|
--------7b----7-----------|--------------------------|
-----------------9--7-----|--7--9--7--9--7--9--7-----|
-----------------------9--|-----------------------9--|
--------------------------|--------------------------|
--------------------------|--------------------------|


  E  E  Q     E  E  E  E     E  E  E  E  E  E  E  E
-----7--------------------|--------------------------|
--------7b----7-----------|--------------------------|
-----------------9--7-----|--7--9--7--9--7--9--7-----|
-----------------------9--|-----------------------9--|
--------------------------|--------------------------|
--------------------------|--------------------------|


  E  E  Q     E  E  E  E     E  E  E  E  E  E  E  E
-----7--------------------|--------------------------|
--------7b----7-----------|--------------------------|
-----------------9--7-----|--7--9--7--9--7--9--7-----|
-----------------------9--|-----------------------9--|
--------------------------|--------------------------|
--------------------------|--------------------------|


  E  E  Q     E  E  E  E     E  E  E  E  E  E  E  E
-----7--------------------|--------------------------|
--------7b----7-----------|--------------------------|
-----------------9--7-----|--7--9--7--9--7--9--7-----|
-----------------------9--|-----------------------9--|
--------------------------|--------------------------|
--------------------------|--------------------------|


  E  E  Q     E  E  E  E     E  E  E  E  E  E  E  E
-----7--------------------|--------------------------|
--------7b----7-----------|--------------------------|
-----------------9--7-----|--7--9--7--9--7--9--7-----|
-----------------------9--|-----------------------9--|
--------------------------|--------------------------|
--------------------------|--------------------------|


  E  E  Q     E  E  E  E     E  E  E  E  E  E  E  E
-----7--------------------|--------------------------|
--------7b----7-----------|--------------------------|
-----------------9--7-----|--7--9--7--9--7--9--7-----|
-----------------------9--|-----------------------9--|
--------------------------|--------------------------|
--------------------------|--------------------------|


  E  E  Q     E  E  E  E     E  E  E  E  E  E  E  E
-----7--------------------|--------------------------|-----||
--------7b----7-----------|--------------------------|-----||
-----------------9--7-----|--7--9--7--9--7--9--7-----|-----||
-----------------------9--|-----------------------9--|-----||
--------------------------|--------------------------|-----||
--------------------------|--------------------------|-----||


Duration Legend
---------------
W - whole
H - half
Q - quarter
E - 8th
S - 16th
T - 32nd
X - 64th
. - note dotted
|-n-|  - n-tuplets


Tablature Legend
----------------
L - tied note
x - dead note
g - grace note
(n) - ghost note
> - accentuded note
NH - natural harmonic
AH - artificial harmonic
TH - tapped harmonic
SH - semi harmonic
PH - pitch harmonic
h - hammer on
p - pull off
b - bend
br - bendRelease
pb - preBend
pbr - preBendRelease
brb - bendReleaseBend
\n/ - tremolo bar dip
\n - tremolo bar dive
-/n - tremolo bar Release up
/n\ - tremolo bar inverted dip
/n - tremolo bar return
-\n - tremolo bar Release down
S - shift slide
s - legato slide
/ -  slide into from below or out of upwards
\ -  slide into from above or out of downwards
~ - vibrato
W - wide vibrato
tr - trill
TP - tremolo picking
T - tapping
S - slap
P - pop
< - fade in
^ - brush up
v - brush down


That is all! I hope this helped, and be sure to check out my cover if you are
having problems with the tab. Thanks, oh and one last thing... ROCK OUT!!!!
comments
We did not receive enough feedback on this tab! Please rate:
print report bad tab
1 2 3 4 5
I want to post or [tab]
guest
You may want to rate the tab now too:
select rating
Please do not post tabs as comments. Select "correction" instead!