Oops, an error
Loading. Please wait.

Outside Tab

ver2
ver2

Whole song

Interactive

More versions @911Tabs.com
3,695 views 21 this week
no commentswrite comment
1 2 3 4 5
poor
x 2
Autoscroll
+/-
esc
set tempo
stop
Contributor
Difficulty
Tuning
novice
D A D G B E
NEW! There's an official Ultimate Guitar app which is ideal
for learning songs when you're away from computer. Get the app
WARNING: You are trying to view
                                    content from Ultimate-Guitar.com
                                    in an unauthorized application,
                                    which is prohibited.

                                    Please use an official Ultimate
                                    Guitar Tabs application for iPhone,
                                    iPad or Android to access legitimate
                                    chords, guitar, bass, and drum tabs
                                    from Ultimate-Guitar.com database.

                                    Type "ultimate guitar tabs" in Apple
                                    App Store's or Android Market's
                                    search to find the application.
----------------------------------------------------------------------------
                               Outside
                           Hollywood Undead
----------------------------------------------------------------------------

This is definitely the “SCAVA” of this record. Anyone who bought American Tragedy would 
know what I mean. It includes a beautiful introduction, powerful chorus, soft verses. 
Not to mention, it is the last song on the album. Enjoy!

Username: dkm817 (same on X box live)
Youtube Cover: http://www.youtube.com/watch?v=Y78cAJdOM3k
Email: guitardrums@rockfan.com

Guitar 1 Rhythmic (D A D G B E)
Guitar 2 Lead     (D A D G B E)
Guitar 3 Acoustic (E A D G B E)

NOTE: This was exported off of guitar pro.

Guitar 1

Starts at (1:10)

          Q    H        E  E     Q    H        Q       Q    H        E  E
-------|----------------------|---------------------|----------------------|
-------|----------------------|---------------------|----------------------|
-------|----------------------|---------------------|----------------------|
-------|--5----5--------5--5--|--L----5--------L----|--5----5--------5--5--|
-------|--5----5--------5--5--|--L----5--------L----|--5----5--------5--5--|
-------|--5----5--------5--5--|--L----5--------L----|--5----5--------5--5--|


  Q    Q    Q    E  E      Q    H        E  E     Q    H        Q
------------------------|----------------------|---------------------|
------------------------|----------------------|---------------------|
------------------------|----------------------|---------------------|
--L----5----8----L--L\--|--3----3--------3--3--|--L----3--------L----|
--L----5----8----L--L\--|--3----3--------3--3--|--L----3--------L----|
--L----5----8----L--L\--|--3----3--------3--3--|--L----3--------L----|


  Q    H        E  E     W                   W
----------------------|-------------------|-------------------|
----------------------|-------------------|-------------------|
----------------------|-------------------|-------------------|
--3----3--------3--3--|--0----------------|--5----------------|
--3----3--------3--3--|--0----------------|--5----------------|
--3----3--------3--3--|--0----------------|--5----------------|


                      PM   PM        PM PM         PM
  W                   Q    Q    Q    E  E     Q    Q    Q    E  E
-------------------|-----------------------|------------------------|
-------------------|-----------------------|------------------------|
-------------------|-----------------------|------------------------|
--L----------------|--5----5---------5--5--|--L----5----------------|
--L----------------|--5----5---------5--5--|--L----5----------------|
--L----------------|--5----5---------5--5--|--L----5----8----L--L\--|


  PM   PM        PM PM         PM               PM   PM        PM PM
  Q    Q    Q    E  E     Q    Q    H           Q    Q    Q    E  E
-----------------------|---------------------|-----------------------|
-----------------------|---------------------|-----------------------|
-----------------------|---------------------|-----------------------|
--3----3---------3--3--|--L----3-------------|--3----3---------3--0--|
--3----3---------3--3--|--L----3-------------|--3----3---------3--0--|
--3----3---------3--3--|--L----3-------------|--3----3---------3--0--|


       PM               PM   PM        PM PM         PM
  Q    Q    H           Q    Q    Q    E  E     Q    Q    H
---------------------|-----------------------|---------------------|
---------------------|-----------------------|---------------------|
---------------------|-----------------------|---------------------|
--L----0-------------|--5----5---------5--5--|--L----5-------------|
--L----0-------------|--5----5---------5--5--|--L----5-------------|
--L----0-------------|--5----5---------5--5--|--L----5-------------|


  PM   PM        PM PM         PM                  PM   PM        PM PM
  Q    Q    Q    E  E     Q    Q    Q    E  E      Q    Q    Q    E  E
-----------------------|------------------------|-----------------------|
-----------------------|------------------------|-----------------------|
-----------------------|------------------------|-----------------------|
--5----5---------5--5--|--L----5----------------|--3----3---------3--3--|
--5----5---------5--5--|--L----5----------------|--3----3---------3--3--|
--5----5---------5--5--|--L----5----8----L--L\--|--3----3---------3--3--|


       PM               PM   PM        PM PM         PM
  Q    Q    H           Q    Q    Q    E  E     Q    Q    H
---------------------|-----------------------|---------------------|
---------------------|-----------------------|---------------------|
---------------------|-----------------------|---------------------|
--L----3-------------|--3----3---------3--0--|--L----0-------------|
--L----3-------------|--3----3---------3--0--|--L----0-------------|
--L----3-------------|--3----3---------3--0--|--L----0-------------|


  PM PM PM PM PM PM PM PM       PM PM PM PM PM PM PM
  E  E  E  E  E  E  E  E     E  E  E  E  E  E  E  E
--------------------------|--------------------------|
--------------------------|--------------------------|
--------------5-----------|--------------5-----------|
--5--5--7--8-----8--7--5--|-----5--7--8-----8--7--5--|
--------------------------|--------------------------|
--------------------------|--------------------------|


  PM PM PM PM PM PM PM PM       PM PM PM PM PM PM PM
  E  E  E  E  E  E  E  E     E  E  E  E  E  E  E  E
--------------------------|--------------------------|
--------------------------|--------------------------|
--------------5-----------|--------------5-----------|
--5--5--7--8-----8--7--5--|-----5--7--8-----8--7--5--|
--------------------------|--------------------------|
--------------------------|--------------------------|


  PM PM PM PM PM PM PM PM       PM PM PM PM PM PM PM
  E  E  E  E  E  E  E  E     E  E  E  E  E  E  E  E
--------------------------|--------------------------|
--------------------------|--------------------------|
-----------3--5--3--------|-----------3--5--3--------|
--3--3--7-----------7--3--|-----3--7-----------7--3--|
--------------------------|--------------------------|
--------------------------|--------------------------|


  PM PM PM PM PM PM PM PM    PM   PM
  E  E  E  E  E  E  E  E     Q    Q    H           Q    H        E  E
--------------------------|---------------------|----------------------|
--------------------------|---------------------|----------------------|
-----------3--5--3--------|---------------------|----------------------|
--3--3--7-----------7--3--|--0----0-------------|--5----5--------5--5--|
--------------------------|--0----0-------------|--5----5--------5--5--|
--------------------------|--0----0-------------|--5----5--------5--5--|


  Q    H        Q       Q    H        E  E     Q    Q    Q    E  E
---------------------|----------------------|------------------------|
---------------------|----------------------|------------------------|
---------------------|----------------------|------------------------|
--L----5--------L----|--5----5--------5--5--|--L----5----8----L--L\--|
--L----5--------L----|--5----5--------5--5--|--L----5----8----L--L\--|
--L----5--------L----|--5----5--------5--5--|--L----5----8----L--L\--|


  Q    H        E  E     Q    H        Q       Q    H        E  E
----------------------|---------------------|----------------------|
----------------------|---------------------|----------------------|
----------------------|---------------------|----------------------|
--3----3--------3--3--|--L----3--------L----|--3----3--------3--3--|
--3----3--------3--3--|--L----3--------L----|--3----3--------3--3--|
--3----3--------3--3--|--L----3--------L----|--3----3--------3--3--|


  W                   Q    H        E  E     Q    H        Q
-------------------|----------------------|---------------------|
-------------------|----------------------|---------------------|
-------------------|----------------------|---------------------|
--0----------------|--5----5--------5--5--|--L----5--------L----|
--0----------------|--5----5--------5--5--|--L----5--------L----|
--0----------------|--5----5--------5--5--|--L----5--------L----|


  Q    H        E  E     Q    Q    Q    E  E      Q    H        E  E
----------------------|------------------------|----------------------|
----------------------|------------------------|----------------------|
----------------------|------------------------|----------------------|
--5----5--------5--5--|--L----5----8----L--L\--|--3----3--------3--3--|
--5----5--------5--5--|--L----5----8----L--L\--|--3----3--------3--3--|
--5----5--------5--5--|--L----5----8----L--L\--|--3----3--------3--3--|


  Q    H        Q       Q    H        E  E     W
---------------------|----------------------|-------------------|
---------------------|----------------------|-------------------|
---------------------|----------------------|-------------------|
--L----3--------L----|--3----3--------3--3--|--0----------------|
--L----3--------L----|--3----3--------3--3--|--0----------------|
--L----3--------L----|--3----3--------3--3--|--0----------------|


                                          PM   PM        PM PM
  W                   W                   Q    Q    Q    E  E
-------------------|-------------------|-----------------------|
-------------------|-------------------|-----------------------|
-------------------|-------------------|-----------------------|
--5----------------|--L----------------|--5----5---------5--5--|
--5----------------|--L----------------|--5----5---------5--5--|
--5----------------|--L----------------|--5----5---------5--5--|


       PM                  PM   PM        PM PM         PM
  Q    Q    Q    E  E      Q    Q    Q    E  E     Q    Q    H
------------------------|-----------------------|---------------------|
------------------------|-----------------------|---------------------|
------------------------|-----------------------|---------------------|
--L----5----------------|--3----3---------3--3--|--L----3-------------|
--L----5----------------|--3----3---------3--3--|--L----3-------------|
--L----5----8----L--L\--|--3----3---------3--3--|--L----3-------------|


  PM   PM        PM PM         PM               PM   PM        PM PM
  Q    Q    Q    E  E     Q    Q    H           Q    Q    Q    E  E
-----------------------|---------------------|-----------------------|
-----------------------|---------------------|-----------------------|
-----------------------|---------------------|-----------------------|
--3----3---------3--0--|--L----0-------------|--5----5---------5--5--|
--3----3---------3--0--|--L----0-------------|--5----5---------5--5--|
--3----3---------3--0--|--L----0-------------|--5----5---------5--5--|


       PM               PM   PM        PM PM         PM
  Q    Q    H           Q    Q    Q    E  E     Q    Q    Q    E  E
---------------------|-----------------------|------------------------|
---------------------|-----------------------|------------------------|
---------------------|-----------------------|------------------------|
--L----5-------------|--5----5---------5--5--|--L----5----------------|
--L----5-------------|--5----5---------5--5--|--L----5----------------|
--L----5-------------|--5----5---------5--5--|--L----5----8----L--L\--|


  PM   PM        PM PM         PM               PM   PM        PM PM
  Q    Q    Q    E  E     Q    Q    H           Q    Q    Q    E  E
-----------------------|---------------------|-----------------------|
-----------------------|---------------------|-----------------------|
-----------------------|---------------------|-----------------------|
--3----3---------3--3--|--L----3-------------|--3----3---------3--0--|
--3----3---------3--3--|--L----3-------------|--3----3---------3--0--|
--3----3---------3--3--|--L----3-------------|--3----3---------3--0--|


       PM               PM PM PM PM PM PM PM PM       PM PM PM PM PM PM PM
  Q    Q    H           E  E  E  E  E  E  E  E     E  E  E  E  E  E  E  E
---------------------|--------------------------|--------------------------|
---------------------|--------------------------|--------------------------|
---------------------|--------------5-----------|--------------5-----------|
--L----0-------------|--5--5--7--8-----8--7--5--|-----5--7--8-----8--7--5--|
--L----0-------------|--------------------------|--------------------------|
--L----0-------------|--------------------------|--------------------------|


  PM PM PM PM PM PM PM PM       PM PM PM PM PM PM PM
  E  E  E  E  E  E  E  E     E  E  E  E  E  E  E  E
--------------------------|--------------------------|
--------------------------|--------------------------|
--------------5-----------|--------------5-----------|
--5--5--7--8-----8--7--5--|-----5--7--8-----8--7--5--|
--------------------------|--------------------------|
--------------------------|--------------------------|


  PM PM PM PM PM PM PM PM       PM PM PM PM PM PM PM    PM   PM        PM PM
  E  E  E  E  E  E  E  E     E  E  E  E  E  E  E  E     Q    Q    Q    E  E
--------------------------|--------------------------|-----------------------|
--------------------------|--------------------------|-----------------------|
-----------3--5--3--------|-----------3--5--3--------|-----------------------|
--3--3--7-----------7--3--|-----3--7-----------7--3--|--3----3---------3--0--|
--------------------------|--------------------------|--3----3---------3--0--|
--------------------------|--------------------------|--3----3---------3--0--|


       PM
  Q    Q    H           Q    H        E  E     Q    H        Q
---------------------|----------------------|---------------------|
---------------------|----------------------|---------------------|
---------------------|----------------------|---------------------|
--L----0-------------|--5----5--------5--5--|--L----5--------L----|
--L----0-------------|--5----5--------5--5--|--L----5--------L----|
--L----0-------------|--5----5--------5--5--|--L----5--------L----|


  Q    H        E  E     Q    Q    Q    E  E      Q    H        E  E
----------------------|------------------------|----------------------|
----------------------|------------------------|----------------------|
----------------------|------------------------|----------------------|
--5----5--------5--5--|--L----5----8----L--L\--|--3----3--------3--3--|
--5----5--------5--5--|--L----5----8----L--L\--|--3----3--------3--3--|
--5----5--------5--5--|--L----5----8----L--L\--|--3----3--------3--3--|


  Q    H        Q       Q    H        E  E     W
---------------------|----------------------|-------------------|
---------------------|----------------------|-------------------|
---------------------|----------------------|-------------------|
--L----3--------L----|--3----3--------3--3--|--0----------------|
--L----3--------L----|--3----3--------3--3--|--0----------------|
--L----3--------L----|--3----3--------3--3--|--0----------------|


  Q    H        E  E     Q    H        Q       Q    H        E  E
----------------------|---------------------|----------------------|
----------------------|---------------------|----------------------|
----------------------|---------------------|----------------------|
--5----5--------5--5--|--L----5--------L----|--5----5--------5--5--|
--5----5--------5--5--|--L----5--------L----|--5----5--------5--5--|
--5----5--------5--5--|--L----5--------L----|--5----5--------5--5--|


  Q    Q    Q    E  E      Q    H        E  E     Q    H        Q
------------------------|----------------------|---------------------|
------------------------|----------------------|---------------------|
------------------------|----------------------|---------------------|
--L----5----8----L--L\--|--3----3--------3--3--|--L----3--------L----|
--L----5----8----L--L\--|--3----3--------3--3--|--L----3--------L----|
--L----5----8----L--L\--|--3----3--------3--3--|--L----3--------L----|


  Q    H        E  E     W                   W
----------------------|-------------------|-------------------|
----------------------|-------------------|-------------------|
----------------------|-------------------|-------------------|
--3----3--------3--3--|--0----------------|--5----------------|
--3----3--------3--3--|--0----------------|--5----------------|
--3----3--------3--3--|--0----------------|--5----------------|


  W                   W                   W
-------------------|-------------------|-------------------|-------|-------|
-------------------|-------------------|-------------------|-------|-------|
-------------------|-------------------|-------------------|-------|-------|
--L----------------|--L----------------|--L----------------|-------|-------|
--L----------------|--L----------------|--L----------------|-------|-------|
--L----------------|--L----------------|--L----------------|-------|-------|


Guitar 2

Starts at (0:42)

                                          Q    E  Q    E  E  E
-------|-------|-------|-------|-------|--3---------------3-----|
-------|-------|-------|-------|-------|----------3-------------|
-------|-------|-------|-------|-------|------------------------|
-------|-------|-------|-------|-------|-------0-------0-----0--|
-------|-------|-------|-------|-------|------------------------|
-------|-------|-------|-------|-------|------------------------|


  Q    E  Q    E  E  E     Q    E  Q    E  E  E     Q    E  Q    E  E  E
--3---------------3-----|--6---------------6-----|--6---------------6-----|
----------3-------------|----------8-------------|----------8-------------|
------------------------|-------0-------0-----0--|-------0-------0-----0--|
-------0-------0-----0--|------------------------|------------------------|
------------------------|------------------------|------------------------|
------------------------|------------------------|------------------------|


  Q    E  Q    E  E  E     Q    E  Q    E  E  E     Q    E  Q    E  E  E
--5---------------5-----|--5---------------5-----|--5---------------5-----|
----------6-------------|----------6-------------|----------6-------------|
-------5-------5-----5--|-------5-------5-----5--|-------5-------5-----5--|
------------------------|------------------------|------------------------|
------------------------|------------------------|------------------------|
------------------------|------------------------|------------------------|


  Q    E  Q    E  E  E     Q    E  Q    E  E  E     Q    E  Q    E  E  E
--5-------5-------5-----|--3---------------3-----|--3---------------3-----|
------------------------|----------3-------------|----------3-------------|
-------5-------5-----5--|------------------------|------------------------|
------------------------|-------0-------0-----0--|-------0-------0-----0--|
------------------------|------------------------|------------------------|
------------------------|------------------------|------------------------|


  Q    E  Q    E  E  E     Q    E  Q    E  E  E     Q    E  Q    E  E  E
--6---------------6-----|--6---------------6-----|--5---------------5-----|
----------8-------------|----------8-------------|----------6-------------|
-------0-------0-----0--|-------0-------0-----0--|-------5-------5-----5--|
------------------------|------------------------|------------------------|
------------------------|------------------------|------------------------|
------------------------|------------------------|------------------------|


  Q    E  Q    E  E  E     Q    E  Q    E  E  E           Q    Q    Q    Q
--5---------------5-----|--5---------------5-----|-----|--3-------------------|
----------6-------------|----------6-------------|-----|-------3---------3----|
-------5-------5-----5--|-------5-------5-----5--|-----|----------------------|
------------------------|------------------------|-----|------------0---------|
------------------------|------------------------|-----|----------------------|
------------------------|------------------------|-----|----------------------|


  Q    Q    Q    Q       Q    Q    Q    Q       Q    Q    Q    Q
--3--------------3----|--6-------------------|--6--------------6----|
-------3--------------|-------8---------8----|-------8--------------|
----------------------|------------0---------|------------0---------|
------------0---------|----------------------|----------------------|
----------------------|----------------------|----------------------|
----------------------|----------------------|----------------------|


  Q    Q    Q    Q       Q    Q    Q    Q       Q    Q    Q    Q
--5-------------------|--5--------------5----|--5-------------------|
-------6---------6----|-------6--------------|-------6---------6----|
------------5---------|------------5---------|------------5---------|
----------------------|----------------------|----------------------|
----------------------|----------------------|----------------------|
----------------------|----------------------|----------------------|


  Q    Q    Q    Q       Q    E  Q    E  E  E     Q    E  Q    E  E  E
--5--------------5----|--3---------------3-----|--3---------------3-----|
-------6--------------|----------3-------------|----------3-------------|
------------5---------|------------------------|------------------------|
----------------------|-------0-------0-----0--|-------0-------0-----0--|
----------------------|------------------------|------------------------|
----------------------|------------------------|------------------------|


  Q    E  Q    E  E  E     Q    E  Q    E  E  E     Q    E  Q    E  E  E
--6---------------6-----|--6---------------6-----|--5---------------5-----|
----------8-------------|----------8-------------|----------6-------------|
-------0-------0-----0--|-------0-------0-----0--|-------5-------5-----5--|
------------------------|------------------------|------------------------|
------------------------|------------------------|------------------------|
------------------------|------------------------|------------------------|


  Q    E  Q    E  E  E     Q    E  Q    E  E  E     Q    E  Q    E  E  E
--5---------------5-----|--5---------------5-----|--5-------5-------5-----|
----------6-------------|----------6-------------|------------------------|
-------5-------5-----5--|-------5-------5-----5--|-------5-------5-----5--|
------------------------|------------------------|------------------------|
------------------------|------------------------|------------------------|
------------------------|------------------------|------------------------|


  Q    E  Q    E  E  E     Q    E  Q    E  E  E     Q    E  Q    E  E  E
--3---------------3-----|--3---------------3-----|--6---------------6-----|
----------3-------------|----------3-------------|----------8-------------|
------------------------|------------------------|-------0-------0-----0--|
-------0-------0-----0--|-------0-------0-----0--|------------------------|
------------------------|------------------------|------------------------|
------------------------|------------------------|------------------------|


  Q    E  Q    E  E  E     Q    E  Q    E  E  E     Q    E  Q    E  E  E
--6---------------6-----|--5---------------5-----|--5---------------5-----|
----------8-------------|----------6-------------|----------6-------------|
-------0-------0-----0--|-------5-------5-----5--|-------5-------5-----5--|
------------------------|------------------------|------------------------|
------------------------|------------------------|------------------------|
------------------------|------------------------|------------------------|


  Q    E  Q    E  E  E     Q    E  Q    E  E  E     Q    E  Q    E  E  E
--5---------------5-----|--5-------5-------5-----|--3---------------3-----|
----------6-------------|------------------------|----------3-------------|
-------5-------5-----5--|-------5-------5-----5--|------------------------|
------------------------|------------------------|-------0-------0-----0--|
------------------------|------------------------|------------------------|
------------------------|------------------------|------------------------|


  Q    E  Q    E  E  E     Q    E  Q    E  E  E     Q    E  Q    E  E  E
--3---------------3-----|--6---------------6-----|--6---------------6-----|
----------3-------------|----------8-------------|----------8-------------|
------------------------|-------0-------0-----0--|-------0-------0-----0--|
-------0-------0-----0--|------------------------|------------------------|
------------------------|------------------------|------------------------|
------------------------|------------------------|------------------------|


  Q    E  Q    E  E  E     Q    E  Q    E  E  E     Q    E  Q    E  E  E
--5---------------5-----|--5---------------5-----|--5---------------5-----|
----------6-------------|----------6-------------|----------6-------------|
-------5-------5-----5--|-------5-------5-----5--|-------5-------5-----5--|
------------------------|------------------------|------------------------|
------------------------|------------------------|------------------------|
------------------------|------------------------|------------------------|


        Q    Q    Q    Q       Q    Q    Q    Q       Q    Q    Q    Q
-----|--3-------------------|--3--------------3----|--6-------------------|
-----|-------3---------3----|-------3--------------|-------8---------8----|
-----|----------------------|----------------------|------------0---------|
-----|------------0---------|------------0---------|----------------------|
-----|----------------------|----------------------|----------------------|
-----|----------------------|----------------------|----------------------|


  Q    Q    Q    Q       Q    Q    Q    Q       Q    Q    Q    Q
--6--------------6----|--5-------------------|--5--------------5----|
-------8--------------|-------6---------6----|-------6--------------|
------------0---------|------------5---------|------------5---------|
----------------------|----------------------|----------------------|
----------------------|----------------------|----------------------|
----------------------|----------------------|----------------------|


  Q    Q    Q    Q       Q    Q    Q    Q       Q    Q    Q    Q
--5-------------------|--5--------------5----|--3-------------------|
-------6---------6----|-------6--------------|-------3---------3----|
------------5---------|------------5---------|----------------------|
----------------------|----------------------|------------0---------|
----------------------|----------------------|----------------------|
----------------------|----------------------|----------------------|


  Q    Q    Q    Q       Q    Q    Q    Q       Q    Q    Q    Q
--3--------------3----|--6-------------------|--6--------------6----|
-------3--------------|-------8---------8----|-------8--------------|
----------------------|------------0---------|------------0---------|
------------0---------|----------------------|----------------------|
----------------------|----------------------|----------------------|
----------------------|----------------------|----------------------|


  Q    Q    Q    Q       Q    Q    Q    Q       Q    Q    Q    Q
--5-------------------|--5--------------5----|--5-------------------|
-------6---------6----|-------6--------------|-------6---------6----|
------------5---------|------------5---------|------------5---------|
----------------------|----------------------|----------------------|
----------------------|----------------------|----------------------|
----------------------|----------------------|----------------------|


  Q    Q    Q    Q       Q    E  Q    E  E  E     Q    E  Q    E  E  E
--5--------------5----|--3---------------3-----|--3---------------3-----|
-------6--------------|----------3-------------|----------3-------------|
------------5---------|------------------------|------------------------|
----------------------|-------0-------0-----0--|-------0-------0-----0--|
----------------------|------------------------|------------------------|
----------------------|------------------------|------------------------|


  Q    E  Q    E  E  E     Q    E  Q    E  E  E     Q    E  Q    E  E  E
--6---------------6-----|--6---------------6-----|--5---------------5-----|
----------8-------------|----------8-------------|----------6-------------|
-------0-------0-----0--|-------0-------0-----0--|-------5-------5-----5--|
------------------------|------------------------|------------------------|
------------------------|------------------------|------------------------|
------------------------|------------------------|------------------------|


  Q    E  Q    E  E  E     Q    E  Q    E  E  E     Q    E  Q    E  E  E
--5---------------5-----|--5---------------5-----|--5-------5-------5-----|
----------6-------------|----------6-------------|------------------------|
-------5-------5-----5--|-------5-------5-----5--|-------5-------5-----5--|
------------------------|------------------------|------------------------|
------------------------|------------------------|------------------------|
------------------------|------------------------|------------------------|


  Q    E  Q    E  E  E     Q    E  Q    E  E  E     Q    E  Q    E  E  E
--3---------------3-----|--3---------------3-----|--6---------------6-----|
----------3-------------|----------3-------------|----------8-------------|
------------------------|------------------------|-------0-------0-----0--|
-------0-------0-----0--|-------0-------0-----0--|------------------------|
------------------------|------------------------|------------------------|
------------------------|------------------------|------------------------|


  Q    E  Q    E  E  E     Q    E  Q    E  E  E     Q    E  Q    E  E  E
--6---------------6-----|--5---------------5-----|--5---------------5-----|
----------8-------------|----------6-------------|----------6-------------|
-------0-------0-----0--|-------5-------5-----5--|-------5-------5-----5--|
------------------------|------------------------|------------------------|
------------------------|------------------------|------------------------|
------------------------|------------------------|------------------------|


  Q    E  Q    E  E  E     Q    E  Q    E  E  E     Q    E  Q    E  E  E
--5---------------5-----|--5-------5-------5-----|--3---------------3-----|
----------6-------------|------------------------|----------3-------------|
-------5-------5-----5--|-------5-------5-----5--|------------------------|
------------------------|------------------------|-------0-------0-----0--|
------------------------|------------------------|------------------------|
------------------------|------------------------|------------------------|


  Q    E  Q    E  E  E     Q    E  Q    E  E  E     Q    E  Q    E  E  E
--3---------------3-----|--6---------------6-----|--6---------------6-----|
----------3-------------|----------8-------------|----------8-------------|
------------------------|-------0-------0-----0--|-------0-------0-----0--|
-------0-------0-----0--|------------------------|------------------------|
------------------------|------------------------|------------------------|
------------------------|------------------------|------------------------|


  Q    E  Q    E  E  E     Q    E  Q    E  E  E
--5---------------5-----|--5---------------5-----|-----|-----|
----------6-------------|----------6-------------|-----|-----|
-------5-------5-----5--|-------5-------5-----5--|-----|-----|
------------------------|------------------------|-----|-----|
------------------------|------------------------|-----|-----|
------------------------|------------------------|-----|-----|


  Q    Q    Q    Q       Q    Q    Q    Q       Q    Q    Q    Q
--3-------------------|--3--------------3----|--6-------------------|
-------3---------3----|-------3--------------|-------8---------8----|
----------------------|----------------------|------------0---------|
------------0---------|------------0---------|----------------------|
----------------------|----------------------|----------------------|
----------------------|----------------------|----------------------|


  Q    Q    Q    Q       Q    Q    Q    Q       Q    Q    Q    Q
--6--------------6----|--5-------------------|--5--------------5----|
-------8--------------|-------6---------6----|-------6--------------|
------------0---------|------------5---------|------------5---------|
----------------------|----------------------|----------------------|
----------------------|----------------------|----------------------|
----------------------|----------------------|----------------------|


  Q    Q    Q    Q       Q    Q    Q    Q       Q    Q    Q    Q
--5-------------------|--5--------------5----|--3-------------------|
-------6---------6----|-------6--------------|-------3---------3----|
------------5---------|------------5---------|----------------------|
----------------------|----------------------|------------0---------|
----------------------|----------------------|----------------------|
----------------------|----------------------|----------------------|


  Q    Q    Q    Q       Q    Q    Q    Q       Q    Q    Q    Q
--3--------------3----|--6-------------------|--6--------------6----|
-------3--------------|-------8---------8----|-------8--------------|
----------------------|------------0---------|------------0---------|
------------0---------|----------------------|----------------------|
----------------------|----------------------|----------------------|
----------------------|----------------------|----------------------|


  Q    Q    Q    Q       Q    Q    Q    Q       Q    Q    Q    Q
--5-------------------|--5--------------5----|--5-------------------|
-------6---------6----|-------6--------------|-------6---------6----|
------------5---------|------------5---------|------------5---------|
----------------------|----------------------|----------------------|
----------------------|----------------------|----------------------|
----------------------|----------------------|----------------------|


  Q    Q    Q    Q       Q    E  Q    E  E  E     Q    E  Q    E  E  E
--5--------------5----|--3---------------3-----|--3---------------3-----|
-------6--------------|----------3-------------|----------3-------------|
------------5---------|------------------------|------------------------|
----------------------|-------0-------0-----0--|-------0-------0-----0--|
----------------------|------------------------|------------------------|
----------------------|------------------------|------------------------|


  Q    E  Q    E  E  E     Q    E  Q    E  E  E     Q    E  Q    E  E  E
--6---------------6-----|--6---------------6-----|--5---------------5-----|
----------8-------------|----------8-------------|----------6-------------|
-------0-------0-----0--|-------0-------0-----0--|-------5-------5-----5--|
------------------------|------------------------|------------------------|
------------------------|------------------------|------------------------|
------------------------|------------------------|------------------------|


  Q    E  Q    E  E  E     Q    E  Q    E  E  E     Q    E  Q    E  E  E
--5---------------5-----|--5---------------5-----|--5-------5-------5-----|
----------6-------------|----------6-------------|------------------------|
-------5-------5-----5--|-------5-------5-----5--|-------5-------5-----5--|
------------------------|------------------------|------------------------|
------------------------|------------------------|------------------------|
------------------------|------------------------|------------------------|


  Q    E  Q    E  E  E     Q    E  Q    E  E  E     Q    E  Q    E  E  E
--3---------------3-----|--3---------------3-----|--6---------------6-----|
----------3-------------|----------3-------------|----------8-------------|
------------------------|------------------------|-------0-------0-----0--|
-------0-------0-----0--|-------0-------0-----0--|------------------------|
------------------------|------------------------|------------------------|
------------------------|------------------------|------------------------|


  Q    E  Q    E  E  E     Q    E  Q    E  E  E     Q    E  Q    E  E  E
--6---------------6-----|--5---------------5-----|--5---------------5-----|
----------8-------------|----------6-------------|----------6-------------|
-------0-------0-----0--|-------5-------5-----5--|-------5-------5-----5--|
------------------------|------------------------|------------------------|
------------------------|------------------------|------------------------|
------------------------|------------------------|------------------------|


  Q    E  Q    E  E  E     Q    E  Q    E  E  E     Q    E  Q    E  E  E
--5---------------5-----|--5-------5-------5-----|--3---------------3-----|
----------6-------------|------------------------|----------3-------------|
-------5-------5-----5--|-------5-------5-----5--|------------------------|
------------------------|------------------------|-------0-------0-----0--|
------------------------|------------------------|------------------------|
------------------------|------------------------|------------------------|


  Q    E  Q    E  E  E     Q    E  Q    E  E  E     Q    E  Q    E  E  E
--3---------------3-----|--6---------------6-----|--6---------------6-----|
----------3-------------|----------8-------------|----------8-------------|
------------------------|-------0-------0-----0--|-------0-------0-----0--|
-------0-------0-----0--|------------------------|------------------------|
------------------------|------------------------|------------------------|
------------------------|------------------------|------------------------|


  Q    E  Q    E  E  E     Q    E  Q    E  E  E     Q    E  Q    E  E  E
--5---------------5-----|--5---------------5-----|--5---------------5-----|
----------6-------------|----------6-------------|----------6-------------|
-------5-------5-----5--|-------5-------5-----5--|-------5-------5-----5--|
------------------------|------------------------|------------------------|
------------------------|------------------------|------------------------|
------------------------|------------------------|------------------------|


  Q    E  Q    E  E  E     W                   W
--5-------5-------5-----|--3----------------|--L----------------|
------------------------|--3----------------|--L----------------|
-------5-------5-----5--|--0----------------|--L----------------|
------------------------|--0----------------|--L----------------|
------------------------|-------------------|-------------------|
------------------------|-------------------|-------------------|


  W                   W
--L----------------|--L----------------|-----|-----|-----|-----||
--L----------------|--L----------------|-----|-----|-----|-----||
--L----------------|--L----------------|-----|-----|-----|-----||
--L----------------|--L----------------|-----|-----|-----|-----||
-------------------|-------------------|-----|-----|-----|-----||
-------------------|-------------------|-----|-----|-----|-----||


Guitar 3

     E  E  E  E  E  E  E  E     E  E  E  E  E  E  E  E
E||--------------------------|--------------------------|
B||--------------------------|--------------------------|
G||--0-----------------0-----|--0-----------------0-----|
D||-----------0--------------|-----------0--------------|
A||--------------------------|--------------------------|
E||-----3--3-----3--3-----3--|-----3--3-----3--3-----3--|


  E  E  E  E  E  E  E  E     E  E  E  E  E  E  E  E
--------------------------|--------------------------|
--------------------------|--------------------------|
--3-----------------3-----|--3-----------------3-----|
-----------5--------------|-----------5--------------|
-----5--5-----5--5-----5--|-----5--5-----5--5-----5--|
--------------------------|--------------------------|


  E  E  E  E  E  E  E  E     E  E  E  E  E  E  E  E
--------------------------|--------------------------|
--------------------------|--------------------------|
--2-----------------2-----|--2-----------------2-----|
-----------3--------------|-----------3--------------|
-----3--3-----3--3-----3--|-----3--3-----3--3-----3--|
--------------------------|--------------------------|


  E  E  E  E  E  E  E  E     E  E  E  E  E  E  E  E
--------------------------|--------------------------|
--------------------------|--------------------------|
--2-----------------2-----|--2--------2--------2-----|
-----------3--------------|--------------------------|
-----3--3-----3--3-----3--|-----3--3-----3--3-----3--|
--------------------------|--------------------------|


  E  E  E  E  E  E  E  E     E  E  E  E  E  E  E  E
--------------------------|--------------------------|
--------------------------|--------------------------|
--0-----------------0-----|--0-----------------0-----|
-----------0--------------|-----------0--------------|
--------------------------|--------------------------|
-----3--3-----3--3-----3--|-----3--3-----3--3-----3--|


  E  E  E  E  E  E  E  E     E  E  E  E  E  E  E  E
--------------------------|--------------------------|
--------------------------|--------------------------|
--3-----------------3-----|--3-----------------3-----|
-----------5--------------|-----------5--------------|
-----5--5-----5--5-----5--|-----5--5-----5--5-----5--|
--------------------------|--------------------------|


  E  E  E  E  E  E  E  E     E  E  E  E  E  E  E  E
--------------------------|--------------------------|
--------------------------|--------------------------|
--2-----------------2-----|--2-----------------2-----|
-----------3--------------|-----------3--------------|
-----3--3-----3--3-----3--|-----3--3-----3--3-----3--|
--------------------------|--------------------------|


  E  E  E  E  E  E  E  E     E  E  E  E  E  E  E  E
--------------------------|--------------------------|
--------------------------|--------------------------|
--2-----------------2-----|--2--------2--------2-----|
-----------3--------------|--------------------------|
-----3--3-----3--3-----3--|-----3--3-----3--3-----3--|
--------------------------|--------------------------|


  E  E  E  E  E  E  E  E     E  E  E  E  E  E  E  E
--------------------------|--------------------------|
--------------------------|--------------------------|
--0-----------------0-----|--0-----------------0-----|
-----------0--------------|-----------0--------------|
--------------------------|--------------------------|
-----3--3-----3--3-----3--|-----3--3-----3--3-----3--|


  E  E  E  E  E  E  E  E     E  E  E  E  E  E  E  E
--------------------------|--------------------------|
--------------------------|--------------------------|
--3-----------------3-----|--3-----------------3-----|
-----------5--------------|-----------5--------------|
-----5--5-----5--5-----5--|-----5--5-----5--5-----5--|
--------------------------|--------------------------|


  E  E  E  E  E  E  E  E     E  E  E  E  E  E  E  E
--------------------------|--------------------------|
--------------------------|--------------------------|
--2-----------------2-----|--2-----------------2-----|
-----------3--------------|-----------3--------------|
-----3--3-----3--3-----3--|-----3--3-----3--3-----3--|
--------------------------|--------------------------|


  E  E  E  E  E  E  E  E     E  E  E  E  E  E  E  E
--------------------------|--------------------------|
--------------------------|--------------------------|
--2-----------------2-----|--2--------2--------2-----|
-----------3--------------|--------------------------|
-----3--3-----3--3-----3--|-----3--3-----3--3-----3--|
--------------------------|--------------------------|


  E  E  E  E  E  E  E  E     E  E  E  E  E  E  E  E
--------------------------|--------------------------|
--------------------------|--------------------------|
--0-----------------0-----|--0-----------------0-----|
-----------0--------------|-----------0--------------|
--------------------------|--------------------------|
-----3--3-----3--3-----3--|-----3--3-----3--3-----3--|


  E  E  E  E  E  E  E  E     E  E  E  E  E  E  E  E
--------------------------|--------------------------|
--------------------------|--------------------------|
--3-----------------3-----|--3-----------------3-----|
-----------5--------------|-----------5--------------|
-----5--5-----5--5-----5--|-----5--5-----5--5-----5--|
--------------------------|--------------------------|


  E  E  E  E  E  E  E  E     E  E  E  E  E  E  E  E
--------------------------|--------------------------|
--------------------------|--------------------------|
--2-----------------2-----|--2-----------------2-----|
-----------3--------------|-----------3--------------|
-----3--3-----3--3-----3--|-----3--3-----3--3-----3--|
--------------------------|--------------------------|


  E  E  E  E  E  E  E  E     E  E  E  E  E  E  E  E
--------------------------|--------------------------|
--------------------------|--------------------------|
--2-----------------2-----|--2--------2--------2-----|
-----------3--------------|--------------------------|
-----3--3-----3--3-----3--|-----3--3-----3--3-----3--|
--------------------------|--------------------------|


  E  E  E  E  E  E  E  E     E  E  E  E  E  E  E  E
--------------------------|--------------------------|
--------------------------|--------------------------|
--0-----------------0-----|--0-----------------0-----|
-----------0--------------|-----------0--------------|
--------------------------|--------------------------|
-----3--3-----3--3-----3--|-----3--3-----3--3-----3--|


  E  E  E  E  E  E  E  E     E  E  E  E  E  E  E  E
--------------------------|--------------------------|
--------------------------|--------------------------|
--3-----------------3-----|--3-----------------3-----|
-----------5--------------|-----------5--------------|
-----5--5-----5--5-----5--|-----5--5-----5--5-----5--|
--------------------------|--------------------------|


  E  E  E  E  E  E  E  E     E  E  E  E  E  E  E  E
--------------------------|--------------------------|
--------------------------|--------------------------|
--2-----------------2-----|--2-----------------2-----|
-----------3--------------|-----------3--------------|
-----3--3-----3--3-----3--|-----3--3-----3--3-----3--|
--------------------------|--------------------------|


  E  E  E  E  E  E  E  E           Q    H        E  E     Q    H        Q
--------------------------|-----|--3----3--------3--3--|--L----3--------L----|
--------------------------|-----|--3----3--------3--3--|--L----3--------L----|
--2-----------------2-----|-----|--3----3--------3--3--|--L----3--------L----|
-----------3--------------|-----|--5----5--------5--5--|--L----5--------L----|
-----3--3-----3--3-----3--|-----|--5----5--------5--5--|--L----5--------L----|
--------------------------|-----|----------------------|---------------------|


  Q    H        E  E     Q    Q    H           Q    H        E  E
--3----3--------3--3--|--L----3----1--------|--1----1--------1--1--|
--3----3--------3--3--|--L----3----1--------|--1----1--------1--1--|
--3----3--------3--3--|--L----3----3--------|--2----2--------2--2--|
--5----5--------5--5--|--L----5----3--------|--3----3--------3--3--|
--5----5--------5--5--|--L----5----L--------|--3----3--------3--3--|
----------------------|---------------------|----------------------|


  Q    H        Q       Q    H        E  E     Q    H        Q
--L----1--------L----|--1----1--------1--1--|--0----L--------L----|
--L----1--------L----|--1----1--------1--1--|--3----L--------L----|
--L----2--------L----|--2----2--------2--2--|--2----L--------L----|
--L----3--------L----|--3----3--------3--3--|--0----L--------L----|
--L----3--------L----|--3----3--------3--3--|--0----L--------L----|
---------------------|----------------------|---------------------|


  E  E  E  E  E  E  E  E     E  E  E  E  E  E  E  E
--------------------------|--------------------------|
--------------------------|--------------------------|
--0-----------------0-----|--0-----------------0-----|
-----------0--------------|-----------0--------------|
--------------------------|--------------------------|
-----3--3-----3--3-----3--|-----3--3-----3--3-----3--|


  E  E  E  E  E  E  E  E     E  E  E  E  E  E  E  E
--------------------------|--------------------------|
--------------------------|--------------------------|
--3-----------------3-----|--3-----------------3-----|
-----------5--------------|-----------5--------------|
-----5--5-----5--5-----5--|-----5--5-----5--5-----5--|
--------------------------|--------------------------|


  E  E  E  E  E  E  E  E     E  E  E  E  E  E  E  E
--------------------------|--------------------------|
--------------------------|--------------------------|
--2-----------------2-----|--2-----------------2-----|
-----------3--------------|-----------3--------------|
-----3--3-----3--3-----3--|-----3--3-----3--3-----3--|
--------------------------|--------------------------|


  E  E  E  E  E  E  E  E     E  E  E  E  E  E  E  E
--------------------------|--------------------------|
--------------------------|--------------------------|
--2-----------------2-----|--2--------2--------2-----|
-----------3--------------|--------------------------|
-----3--3-----3--3-----3--|-----3--3-----3--3-----3--|
--------------------------|--------------------------|


  E  E  E  E  E  E  E  E     E  E  E  E  E  E  E  E
--------------------------|--------------------------|
--------------------------|--------------------------|
--0-----------------0-----|--0-----------------0-----|
-----------0--------------|-----------0--------------|
--------------------------|--------------------------|
-----3--3-----3--3-----3--|-----3--3-----3--3-----3--|


  E  E  E  E  E  E  E  E     E  E  E  E  E  E  E  E
--------------------------|--------------------------|
--------------------------|--------------------------|
--3-----------------3-----|--3-----------------3-----|
-----------5--------------|-----------5--------------|
-----5--5-----5--5-----5--|-----5--5-----5--5-----5--|
--------------------------|--------------------------|


  E  E  E  E  E  E  E  E     E  E  E  E  E  E  E  E
--------------------------|--------------------------|
--------------------------|--------------------------|
--2-----------------2-----|--2-----------------2-----|
-----------3--------------|-----------3--------------|
-----3--3-----3--3-----3--|-----3--3-----3--3-----3--|
--------------------------|--------------------------|


  E  E  E  E  E  E  E  E     E  E  E  E  E  E  E  E
--------------------------|--------------------------|
--------------------------|--------------------------|
--2-----------------2-----|--2--------2--------2-----|
-----------3--------------|--------------------------|
-----3--3-----3--3-----3--|-----3--3-----3--3-----3--|
--------------------------|--------------------------|


  E  E  E  E  E  E  E  E     E  E  E  E  E  E  E  E
--------------------------|--------------------------|
--------------------------|--------------------------|
--0-----------------0-----|--0-----------------0-----|
-----------0--------------|-----------0--------------|
--------------------------|--------------------------|
-----3--3-----3--3-----3--|-----3--3-----3--3-----3--|


  E  E  E  E  E  E  E  E     E  E  E  E  E  E  E  E
--------------------------|--------------------------|
--------------------------|--------------------------|
--3-----------------3-----|--3-----------------3-----|
-----------5--------------|-----------5--------------|
-----5--5-----5--5-----5--|-----5--5-----5--5-----5--|
--------------------------|--------------------------|


  E  E  E  E  E  E  E  E     E  E  E  E  E  E  E  E
--------------------------|--------------------------|
--------------------------|--------------------------|
--2-----------------2-----|--2-----------------2-----|
-----------3--------------|-----------3--------------|
-----3--3-----3--3-----3--|-----3--3-----3--3-----3--|
--------------------------|--------------------------|


  E  E  E  E  E  E  E  E           Q    H        E  E     Q    H        Q
--------------------------|-----|--3----3--------3--3--|--L----3--------L----|
--------------------------|-----|--3----3--------3--3--|--L----3--------L----|
--2-----------------2-----|-----|--3----3--------3--3--|--L----3--------L----|
-----------3--------------|-----|--5----5--------5--5--|--L----5--------L----|
-----3--3-----3--3-----3--|-----|--5----5--------5--5--|--L----5--------L----|
--------------------------|-----|----------------------|---------------------|


  Q    H        E  E     Q    Q    H           Q    H        E  E
--3----3--------3--3--|--L----3----1--------|--1----1--------1--1--|
--3----3--------3--3--|--L----3----1--------|--1----1--------1--1--|
--3----3--------3--3--|--L----3----3--------|--2----2--------2--2--|
--5----5--------5--5--|--L----5----3--------|--3----3--------3--3--|
--5----5--------5--5--|--L----5----L--------|--3----3--------3--3--|
----------------------|---------------------|----------------------|


  Q    H        Q       Q    H        E  E     Q    H        Q
--L----1--------L----|--1----1--------1--1--|--0----L--------L----|
--L----1--------L----|--1----1--------1--1--|--3----L--------L----|
--L----2--------L----|--2----2--------2--2--|--2----L--------L----|
--L----3--------L----|--3----3--------3--3--|--0----L--------L----|
--L----3--------L----|--3----3--------3--3--|--0----L--------L----|
---------------------|----------------------|---------------------|


  Q    H        E  E     Q    H        Q       Q    H        E  E
--3----3--------3--3--|--L----3--------L----|--3----3--------3--3--|
--3----3--------3--3--|--L----3--------L----|--3----3--------3--3--|
--3----3--------3--3--|--L----3--------L----|--3----3--------3--3--|
--5----5--------5--5--|--L----5--------L----|--5----5--------5--5--|
--5----5--------5--5--|--L----5--------L----|--5----5--------5--5--|
----------------------|---------------------|----------------------|


  Q    Q    H           Q    H        E  E     Q    H        Q
--L----3----1--------|--1----1--------1--1--|--L----1--------L----|
--L----3----1--------|--1----1--------1--1--|--L----1--------L----|
--L----3----3--------|--2----2--------2--2--|--L----2--------L----|
--L----5----3--------|--3----3--------3--3--|--L----3--------L----|
--L----5----L--------|--3----3--------3--3--|--L----3--------L----|
---------------------|----------------------|---------------------|


  Q    H        E  E     Q    H        Q       E  E  E  E  E  E  E  E
--1----1--------1--1--|--0----L--------L----|--------------------------|
--1----1--------1--1--|--3----L--------L----|--------------------------|
--2----2--------2--2--|--2----L--------L----|--0-----------------0-----|
--3----3--------3--3--|--0----L--------L----|-----------0--------------|
--3----3--------3--3--|--0----L--------L----|--------------------------|
----------------------|---------------------|-----3--3-----3--3-----3--|


  E  E  E  E  E  E  E  E     E  E  E  E  E  E  E  E
--------------------------|--------------------------|
--------------------------|--------------------------|
--0-----------------0-----|--3-----------------3-----|
-----------0--------------|-----------5--------------|
--------------------------|-----5--5-----5--5-----5--|
-----3--3-----3--3-----3--|--------------------------|


  E  E  E  E  E  E  E  E     E  E  E  E  E  E  E  E
--------------------------|--------------------------|
--------------------------|--------------------------|
--3-----------------3-----|--2-----------------2-----|
-----------5--------------|-----------3--------------|
-----5--5-----5--5-----5--|-----3--3-----3--3-----3--|
--------------------------|--------------------------|


  E  E  E  E  E  E  E  E     E  E  E  E  E  E  E  E
--------------------------|--------------------------|
--------------------------|--------------------------|
--2-----------------2-----|--2-----------------2-----|
-----------3--------------|-----------3--------------|
-----3--3-----3--3-----3--|-----3--3-----3--3-----3--|
--------------------------|--------------------------|


  E  E  E  E  E  E  E  E     E  E  E  E  E  E  E  E
--------------------------|--------------------------|
--------------------------|--------------------------|
--2--------2--------2-----|--0-----------------0-----|
--------------------------|-----------0--------------|
-----3--3-----3--3-----3--|--------------------------|
--------------------------|-----3--3-----3--3-----3--|


  E  E  E  E  E  E  E  E     E  E  E  E  E  E  E  E
--------------------------|--------------------------|
--------------------------|--------------------------|
--0-----------------0-----|--3-----------------3-----|
-----------0--------------|-----------5--------------|
--------------------------|-----5--5-----5--5-----5--|
-----3--3-----3--3-----3--|--------------------------|


  E  E  E  E  E  E  E  E     E  E  E  E  E  E  E  E
--------------------------|--------------------------|
--------------------------|--------------------------|
--3-----------------3-----|--2-----------------2-----|
-----------5--------------|-----------3--------------|
-----5--5-----5--5-----5--|-----3--3-----3--3-----3--|
--------------------------|--------------------------|


  E  E  E  E  E  E  E  E     E  E  E  E  E  E  E  E
--------------------------|--------------------------|
--------------------------|--------------------------|
--2-----------------2-----|--2-----------------2-----|
-----------3--------------|-----------3--------------|
-----3--3-----3--3-----3--|-----3--3-----3--3-----3--|
--------------------------|--------------------------|


  E  E  E  E  E  E  E  E     E  E  E  E  E  E  E  E
--------------------------|--------------------------|
--------------------------|--------------------------|
--2--------2--------2-----|--0-----------------0-----|
--------------------------|-----------0--------------|
-----3--3-----3--3-----3--|--------------------------|
--------------------------|-----3--3-----3--3-----3--|


  E  E  E  E  E  E  E  E     E  E  E  E  E  E  E  E
--------------------------|--------------------------|
--------------------------|--------------------------|
--0-----------------0-----|--3-----------------3-----|
-----------0--------------|-----------5--------------|
--------------------------|-----5--5-----5--5-----5--|
-----3--3-----3--3-----3--|--------------------------|


  E  E  E  E  E  E  E  E     E  E  E  E  E  E  E  E
--------------------------|--------------------------|
--------------------------|--------------------------|
--3-----------------3-----|--2-----------------2-----|
-----------5--------------|-----------3--------------|
-----5--5-----5--5-----5--|-----3--3-----3--3-----3--|
--------------------------|--------------------------|


  E  E  E  E  E  E  E  E                 Q    H        E  E
--------------------------|-----|-----|--3----3--------3--3--|
--------------------------|-----|-----|--3----3--------3--3--|
--2-----------------2-----|-----|-----|--3----3--------3--3--|
-----------3--------------|-----|-----|--5----5--------5--5--|
-----3--3-----3--3-----3--|-----|-----|--5----5--------5--5--|
--------------------------|-----|-----|----------------------|


  Q    H        Q       Q    H        E  E     Q    Q    H
--L----3--------L----|--3----3--------3--3--|--L----3----1--------|
--L----3--------L----|--3----3--------3--3--|--L----3----1--------|
--L----3--------L----|--3----3--------3--3--|--L----3----3--------|
--L----5--------L----|--5----5--------5--5--|--L----5----3--------|
--L----5--------L----|--5----5--------5--5--|--L----5----L--------|
---------------------|----------------------|---------------------|


  Q    H        E  E     Q    H        Q       Q    H        E  E
--1----1--------1--1--|--L----1--------L----|--1----1--------1--1--|
--1----1--------1--1--|--L----1--------L----|--1----1--------1--1--|
--2----2--------2--2--|--L----2--------L----|--2----2--------2--2--|
--3----3--------3--3--|--L----3--------L----|--3----3--------3--3--|
--3----3--------3--3--|--L----3--------L----|--3----3--------3--3--|
----------------------|---------------------|----------------------|


  Q    H        Q       Q    H        E  E     Q    H        Q
--0----L--------L----|--3----3--------3--3--|--L----3--------L----|
--3----L--------L----|--3----3--------3--3--|--L----3--------L----|
--2----L--------L----|--3----3--------3--3--|--L----3--------L----|
--0----L--------L----|--5----5--------5--5--|--L----5--------L----|
--0----L--------L----|--5----5--------5--5--|--L----5--------L----|
---------------------|----------------------|---------------------|


  Q    H        E  E     Q    Q    H           Q    H        E  E
--3----3--------3--3--|--L----3----1--------|--1----1--------1--1--|
--3----3--------3--3--|--L----3----1--------|--1----1--------1--1--|
--3----3--------3--3--|--L----3----3--------|--2----2--------2--2--|
--5----5--------5--5--|--L----5----3--------|--3----3--------3--3--|
--5----5--------5--5--|--L----5----L--------|--3----3--------3--3--|
----------------------|---------------------|----------------------|


  Q    H        Q       Q    H        E  E     Q    H        Q
--L----1--------L----|--1----1--------1--1--|--0----L--------L----|
--L----1--------L----|--1----1--------1--1--|--3----L--------L----|
--L----2--------L----|--2----2--------2--2--|--2----L--------L----|
--L----3--------L----|--3----3--------3--3--|--0----L--------L----|
--L----3--------L----|--3----3--------3--3--|--0----L--------L----|
---------------------|----------------------|---------------------|


  E  E  E  E  E  E  E  E     E  E  E  E  E  E  E  E
--------------------------|--------------------------|
--------------------------|--------------------------|
--0-----------------0-----|--0-----------------0-----|
-----------0--------------|-----------0--------------|
--------------------------|--------------------------|
-----3--3-----3--3-----3--|-----3--3-----3--3-----3--|


  E  E  E  E  E  E  E  E     E  E  E  E  E  E  E  E
--------------------------|--------------------------|
--------------------------|--------------------------|
--3-----------------3-----|--3-----------------3-----|
-----------5--------------|-----------5--------------|
-----5--5-----5--5-----5--|-----5--5-----5--5-----5--|
--------------------------|--------------------------|


  E  E  E  E  E  E  E  E     E  E  E  E  E  E  E  E
--------------------------|--------------------------|
--------------------------|--------------------------|
--2-----------------2-----|--2-----------------2-----|
-----------3--------------|-----------3--------------|
-----3--3-----3--3-----3--|-----3--3-----3--3-----3--|
--------------------------|--------------------------|


  E  E  E  E  E  E  E  E     E  E  E  E  E  E  E  E
--------------------------|--------------------------|
--------------------------|--------------------------|
--2-----------------2-----|--2--------2--------2-----|
-----------3--------------|--------------------------|
-----3--3-----3--3-----3--|-----3--3-----3--3-----3--|
--------------------------|--------------------------|


  E  E  E  E  E  E  E  E     E  E  E  E  E  E  E  E
--------------------------|--------------------------|
--------------------------|--------------------------|
--0-----------------0-----|--0-----------------0-----|
-----------0--------------|-----------0--------------|
--------------------------|--------------------------|
-----3--3-----3--3-----3--|-----3--3-----3--3-----3--|


  E  E  E  E  E  E  E  E     E  E  E  E  E  E  E  E
--------------------------|--------------------------|
--------------------------|--------------------------|
--3-----------------3-----|--3-----------------3-----|
-----------5--------------|-----------5--------------|
-----5--5-----5--5-----5--|-----5--5-----5--5-----5--|
--------------------------|--------------------------|


  E  E  E  E  E  E  E  E     E  E  E  E  E  E  E  E
--------------------------|--------------------------|
--------------------------|--------------------------|
--2-----------------2-----|--2-----------------2-----|
-----------3--------------|-----------3--------------|
-----3--3-----3--3-----3--|-----3--3-----3--3-----3--|
--------------------------|--------------------------|


  E  E  E  E  E  E  E  E     E  E  E  E  E  E  E  E
--------------------------|--------------------------|
--------------------------|--------------------------|
--2-----------------2-----|--2--------2--------2-----|
-----------3--------------|--------------------------|
-----3--3-----3--3-----3--|-----3--3-----3--3-----3--|
--------------------------|--------------------------|


  E  E  E  E  E  E  E  E     E  E  E  E  E  E  E  E
--------------------------|--------------------------|
--------------------------|--------------------------|
--0-----------------0-----|--0-----------------0-----|
-----------0--------------|-----------0--------------|
--------------------------|--------------------------|
-----3--3-----3--3-----3--|-----3--3-----3--3-----3--|


  E  E  E  E  E  E  E  E     E  E  E  E  E  E  E  E
--------------------------|--------------------------|
--------------------------|--------------------------|
--3-----------------3-----|--3-----------------3-----|
-----------5--------------|-----------5--------------|
-----5--5-----5--5-----5--|-----5--5-----5--5-----5--|
--------------------------|--------------------------|


  E  E  E  E  E  E  E  E     E  E  E  E  E  E  E  E
--------------------------|--------------------------|
--------------------------|--------------------------|
--2-----------------2-----|--2-----------------2-----|
-----------3--------------|-----------3--------------|
-----3--3-----3--3-----3--|-----3--3-----3--3-----3--|
--------------------------|--------------------------|


  E  E  E  E  E  E  E  E     E  E  E  E  E  E  E  E
--------------------------|--------------------------|
--------------------------|--------------------------|
--2-----------------2-----|--2--------2--------2-----|
-----------3--------------|--------------------------|
-----3--3-----3--3-----3--|-----3--3-----3--3-----3--|
--------------------------|--------------------------|


  E  E  E  E  E  E  E  E     E  E  E  E  E  E  E  E
--------------------------|--------------------------|
--------------------------|--------------------------|
--0-----------------0-----|--0-----------------0-----|
-----------0--------------|-----------0--------------|
--------------------------|--------------------------|
-----3--3-----3--3-----3--|-----3--3-----3--3-----3--|


  E  E  E  E  E  E  E  E     E  E  E  E  E  E  E  E
--------------------------|--------------------------|
--------------------------|--------------------------|
--3-----------------3-----|--3-----------------3-----|
-----------5--------------|-----------5--------------|
-----5--5-----5--5-----5--|-----5--5-----5--5-----5--|
--------------------------|--------------------------|


  E  E  E  E  E  E  E  E     E  E  E  E  E  E  E  E
--------------------------|--------------------------|
--------------------------|--------------------------|
--2-----------------2-----|--2-----------------2-----|
-----------3--------------|-----------3--------------|
-----3--3-----3--3-----3--|-----3--3-----3--3-----3--|
--------------------------|--------------------------|


  E  E  E  E  E  E  E  E     E  E  E  E  E  E  E  E
--------------------------|--------------------------||
--------------------------|--------------------------||
--2-----------------2-----|--2--------2--------2-----||
-----------3--------------|--------------------------||
-----3--3-----3--3-----3--|-----3--3-----3--3-----3--||
--------------------------|--------------------------||


Duration Legend
---------------
W - whole
H - half
Q - quarter
E - 8th
S - 16th
T - 32nd
X - 64th
. - note dotted
|-n-|  - n-tuplets


Tablature Legend
----------------
L - tied note
x - dead note
g - grace note
(n) - ghost note
> - accentuded note
NH - natural harmonic
AH - artificial harmonic
TH - tapped harmonic
SH - semi harmonic
PH - pitch harmonic
h - hammer on
p - pull off
b - bend
br - bendRelease
pb - preBend
pbr - preBendRelease
brb - bendReleaseBend
\n/ - tremolo bar dip
\n - tremolo bar dive
-/n - tremolo bar Release up
/n\ - tremolo bar inverted dip
/n - tremolo bar return
-\n - tremolo bar Release down
S - shift slide
s - legato slide
/ -  slide into from below or out of upwards
\ -  slide into from above or out of downwards
~ - vibrato
W - wide vibrato
tr - trill
TP - tremolo picking
T - tapping
S - slap
P - pop
< - fade in
^ - brush up
v - brush down


That is all! I hope this helped, and be sure to check out my cover if you are
having problems with the tab. Thanks, oh and one last thing... ROCK OUT!!!!
comments
We did not receive enough feedback on this tab! Please rate:
print report bad tab
1 2 3 4 5
I want to post or [tab]
guest
You may want to rate the tab now too:
select rating
Please do not post tabs as comments. Select "correction" instead!