Oops, an error
Loading. Please wait.

We Are Tab

ver1
ver1

Whole song

Interactive

More versions @911Tabs.com
9,837 views 21 this week
2 commentsread comments
1 2 3 4 5
accurate
x 3
Autoscroll
+/-
esc
set tempo
stop
Contributor
Difficulty
Tuning
novice
D A D G B E
WARNING: You are trying to view
                                    content from Ultimate-Guitar.com
                                    in an unauthorized application,
                                    which is prohibited.

                                    Please use an official Ultimate
                                    Guitar Tabs application for iPhone,
                                    iPad or Android to access legitimate
                                    chords, guitar, bass, and drum tabs
                                    from Ultimate-Guitar.com database.

                                    Type "ultimate guitar tabs" in Apple
                                    App Store's or Android Market's
                                    search to find the application.
----------------------------------------------------------------------------
                               We Are
                           Hollywood Undead
----------------------------------------------------------------------------

The HU crew is back in 2012 with a stellar creation. I hate Deuce vs. Danny comments. Enjoy!

Username: dkm817 (same on X box live)
Youtube Cover: http://www.youtube.com/watch?v=CmlZ3ZMM42I
Email: guitardrums@rockfan.com

Guitar 1 Rhythmic (C# G# C# F# A# D#)
Guitar 2 Lead     (C# G# C# F# A# D#)

NOTE: This was exported off of guitar pro.


Guitar 1

     W                            E  E   E  E    E    E   E   E   
E||-------------------|-------|----------------------------------|
B||-------------------|-------|--10--L--10--L---11----L--11---L--|
G||-------------------|-------|------7---L--7--(10)--10---L--10--|
D||-------------------|-------|----------------------------------|
A||-------------------|-------|----------------------------------|
D||-------------------|-------|----------------------------------|


   E   E  E  E   E  E  E  E      E  E   E  E    E    E   E   E   
-----------------------------|----------------------------------|
---8---L--8--L--10-----8-----|--10--L--10--L---11----L--11---L--|
--(5)--5--L--5------7-----7--|------7---L--7--(10)--10---L--10--|
-----------------------------|----------------------------------|
-----------------------------|----------------------------------|
-----------------------------|----------------------------------|


   E   E  E  E  Q     S  S S S    E  E  E  E  E  E  E  E   
-------------------------------|--------------------------|
---8---L--8--L--8--------------|--------------------------|
--(5)--5--L--5--L-----x--x-----|--------------------------|
----------------------x--x-----|--0--0--0--0--3--3--3--3--|
----------------------x--x-----|--0--0--0--0--3--3--3--3--|
-------------------------------|--0--0--0--0--3--3--3--3--|


  E  E  E  E  E  E  E  E     E  E  E  E  E  E  E  E   
--------------------------|--------------------------|
--------------------------|--------------------------|
--5--5--5--5--------------|--------------------------|
--5--5--5--5--------------|--0--0--0--0--3--3--3--3--|
--3--3--3--3--------------|--0--0--0--0--3--3--3--3--|
--------------5--5--5--5--|--0--0--0--0--3--3--3--3--|


  E  E  E  E  E  E  E  E     E  E  E  E  E  E  E  E   
--------------------------|--------------------------|
--------------------------|--------------------------|
--5--5--5--5--------------|--------------------------|
--5--5--5--5--------------|--0--0--0--0--3--3--3--3--|
--3--3--3--3--------------|--0--0--0--0--3--3--3--3--|
--------------5--5--5--5--|--0--0--0--0--3--3--3--3--|


  E  E  E  E  E  E  E  E     E  E  E  E  E  E  E  E     E  E  E  E  H         
--------------------------|--------------------------|-----------------------|
--------------------------|--------------------------|-----------------------|
--5--5--5--5--------------|--------------------------|--5--5--5--5-----------|
--5--5--5--5--5--5--5--5--|--0--0--0--0--3--3--3--3--|--5--5--5--5-----------|
--3--3--3--3--5--5--5--5--|--0--0--0--0--3--3--3--3--|--3--3--3--3-----------|
--------------5--5--5--5--|--0--0--0--0--3--3--3--3--|--------------5--------|


  H         H           W                   H         H         
---------------------|-------------------|---------------------|
-----------10--------|--8----------------|-----------10--------|
--7---------L--------|--L----------------|--7---------L--------|
---------------------|-------------------|---------------------|
---------------------|-------------------|---------------------|
---------------------|-------------------|---------------------|


  W                   H         H           W                 
-------------------|---------------------|-------------------|
--8----------------|-----------10--------|--8----------------|
--L----------------|--7---------L--------|--L----------------|
-------------------|---------------------|-------------------|
-------------------|---------------------|-------------------|
-------------------|---------------------|-------------------|


  H         H           H        H           H         H         
---------------------|--------------------|---------------------|
-----------10--------|--8-----------------|-----------10--------|
--7---------L--------|--L-----------------|--7---------L--------|
---------------------|--------------------|---------------------|
---------------------|--------------------|---------------------|
---------------------|--------------------|---------------------|


  W                   H         H           W                 
-------------------|---------------------|-------------------|
--8----------------|-----------10--------|--8----------------|
--L----------------|--7---------L--------|--L----------------|
-------------------|---------------------|-------------------|
-------------------|---------------------|-------------------|
-------------------|---------------------|-------------------|


  H         H           W                    E  E   E  E  E  E  E  E   
---------------------|-------------------|----------------------------|
-----------10--------|--8----------------|----------------8-----8-----|
--7---------L--------|--L----------------|--10--7--10--7-----7-----7--|
---------------------|-------------------|----------------------------|
---------------------|-------------------|----------------------------|
---------------------|-------------------|----------------------------|


   E  E   E  S S E  E  E  E     E  E  E  E  E  E  E  E   
-----------------------------|--------------------------|
--10-----10------------------|--------------------------|
------7----------------------|--------------------------|
-----------------------------|--0--0--0--0--3--3--3--3--|
-----------------------------|--0--0--0--0--3--3--3--3--|
-------------5-7-8--7--5--3--|--0--0--0--0--3--3--3--3--|


  E  E  E  E  E  E  E  E     E  E  E  E  E  E  E  E   
--------------------------|--------------------------|
--------------------------|--------------------------|
--5--5--5--5--------------|--------------------------|
--5--5--5--5--------------|--0--0--0--0--3--3--3--3--|
--3--3--3--3--------------|--0--0--0--0--3--3--3--3--|
--------------5--5--5--5--|--0--0--0--0--3--3--3--3--|


  E  E  E  E  E  E  E  E     E  E  E  E  E  E  E  E   
--------------------------|--------------------------|
--------------------------|--------------------------|
--5--5--5--5--------------|--------------------------|
--5--5--5--5--------------|--0--0--0--0--3--3--3--3--|
--3--3--3--3--------------|--0--0--0--0--3--3--3--3--|
--------------5--5--5--5--|--0--0--0--0--3--3--3--3--|


  E  E  E  E  E  E  E  E     E  E  E  E  E  E  E  E     E  E  E  E  H         
--------------------------|--------------------------|-----------------------|
--------------------------|--------------------------|-----------------------|
--5--5--5--5--------------|--------------------------|--5--5--5--5-----------|
--5--5--5--5--5--5--5--5--|--0--0--0--0--3--3--3--3--|--5--5--5--5-----------|
--3--3--3--3--5--5--5--5--|--0--0--0--0--3--3--3--3--|--3--3--3--3-----------|
--------------5--5--5--5--|--0--0--0--0--3--3--3--3--|--------------5--------|


  H         H           W                   H         H         
---------------------|-------------------|---------------------|
-----------10--------|--8----------------|-----------10--------|
--7---------L--------|--L----------------|--7---------L--------|
---------------------|-------------------|---------------------|
---------------------|-------------------|---------------------|
---------------------|-------------------|---------------------|


  W                   H         H           W                 
-------------------|---------------------|-------------------|
--8----------------|-----------10--------|--8----------------|
--L----------------|--7---------L--------|--L----------------|
-------------------|---------------------|-------------------|
-------------------|---------------------|-------------------|
-------------------|---------------------|-------------------|


  H         H           H        E  E  E  E      E  E   E  E  E  E  E  E   
---------------------|-----------------------|----------------------------|
-----------10--------|--8--------------------|----------------8-----8-----|
--7---------L--------|--L--------------------|--10--7--10--7-----7-----7--|
---------------------|-----------8--7--5--3--|----------------------------|
---------------------|-----------------------|----------------------------|
---------------------|-----------------------|----------------------------|


   E  E   E  E  E  E  E  E      E  E   E  E  E  E  E  E   
----------------------------|----------------------------|
--10-----10-----------------|----------------8-----8-----|
------7------7--------------|--10--7--10--7-----7-----7--|
----------------8--7--5--3--|----------------------------|
----------------------------|----------------------------|
----------------------------|----------------------------|


   E  E   E  E  E  E  E  E      E  E   E  E  E  E  E  E   
----------------------------|----------------------------|
--10-----10-----------------|----------------8-----8-----|
------7------7--------------|--10--7--10--7-----7-----7--|
----------------8--7--5--3--|----------------------------|
----------------------------|----------------------------|
----------------------------|----------------------------|


   E  E   E  E  E  E  E  E      E  E   E  E  E  E  E  E   
----------------------------|----------------------------|
--10-----10-----------------|----------------8-----8-----|
------7------7--------------|--10--7--10--7-----7-----7--|
----------------8--7--5--3--|----------------------------|
----------------------------|----------------------------|
----------------------------|----------------------------|


   E  E   E  S S E  E  E  E     E  E  E  E  E  E  E  E   
-----------------------------|--------------------------|
--10-----10------------------|--------------------------|
------7----------------------|--------------------------|
-----------------------------|--0--0--0--0--3--3--3--3--|
-----------------------------|--0--0--0--0--3--3--3--3--|
-------------5-7-8--7--5--3--|--0--0--0--0--3--3--3--3--|


  E  E  E  E  E  E  E  E     E  E  E  E  E  E  E  E   
--------------------------|--------------------------|
--------------------------|--------------------------|
--5--5--5--5--------------|--------------------------|
--5--5--5--5--------------|--0--0--0--0--3--3--3--3--|
--3--3--3--3--------------|--0--0--0--0--3--3--3--3--|
--------------5--5--5--5--|--0--0--0--0--3--3--3--3--|


  E  E  E  E  E  E  E  E     E  E  E  E  E  E  E  E   
--------------------------|--------------------------|
--------------------------|--------------------------|
--5--5--5--5--------------|--------------------------|
--5--5--5--5--------------|--0--0--0--0--3--3--3--3--|
--3--3--3--3--------------|--0--0--0--0--3--3--3--3--|
--------------5--5--5--5--|--0--0--0--0--3--3--3--3--|


  E  E  E  E  E  E  E  E     E  E  E  E  E  E  E  E     E  E  E  E  H         
--------------------------|--------------------------|-----------------------|
--------------------------|--------------------------|-----------------------|
--5--5--5--5--------------|--------------------------|--5--5--5--5-----------|
--5--5--5--5--5--5--5--5--|--0--0--0--0--3--3--3--3--|--5--5--5--5-----------|
--3--3--3--3--5--5--5--5--|--0--0--0--0--3--3--3--3--|--3--3--3--3-----------|
--------------5--5--5--5--|--0--0--0--0--3--3--3--3--|--------------5--------|


  W                   W                   H        H         
-------------------|-------------------|-----------8--------|
-------------------|-------------------|--------------------|
-------------------|-------------------|--7-----------------|
--0----------------|--L----------------|--------------------|
--0----------------|--L----------------|--------------------|
--0----------------|--L----------------|--------------------|


   H         H           H        H            Q    E  S  S  E   E  E   E   
----------------------|--------------------|-------------------------------|
--10--------11--------|-----------8--------|-----------8-10-11--10--8------|
----------------------|--7-----------------|--10----L------------------10--|
----------------------|--------------------|-------------------------------|
----------------------|--------------------|-------------------------------|
----------------------|--------------------|-------------------------------|


                          PM                             
        H        Q    S S E     E  E  E  E  E  E  E  E   
-----|-----------------------|--------------------------|
-----|----------------x-x----|--------------------------|
-----|----------------x-x----|--------------------------|
-----|----------------x-x-0--|--0--0--0--0--3--3--3--3--|
-----|--------------------0--|--0--0--0--0--3--3--3--3--|
-----|--------------------0--|--0--0--0--0--3--3--3--3--|


  E  E  E  E  E  E  E  E     E  E  E  E  E  E  E  E   
--------------------------|--------------------------|
--------------------------|--------------------------|
--5--5--5--5--------------|--------------------------|
--5--5--5--5--------------|--0--0--0--0--3--3--3--3--|
--3--3--3--3--------------|--0--0--0--0--3--3--3--3--|
--------------5--5--5--5--|--0--0--0--0--3--3--3--3--|


  E  E  E  E  E  E  E  E     E  E  E  E  E  E  E  E   
--------------------------|--------------------------|
--------------------------|--------------------------|
--5--5--5--5--------------|--------------------------|
--5--5--5--5--5--5--5--5--|--0--0--0--0--3--3--3--3--|
--3--3--3--3--5--5--5--5--|--0--0--0--0--3--3--3--3--|
--------------5--5--5--5--|--0--0--0--0--3--3--3--3--|


  E  E  E  E  E  E  E  E     E  E  E  E  E  E  E  E   
--------------------------|--------------------------|
--------------------------|--------------------------|
--5--5--5--5--------------|--------------------------|
--5--5--5--5--------------|--0--0--0--0--3--3--3--3--|
--3--3--3--3--------------|--0--0--0--0--3--3--3--3--|
--------------5--5--5--5--|--0--0--0--0--3--3--3--3--|


  E  E  E  E  E  E  E  E     E  E  E  E  E  E  E  E   
--------------------------|--------------------------|
--------------------------|--------------------------|
--5--5--5--5--------------|--------------------------|
--5--5--5--5--5--5--5--5--|--0--0--0--0--3--3--3--3--|
--3--3--3--3--5--5--5--5--|--0--0--0--0--3--3--3--3--|
--------------5--5--5--5--|--0--0--0--0--3--3--3--3--|


  E  E  E  E  E  E  E  E      E  E   E  E    E    E   E   E   
--------------------------|----------------------------------|
--------------------------|--10--L--10--L---11----L--11---L--|
--5--5--5--5--------------|------7---L--7--(10)--10---L--10--|
--5--5--5--5--5--5--5--5--|----------------------------------|
--3--3--3--3--5--5--5--5--|----------------------------------|
--------------5--5--5--5--|----------------------------------|


   E   E  E  E   E  E  E  E      E  E   E  E    E    E   E   E   
-----------------------------|----------------------------------|
---8---L--8--L--10-----8-----|--10--L--10--L---11----L--11---L--|
--(5)--5--L--5------7-----7--|------7---L--7--(10)--10---L--10--|
-----------------------------|----------------------------------|
-----------------------------|----------------------------------|
-----------------------------|----------------------------------|


   E   E  E  S  S  E   E  E   E     H         Q    E   S  S  
---------------------------------|--------------------------|
---8---L--8--8-10-11--10--8------|--------------------------|
--(5)--5--L------------------10--|--7--------12----L--10-12-|
---------------------------------|--------------------------|
---------------------------------|--------------------------|
---------------------------------|--------------------------|


   Q    E  S  S  E   E  E   E     W                  
-------------------------------|-------------------||
-----------8-10-11--10--8------|-------------------||
--10----L------------------10--|-------------------||
-------------------------------|-------------------||
-------------------------------|-------------------||
-------------------------------|-------------------||


Guitar 2

      Echo Effect                               
      E           E   E   E   S  S  E   E   E   
E||--------------------------------------------|
B||--15--------------15------15-15-----15------|
G||--------------14------14--------14------14--|
D||--------------------------------------------|
A||--------------------------------------------|
D||--------------------------------------------|


   E   E   E   E   S  S  E   E   E      E   E   E   E   S  S  E   E   E   
------------------------------------|------------------------------------|
--15------15------15-15-----15------|--15------15------15-15-----15------|
------14------14--------14------14--|------14------14--------14------14--|
------------------------------------|------------------------------------|
------------------------------------|------------------------------------|
------------------------------------|------------------------------------|


   E   E   E   E   S  S  E   E   E      E   E   E   E   S  S  E   E   E   
------------------------------------|------------------------------------|
--15------15------15-15-----15------|--15------15------15-15-----15------|
------14------14--------14------14--|------14------14--------14------14--|
------------------------------------|------------------------------------|
------------------------------------|------------------------------------|
------------------------------------|------------------------------------|


   E   E   E   E    E     E   S S S S     E  E   E  E   E  E   E  E   
--------------------------------------|------------------------------|
--15------15------(15)--------x-x-----|--10------------11------------|
------14------14--------(14)--x-x-----|------7------7------7------7--|
------------------------------x-x-----|---------10------------10-----|
--------------------------------------|------------------------------|
--------------------------------------|------------------------------|


  E  E   E  E   E   E  E   E      E  E   E  E   E  E   E  E   
------------------------------|------------------------------|
--8------------11--10--8------|--10------------11------------|
-----7------7-------------10--|------7------7------7------7--|
--------10--------------------|---------10------------10-----|
------------------------------|------------------------------|
------------------------------|------------------------------|


  E  E   E  E   E   E   E  E      E  E   E  E   E  E   E  E   
------------------------------|------------------------------|
--8------------11--10---------|--10------------11------------|
-----7------7-----------------|------7------7------7------7--|
--------10-------------10--7--|---------10------------10-----|
------------------------------|------------------------------|
------------------------------|------------------------------|


  E  E   E  E   E   E  E   E      E  E   E  E   E  E   E  E   
------------------------------|------------------------------|
--8------------11--10--8------|--10------------11------------|
-----7------7-------------10--|------7------7------7------7--|
--------10--------------------|---------10------------10-----|
------------------------------|------------------------------|
------------------------------|------------------------------|


  E  E   E  E  H                                             
------------------------|-----------|-----------|-----------|
--8---------------------|-----------|-----------|-----------|
-----7------7-----------|-----------|-----------|-----------|
--------10--------------|-----------|-----------|-----------|
------------------------|-----------|-----------|-----------|
------------------------|-----------|-----------|-----------|


  E  E  E  S  S  E   E  E   E                                                   
-------------------------------|-----------|-----------|-----------|-----------|
-----------8-10-11--10--8------|-----------|-----------|-----------|-----------|
---------------------------10--|-----------|-----------|-----------|-----------|
-------------------------------|-----------|-----------|-----------|-----------|
-------------------------------|-----------|-----------|-----------|-----------|
-------------------------------|-----------|-----------|-----------|-----------|


  E  E  E  E  E  E  E  E     E  E  E  E  E  E  E  E   
--------------------------|--------------------------|
--------------------------|--------------------------|
-----7--5--7-----7--5--7--|-----7--5--7-----7--5-----|
--------------------------|-----------------------7--|
--------------------------|--------------------------|
--------------------------|--------------------------|


  E  E  E  E  E  E  E  E     E  E  E  S  S  E   E  E   E   
--------------------------|-------------------------------|
--------------------------|-----------8-10-11--10--8------|
-----7--5--7-----7--5--7--|-----7--5------------------10--|
--------------------------|-------------------------------|
--------------------------|-------------------------------|
--------------------------|-------------------------------|


  E  E  E  E  E  E  E  E     E  E  E  S  S  E   E  E   E         
--------------------------|-------------------------------|-----|
--------------------------|-----------8-10-11--10--8------|-----|
-----7--5--7-----7--5--7--|-----7--5------------------10--|-----|
--------------------------|-------------------------------|-----|
--------------------------|-------------------------------|-----|
--------------------------|-------------------------------|-----|


  E  E  E  S  S  E   E  E   E      E  E   E  E   E  E   E  E   
-------------------------------|------------------------------|
-----------8-10-11--10--8------|--10------------11------------|
---------------------------10--|------7------7------7------7--|
-------------------------------|---------10------------10-----|
-------------------------------|------------------------------|
-------------------------------|------------------------------|


  E  E   E  E   E   E  E   E      E  E   E  E   E  E   E  E   
------------------------------|------------------------------|
--8------------11--10--8------|--10------------11------------|
-----7------7-------------10--|------7------7------7------7--|
--------10--------------------|---------10------------10-----|
------------------------------|------------------------------|
------------------------------|------------------------------|


  E  E   E  E   E   E   E  E      E  E   E  E   E  E   E  E   
------------------------------|------------------------------|
--8------------11--10---------|--10------------11------------|
-----7------7-----------------|------7------7------7------7--|
--------10-------------10--7--|---------10------------10-----|
------------------------------|------------------------------|
------------------------------|------------------------------|


  E  E   E  E   E   E  E   E      E  E   E  E   E  E   E  E   
------------------------------|------------------------------|
--8------------11--10--8------|--10------------11------------|
-----7------7-------------10--|------7------7------7------7--|
--------10--------------------|---------10------------10-----|
------------------------------|------------------------------|
------------------------------|------------------------------|


  E  E   E  E  H                                             
------------------------|-----------|-----------|-----------|
--8---------------------|-----------|-----------|-----------|
-----7------7-----------|-----------|-----------|-----------|
--------10--------------|-----------|-----------|-----------|
------------------------|-----------|-----------|-----------|
------------------------|-----------|-----------|-----------|


  E  E  E  S  S  E   E  E   E                                       
-------------------------------|-----------|-----------|-----------|
-----------8-10-11--10--8------|-----------|-----------|-----------|
---------------------------10--|-----------|-----------|-----------|
-------------------------------|-----------|-----------|-----------|
-------------------------------|-----------|-----------|-----------|
-------------------------------|-----------|-----------|-----------|


  E  E  E  S  S  E   E  E   E     E  E  E  E  E  E  E  E   
-------------------------------|--------------------------|
-----------8-10-11--10--8------|--------------------------|
---------------------------10--|-----7--5--7-----7--5--7--|
-------------------------------|--------------------------|
-------------------------------|--------------------------|
-------------------------------|--------------------------|


  E  E  E  E  E  E  E  E     E  E  E  E  E  E  E  E   
--------------------------|--------------------------|
--------------------------|--------------------------|
-----7--5--7-----7--5-----|-----7--5--7-----7--5--7--|
-----------------------7--|--------------------------|
--------------------------|--------------------------|
--------------------------|--------------------------|


  E  E  E  S  S  E   E  E   E     E  E  E  E  E  E  E  E   
-------------------------------|--------------------------|
-----------8-10-11--10--8------|--------------------------|
-----7--5------------------10--|-----7--5--7-----7--5--7--|
-------------------------------|--------------------------|
-------------------------------|--------------------------|
-------------------------------|--------------------------|


  E  E  E  E  E  E  E  E           E  E  E  S  S  E   E  E   E   
--------------------------|-----|-------------------------------|
--------------------------|-----|-----------8-10-11--10--8------|
-----7--5--7-----7--5-----|-----|---------------------------10--|
-----------------------7--|-----|-------------------------------|
--------------------------|-----|-------------------------------|
--------------------------|-----|-------------------------------|


   E  E   E  E   E  E   E  E     E  E   E  E   E   E  E   E   
------------------------------|------------------------------|
--10------------11------------|--8------------11--10--8------|
------7------7------7------7--|-----7------7-------------10--|
---------10------------10-----|--------10--------------------|
------------------------------|------------------------------|
------------------------------|------------------------------|


   E  E   E  E   E  E   E  E     E  E   E  E   E   E   E  E   
------------------------------|------------------------------|
--10------------11------------|--8------------11--10---------|
------7------7------7------7--|-----7------7-----------------|
---------10------------10-----|--------10-------------10--7--|
------------------------------|------------------------------|
------------------------------|------------------------------|


   E  E   E  E   E  E   E  E     E  E   E  E   E   E  E   E   
------------------------------|------------------------------|
--10------------11------------|--8------------11--10--8------|
------7------7------7------7--|-----7------7-------------10--|
---------10------------10-----|--------10--------------------|
------------------------------|------------------------------|
------------------------------|------------------------------|


   E  E   E  E   E  E   E  E     E  E   E  E  H           W                 
------------------------------|------------------------|-------------------|
--10------------11------------|--8---------------------|-------------------|
------7------7------7------7--|-----7------7-----------|-------------------|
---------10------------10-----|--------10--------------|--0----------------|
------------------------------|------------------------|--0----------------|
------------------------------|------------------------|--0----------------|


  Q    E  S  S  E   E  E   E     W                   W                 
------------------------------|-------------------|-------------------|
----------8-10-11--10--8------|-------------------|-------------------|
--------------------------10--|-------------------|-------------------|
--L----L----------------------|--0----------------|--L----------------|
--L----L----------------------|--0----------------|--L----------------|
--L----L----------------------|--0----------------|--L----------------|


  W                   W                    E  E   E  E   E  E   E  E   
-------------------|-------------------|------------------------------|
-------------------|-------------------|--10------------11------------|
-------------------|-------------------|------7------7------7------7--|
--0----------------|--L----------------|---------10------------10-----|
--0----------------|--L----------------|------------------------------|
--0----------------|--L----------------|------------------------------|


                           PM                                 
  E  E   E  E   E   E  S S E      E  E   E  E   E  E   E  E   
------------------------------|------------------------------|
--8------------11--10--x-x----|--10------------11------------|
-----7------7----------x-x----|------7------7------7------7--|
--------10-------------x-x-0--|---------10------------10-----|
---------------------------0--|------------------------------|
---------------------------0--|------------------------------|


  E  E   E  E   E   E   E  E      E  E   E  E   E  E   E  E   
------------------------------|------------------------------|
--8------------11--10---------|--10------------11------------|
-----7------7-----------------|------7------7------7------7--|
--------10-------------10--7--|---------10------------10-----|
------------------------------|------------------------------|
------------------------------|------------------------------|


  E  E   E  E   E   E  E   E      E  E   E  E   E  E   E  E   
------------------------------|------------------------------|
--8------------11--10--8------|--10------------11------------|
-----7------7-------------10--|------7------7------7------7--|
--------10--------------------|---------10------------10-----|
------------------------------|------------------------------|
------------------------------|------------------------------|


  E  E   E  S  S  E   E  E   E      E  E   E  E   E  E   E  E   
--------------------------------|------------------------------|
--8---------8-10-11--10--8------|--10------------11------------|
-----7----------------------10--|------7------7------7------7--|
--------10----------------------|---------10------------10-----|
--------------------------------|------------------------------|
--------------------------------|------------------------------|


  E  E   E  E   E   E  E   E      E  E   E  E   E  E   E  E   
------------------------------|------------------------------|
--8------------11--10--8------|--10------------11------------|
-----7------7-------------10--|------7------7------7------7--|
--------10--------------------|---------10------------10-----|
------------------------------|------------------------------|
------------------------------|------------------------------|


  E  E   E  S  S  E   E  E   E      E  E   E  E   E  E   E  E   
--------------------------------|------------------------------|
--8---------8-10-11--10--8------|--10------------11------------|
-----7----------------------10--|------7------7------7------7--|
--------10----------------------|---------10------------10-----|
--------------------------------|------------------------------|
--------------------------------|------------------------------|


  E  E   E  E  E  E   E  E      E  E   E  E   E  E   E  E   
----------------------------|------------------------------|
--8-------------------------|--10------------11------------|
-----7------7--7--7---------|------7------7------7------7--|
--------10-----------10--7--|---------10------------10-----|
----------------------------|------------------------------|
----------------------------|------------------------------|


  E  E   E  E   E   E  E   E     Q    Q    Q    Q       Q    Q    Q    Q     
------------------------------|--5----5----6----6----|----------------------|
--8------------11--10--8------|--3----3----6----6----|--6----6----8----8----|
-----7------7-------------10--|--2----2----5----5----|--5----5----7----7----|
--------10--------------------|--0----0----3----3----|--5----5----5----5----|
------------------------------|----------------------|--3----3--------------|
------------------------------|----------------------|----------------------|


  W                  
-------------------||
-------------------||
-------------------||
-------------------||
-------------------||
-------------------||


Duration Legend
---------------
W - whole
H - half
Q - quarter
E - 8th
S - 16th
T - 32nd
X - 64th
. - note dotted
|-n-|  - n-tuplets


Tablature Legend
----------------
L - tied note
x - dead note
g - grace note
(n) - ghost note
> - accentuded note
NH - natural harmonic
AH - artificial harmonic
TH - tapped harmonic
SH - semi harmonic
PH - pitch harmonic
h - hammer on
p - pull off
b - bend
br - bendRelease
pb - preBend
pbr - preBendRelease
brb - bendReleaseBend
\n/ - tremolo bar dip
\n - tremolo bar dive
-/n - tremolo bar Release up
/n\ - tremolo bar inverted dip
/n - tremolo bar return
-\n - tremolo bar Release down
S - shift slide
s - legato slide
/ -  slide into from below or out of upwards
\ -  slide into from above or out of downwards
~ - vibrato
W - wide vibrato
tr - trill
TP - tremolo picking
T - tapping
S - slap
P - pop
< - fade in
^ - brush up
v - brush down


That is all! I hope this helped, and be sure to check out my cover if you are
having problems with the tab. Thanks, oh and one last thing... ROCK OUT!!!!
comments
We did not receive enough feedback on this tab! Please rate:
print report bad tab
1 2 3 4 5
2 comments total.
0 reply
MoltenPMo wrote on November 10 2012, 03:43 am

Seems to be completely wrong

0 reply
shokololo wrote on January 6 2013, 03:54 pm

Drop C# or Drop D?
I think 1st one.

I want to post or [tab]
guest
You may want to rate the tab now too:
select rating
Please do not post tabs as comments. Select "correction" instead!